  0
SECTION
  2
HEADER
  9
$ACADVER
  1
AC1009
  9
$DWGCODEPAGE
  3
dos932
  9
$EXTMIN
 10
0.0
 20
0.0
 30
0.0
  9
$EXTMAX
 10
2520.0
 20
1782.0
 30
0.0
  9
$LIMMIN
 10
0.0
 20
0.0
  9
$LIMMAX
 10
2520.0
 20
1782.0
  9
$LTSCALE
 40
1.0
  9
$PDMODE
 70
     0
  0
ENDSEC
  0
SECTION
  2
TABLES
  0
TABLE
  2
VPORT
 70
     1
  0
VPORT
  2
*ACTIVE
 70
     0
 10
0.0
 20
0.0
 11
1.0
 21
1.0
 12
1260.0
 22
891.0
 13
0.0
 23
0.0
 14
10.0
 24
10.0
 15
10.0
 25
10.0
 16
0.0
 26
0.0
 36
1.0
 17
0.0
 27
0.0
 37
0.0
 40
2520.0
 41
1.414141414
 42
50.0
 43
0.0
 44
0.0
 50
0.0
 51
0.0
 71
     0
 72
  1000
 73
     1
 74
     3
 75
     0
 76
     0
 77
     0
 78
     0
  0
ENDTAB
  0
TABLE
  2
LTYPE
 70
     7
  0
LTYPE
  2
CONTINUOUS
 70
    64
  3
Solid line
 72
    65
 73
     0
 40
0.0
  0
LTYPE
  2
LTYPE1
 70
    64
  3
HIDDEN
 72
    65
 73
     2
 40
18.0
 49
10.8
 49
-7.2
  0
LTYPE
  2
LTYPE2
 70
    64
  3
CENTER
 72
    65
 73
     4
 40
60.0
 49
42.0
 49
-6.0
 49
6.0
 49
-6.0
  0
LTYPE
  2
LTYPE3
 70
    64
  3
CENTER
 72
    65
 73
     4
 40
90.0
 49
63.0
 49
-9.0
 49
9.0
 49
-9.0
  0
LTYPE
  2
LTYPE4
 70
    64
  3
CENTER
 72
    65
 73
     4
 40
54.0
 49
37.8
 49
-5.4
 49
5.4
 49
-5.4
  0
LTYPE
  2
LTYPE5
 70
    64
  3
CENTER
 72
    65
 73
     4
 40
120.0
 49
84.0
 49
-12.0
 49
12.0
 49
-12.0
  0
LTYPE
  2
LTYPE6
 70
    64
  3
PHANTOM
 72
    65
 73
     6
 40
90.0
 49
67.5
 49
-4.5
 49
4.5
 49
-4.5
 49
4.5
 49
-4.5
  0
ENDTAB
  0
TABLE
  2
LAYER
 70
   128
  0
LAYER
  2
0
 70
     0
 62
     7
  6
CONTINUOUS
  0
LAYER
  2
2
 70
     0
 62
     7
  6
CONTINUOUS
  0
LAYER
  2
3
 70
     0
 62
     7
  6
CONTINUOUS
  0
LAYER
  2
4
 70
     0
 62
     7
  6
CONTINUOUS
  0
LAYER
  2
5
 70
     0
 62
     7
  6
CONTINUOUS
  0
LAYER
  2
6
 70
     0
 62
     7
  6
CONTINUOUS
  0
LAYER
  2
7
 70
     0
 62
     7
  6
CONTINUOUS
  0
LAYER
  2
8
 70
     0
 62
     7
  6
CONTINUOUS
  0
LAYER
  2
9
 70
     0
 62
     7
  6
CONTINUOUS
  0
LAYER
  2
10
 70
     0
 62
     7
  6
CONTINUOUS
  0
LAYER
  2
11
 70
     0
 62
     7
  6
CONTINUOUS
  0
LAYER
  2
12
 70
     0
 62
     7
  6
CONTINUOUS
  0
LAYER
  2
13
 70
     0
 62
     7
  6
CONTINUOUS
  0
LAYER
  2
14
 70
     0
 62
     7
  6
CONTINUOUS
  0
LAYER
  2
15
 70
     0
 62
     7
  6
CONTINUOUS
  0
LAYER
  2
16
 70
     0
 62
     7
  6
CONTINUOUS
  0
LAYER
  2
17
 70
     0
 62
     7
  6
CONTINUOUS
  0
LAYER
  2
18
 70
     0
 62
     7
  6
CONTINUOUS
  0
LAYER
  2
19
 70
     0
 62
     7
  6
CONTINUOUS
  0
LAYER
  2
20
 70
     0
 62
     7
  6
CONTINUOUS
  0
LAYER
  2
21
 70
     0
 62
     7
  6
CONTINUOUS
  0
LAYER
  2
22
 70
     0
 62
     7
  6
CONTINUOUS
  0
LAYER
  2
23
 70
     0
 62
     7
  6
CONTINUOUS
  0
LAYER
  2
24
 70
     0
 62
     7
  6
CONTINUOUS
  0
LAYER
  2
25
 70
     0
 62
     7
  6
CONTINUOUS
  0
LAYER
  2
26
 70
     0
 62
     7
  6
CONTINUOUS
  0
LAYER
  2
27
 70
     0
 62
     7
  6
CONTINUOUS
  0
LAYER
  2
28
 70
     0
 62
     7
  6
CONTINUOUS
  0
LAYER
  2
29
 70
     0
 62
     7
  6
CONTINUOUS
  0
LAYER
  2
30
 70
     0
 62
     7
  6
CONTINUOUS
  0
LAYER
  2
31
 70
     0
 62
     7
  6
CONTINUOUS
  0
LAYER
  2
32
 70
     0
 62
     7
  6
CONTINUOUS
  0
LAYER
  2
33
 70
     0
 62
     7
  6
CONTINUOUS
  0
LAYER
  2
34
 70
     0
 62
     7
  6
CONTINUOUS
  0
LAYER
  2
35
 70
     0
 62
     7
  6
CONTINUOUS
  0
LAYER
  2
36
 70
     0
 62
     7
  6
CONTINUOUS
  0
LAYER
  2
37
 70
     0
 62
     7
  6
CONTINUOUS
  0
LAYER
  2
38
 70
     0
 62
     7
  6
CONTINUOUS
  0
LAYER
  2
39
 70
     0
 62
     7
  6
CONTINUOUS
  0
LAYER
  2
40
 70
     0
 62
     7
  6
CONTINUOUS
  0
LAYER
  2
41
 70
     0
 62
     7
  6
CONTINUOUS
  0
LAYER
  2
42
 70
     0
 62
     7
  6
CONTINUOUS
  0
LAYER
  2
43
 70
     0
 62
     7
  6
CONTINUOUS
  0
LAYER
  2
44
 70
     0
 62
     7
  6
CONTINUOUS
  0
LAYER
  2
45
 70
     0
 62
     7
  6
CONTINUOUS
  0
LAYER
  2
46
 70
     0
 62
     7
  6
CONTINUOUS
  0
LAYER
  2
47
 70
     0
 62
     7
  6
CONTINUOUS
  0
LAYER
  2
48
 70
     0
 62
     7
  6
CONTINUOUS
  0
LAYER
  2
49
 70
     0
 62
     7
  6
CONTINUOUS
  0
LAYER
  2
50
 70
     0
 62
     7
  6
CONTINUOUS
  0
LAYER
  2
51
 70
     0
 62
     7
  6
CONTINUOUS
  0
LAYER
  2
52
 70
     0
 62
     7
  6
CONTINUOUS
  0
LAYER
  2
53
 70
     0
 62
     7
  6
CONTINUOUS
  0
LAYER
  2
54
 70
     0
 62
     7
  6
CONTINUOUS
  0
LAYER
  2
55
 70
     0
 62
     7
  6
CONTINUOUS
  0
LAYER
  2
56
 70
     0
 62
     7
  6
CONTINUOUS
  0
LAYER
  2
57
 70
     0
 62
     7
  6
CONTINUOUS
  0
LAYER
  2
58
 70
     0
 62
     7
  6
CONTINUOUS
  0
LAYER
  2
59
 70
     0
 62
     7
  6
CONTINUOUS
  0
LAYER
  2
60
 70
     0
 62
     7
  6
CONTINUOUS
  0
LAYER
  2
61
 70
     0
 62
     7
  6
CONTINUOUS
  0
LAYER
  2
62
 70
     0
 62
     7
  6
CONTINUOUS
  0
LAYER
  2
63
 70
     0
 62
     7
  6
CONTINUOUS
  0
LAYER
  2
64
 70
     0
 62
     7
  6
CONTINUOUS
  0
LAYER
  2
65
 70
     0
 62
     7
  6
CONTINUOUS
  0
LAYER
  2
66
 70
     0
 62
     7
  6
CONTINUOUS
  0
LAYER
  2
67
 70
     0
 62
     7
  6
CONTINUOUS
  0
LAYER
  2
68
 70
     0
 62
     7
  6
CONTINUOUS
  0
LAYER
  2
69
 70
     0
 62
     7
  6
CONTINUOUS
  0
LAYER
  2
70
 70
     0
 62
     7
  6
CONTINUOUS
  0
LAYER
  2
71
 70
     0
 62
     7
  6
CONTINUOUS
  0
LAYER
  2
72
 70
     0
 62
     7
  6
CONTINUOUS
  0
LAYER
  2
73
 70
     0
 62
     7
  6
CONTINUOUS
  0
LAYER
  2
74
 70
     0
 62
     7
  6
CONTINUOUS
  0
LAYER
  2
75
 70
     0
 62
     7
  6
CONTINUOUS
  0
LAYER
  2
76
 70
     0
 62
     7
  6
CONTINUOUS
  0
LAYER
  2
77
 70
     0
 62
     7
  6
CONTINUOUS
  0
LAYER
  2
78
 70
     0
 62
     7
  6
CONTINUOUS
  0
LAYER
  2
79
 70
     0
 62
     7
  6
CONTINUOUS
  0
LAYER
  2
80
 70
     0
 62
     7
  6
CONTINUOUS
  0
LAYER
  2
81
 70
     0
 62
     7
  6
CONTINUOUS
  0
LAYER
  2
82
 70
     0
 62
     7
  6
CONTINUOUS
  0
LAYER
  2
83
 70
     0
 62
     7
  6
CONTINUOUS
  0
LAYER
  2
84
 70
     0
 62
     7
  6
CONTINUOUS
  0
LAYER
  2
85
 70
     0
 62
     7
  6
CONTINUOUS
  0
LAYER
  2
86
 70
     0
 62
     7
  6
CONTINUOUS
  0
LAYER
  2
87
 70
     0
 62
     7
  6
CONTINUOUS
  0
LAYER
  2
88
 70
     0
 62
     7
  6
CONTINUOUS
  0
LAYER
  2
89
 70
     0
 62
     7
  6
CONTINUOUS
  0
LAYER
  2
90
 70
     0
 62
     7
  6
CONTINUOUS
  0
LAYER
  2
91
 70
     0
 62
     7
  6
CONTINUOUS
  0
LAYER
  2
92
 70
     0
 62
     7
  6
CONTINUOUS
  0
LAYER
  2
93
 70
     0
 62
     7
  6
CONTINUOUS
  0
LAYER
  2
94
 70
     0
 62
     7
  6
CONTINUOUS
  0
LAYER
  2
95
 70
     0
 62
     7
  6
CONTINUOUS
  0
LAYER
  2
96
 70
     0
 62
     7
  6
CONTINUOUS
  0
LAYER
  2
97
 70
     0
 62
     7
  6
CONTINUOUS
  0
LAYER
  2
98
 70
     0
 62
     7
  6
CONTINUOUS
  0
LAYER
  2
99
 70
     0
 62
     7
  6
CONTINUOUS
  0
LAYER
  2
100
 70
     0
 62
     7
  6
CONTINUOUS
  0
LAYER
  2
101
 70
     0
 62
     7
  6
CONTINUOUS
  0
LAYER
  2
102
 70
     0
 62
     7
  6
CONTINUOUS
  0
LAYER
  2
103
 70
     0
 62
     7
  6
CONTINUOUS
  0
LAYER
  2
104
 70
     0
 62
     7
  6
CONTINUOUS
  0
LAYER
  2
105
 70
     0
 62
     7
  6
CONTINUOUS
  0
LAYER
  2
106
 70
     0
 62
     7
  6
CONTINUOUS
  0
LAYER
  2
107
 70
     0
 62
     7
  6
CONTINUOUS
  0
LAYER
  2
108
 70
     0
 62
     7
  6
CONTINUOUS
  0
LAYER
  2
109
 70
     0
 62
     7
  6
CONTINUOUS
  0
LAYER
  2
110
 70
     0
 62
     7
  6
CONTINUOUS
  0
LAYER
  2
111
 70
     0
 62
     7
  6
CONTINUOUS
  0
LAYER
  2
112
 70
     0
 62
     7
  6
CONTINUOUS
  0
LAYER
  2
113
 70
     0
 62
     7
  6
CONTINUOUS
  0
LAYER
  2
114
 70
     0
 62
     7
  6
CONTINUOUS
  0
LAYER
  2
115
 70
     0
 62
     7
  6
CONTINUOUS
  0
LAYER
  2
116
 70
     0
 62
     7
  6
CONTINUOUS
  0
LAYER
  2
117
 70
     0
 62
     7
  6
CONTINUOUS
  0
LAYER
  2
118
 70
     0
 62
     7
  6
CONTINUOUS
  0
LAYER
  2
119
 70
     0
 62
     7
  6
CONTINUOUS
  0
LAYER
  2
120
 70
     0
 62
     7
  6
CONTINUOUS
  0
LAYER
  2
121
 70
     0
 62
     7
  6
CONTINUOUS
  0
LAYER
  2
122
 70
     0
 62
     7
  6
CONTINUOUS
  0
LAYER
  2
123
 70
     0
 62
     7
  6
CONTINUOUS
  0
LAYER
  2
124
 70
     0
 62
     7
  6
CONTINUOUS
  0
LAYER
  2
125
 70
     0
 62
     7
  6
CONTINUOUS
  0
LAYER
  2
126
 70
     0
 62
     7
  6
CONTINUOUS
  0
LAYER
  2
127
 70
     0
 62
     7
  6
CONTINUOUS
  0
LAYER
  2
128
 70
     0
 62
     7
  6
CONTINUOUS
  0
ENDTAB
  0
TABLE
  2
STYLE
 70
    77
  0
STYLE
  2
STANDARD
 70
     0
 40
0.0
 41
1.0
 50
0.0
 71
     0
 42
0.2
  3
txt.shx
  4
extfont.shx
  0
STYLE
  2
KANJI0
 70
     0
 40
15.5999988
 41
0.75
 50
0.0
 71
     0
 42
15.5999988
  3
txt.shx
  4
extfont.shx
  0
STYLE
  2
KANJI1
 70
     0
 40
11.999997477
 41
0.6
 50
0.0
 71
     0
 42
11.999997477
  3
txt.shx
  4
extfont.shx
  0
STYLE
  2
KANJI2
 70
     0
 40
14.399996972
 41
0.9
 50
0.0
 71
     0
 42
14.399996972
  3
txt.shx
  4
extfont.shx
  0
STYLE
  2
KANJI3
 70
     0
 40
17.999996215
 41
0.9
 50
0.0
 71
     0
 42
17.999996215
  3
txt.shx
  4
extfont.shx
  0
STYLE
  2
KANJI4
 70
     0
 40
10.3999992
 41
0.6
 50
0.0
 71
     0
 42
10.3999992
  3
txt.shx
  4
extfont.shx
  0
STYLE
  2
KANJI5
 70
     0
 40
12.47999904
 41
0.6
 50
0.0
 71
     0
 42
12.47999904
  3
txt.shx
  4
extfont.shx
  0
STYLE
  2
KANJI6
 70
     0
 40
18.1999986
 41
0.42031746
 50
0.0
 71
     0
 42
18.1999986
  3
txt.shx
  4
extfont.shx
  0
STYLE
  2
KANJI7
 70
     0
 40
31.1999976
 41
0.9
 50
0.0
 71
     0
 42
31.1999976
  3
txt.shx
  4
extfont.shx
  0
STYLE
  2
KANJI8
 70
     0
 40
21.6
 41
1.111111111
 50
0.0
 71
     0
 42
21.6
  3
txt.shx
  4
extfont.shx
  0
STYLE
  2
KANJI9
 70
     0
 40
10.3999992
 41
0.8
 50
0.0
 71
     0
 42
10.3999992
  3
txt.shx
  4
extfont.shx
  0
STYLE
  2
KANJI10
 70
     0
 40
12.47999904
 41
0.8
 50
0.0
 71
     0
 42
12.47999904
  3
txt.shx
  4
extfont.shx
  0
STYLE
  2
KANJI11
 70
     0
 40
30.0
 41
1.0
 50
0.0
 71
     0
 42
30.0
  3
txt.shx
  4
extfont.shx
  0
STYLE
  2
KANJI12
 70
     0
 40
30.0
 41
1.0
 50
0.0
 71
     0
 42
30.0
  3
txt.shx
  4
extfont.shx
  0
STYLE
  2
KANJI13
 70
     0
 40
30.0
 41
0.8
 50
0.0
 71
     0
 42
30.0
  3
txt.shx
  4
extfont.shx
  0
STYLE
  2
KANJI14
 70
     0
 40
24.0
 41
1.0
 50
0.0
 71
     0
 42
24.0
  3
txt.shx
  4
extfont.shx
  0
STYLE
  2
KANJI15
 70
     0
 40
21.0
 41
0.857142857
 50
0.0
 71
     0
 42
21.0
  3
txt.shx
  4
extfont.shx
  0
STYLE
  2
KANJI16
 70
     0
 40
27.0
 41
0.666666667
 50
0.0
 71
     0
 42
27.0
  3
txt.shx
  4
extfont.shx
  0
STYLE
  2
KANJI17
 70
     0
 40
13.86
 41
0.9
 50
0.0
 71
     0
 42
13.86
  3
txt.shx
  4
extfont.shx
  0
STYLE
  2
KANJI18
 70
     0
 40
18.0
 41
0.9
 50
0.0
 71
     0
 42
18.0
  3
txt.shx
  4
extfont.shx
  0
STYLE
  2
KANJI19
 70
     0
 40
21.0
 41
0.793650794
 50
0.0
 71
     0
 42
21.0
  3
txt.shx
  4
extfont.shx
  0
STYLE
  2
KANJI20
 70
     0
 40
30.0
 41
0.8
 50
0.0
 71
     0
 42
30.0
  3
txt.shx
  4
extfont.shx
  0
STYLE
  2
KANJI21
 70
     0
 40
16.17
 41
0.9
 50
0.0
 71
     0
 42
16.17
  3
txt.shx
  4
extfont.shx
  0
STYLE
  2
KANJI22
 70
     0
 40
18.0
 41
0.9
 50
0.0
 71
     0
 42
18.0
  3
txt.shx
  4
extfont.shx
  0
STYLE
  2
KANJI23
 70
     0
 40
10.933904043
 41
0.9
 50
0.0
 71
     0
 42
10.933904043
  3
txt.shx
  4
extfont.shx
  0
STYLE
  2
KANJI24
 70
     0
 40
15.185977837
 41
0.66671875
 50
0.0
 71
     0
 42
15.185977837
  3
txt.shx
  4
extfont.shx
  0
STYLE
  2
KANJI25
 70
     0
 40
18.223173404
 41
0.9
 50
0.0
 71
     0
 42
18.223173404
  3
txt.shx
  4
extfont.shx
  0
STYLE
  2
KANJI26
 70
     0
 40
14.578538724
 41
0.9
 50
0.0
 71
     0
 42
14.578538724
  3
txt.shx
  4
extfont.shx
  0
STYLE
  2
KANJI27
 70
     0
 40
15.6
 41
0.925
 50
0.0
 71
     0
 42
15.6
  3
txt.shx
  4
extfont.shx
  0
STYLE
  2
KANJI28
 70
     0
 40
20.0
 41
0.925
 50
0.0
 71
     0
 42
20.0
  3
txt.shx
  4
extfont.shx
  0
STYLE
  2
KANJI29
 70
     0
 40
15.0
 41
0.9
 50
0.0
 71
     0
 42
15.0
  3
txt.shx
  4
extfont.shx
  0
STYLE
  2
KANJI30
 70
     0
 40
20.0
 41
0.925
 50
0.0
 71
     0
 42
20.0
  3
txt.shx
  4
extfont.shx
  0
STYLE
  2
KANJI31
 70
     0
 40
24.0
 41
0.9
 50
0.0
 71
     0
 42
24.0
  3
txt.shx
  4
extfont.shx
  0
STYLE
  2
KANJI32
 70
     0
 40
21.6
 41
0.857142857
 50
0.0
 71
     0
 42
21.6
  3
txt.shx
  4
extfont.shx
  0
STYLE
  2
KANJI33
 70
     0
 40
21.6
 41
0.857222222
 50
0.0
 71
     0
 42
21.6
  3
txt.shx
  4
extfont.shx
  0
STYLE
  2
KANJI34
 70
     0
 40
15.0
 41
0.9
 50
0.0
 71
     0
 42
15.0
  3
txt.shx
  4
extfont.shx
  0
STYLE
  2
KANJI35
 70
     0
 40
15.36
 41
0.9
 50
0.0
 71
     0
 42
15.36
  3
txt.shx
  4
extfont.shx
  0
STYLE
  2
KANJI36
 70
     0
 40
14.4
 41
0.9
 50
0.0
 71
     0
 42
14.4
  3
txt.shx
  4
extfont.shx
  0
STYLE
  2
KANJI37
 70
     0
 40
14.4
 41
0.9
 50
0.0
 71
     0
 42
14.4
  3
txt.shx
  4
extfont.shx
  0
STYLE
  2
KANJI38
 70
     0
 40
16.8
 41
0.9
 50
0.0
 71
     0
 42
16.8
  3
txt.shx
  4
extfont.shx
  0
STYLE
  2
KANJI39
 70
     0
 40
12.96
 41
0.740740741
 50
0.0
 71
     0
 42
12.96
  3
txt.shx
  4
extfont.shx
  0
STYLE
  2
KANJI40
 70
     0
 40
16.8
 41
0.857142857
 50
0.0
 71
     0
 42
16.8
  3
txt.shx
  4
extfont.shx
  0
STYLE
  2
KANJI41
 70
     0
 40
14.4
 41
0.833333333
 50
0.0
 71
     0
 42
14.4
  3
txt.shx
  4
extfont.shx
  0
STYLE
  2
KANJI42
 70
     0
 40
21.0
 41
0.571428571
 50
0.0
 71
     0
 42
21.0
  3
txt.shx
  4
extfont.shx
  0
STYLE
  2
KANJI43
 70
     0
 40
22.8
 41
0.9
 50
0.0
 71
     0
 42
22.8
  3
txt.shx
  4
extfont.shx
  0
STYLE
  2
KANJI44
 70
     0
 40
22.8
 41
0.9
 50
0.0
 71
     0
 42
22.8
  3
txt.shx
  4
extfont.shx
  0
STYLE
  2
KANJI45
 70
     0
 40
27.0
 41
0.9
 50
0.0
 71
     0
 42
27.0
  3
txt.shx
  4
extfont.shx
  0
STYLE
  2
KANJI46
 70
     0
 40
22.8
 41
0.9
 50
0.0
 71
     0
 42
22.8
  3
txt.shx
  4
extfont.shx
  0
STYLE
  2
KANJI47
 70
     0
 40
22.8
 41
0.9
 50
0.0
 71
     0
 42
22.8
  3
txt.shx
  4
extfont.shx
  0
STYLE
  2
KANJI48
 70
     0
 40
22.8
 41
0.9
 50
0.0
 71
     0
 42
22.8
  3
txt.shx
  4
extfont.shx
  0
STYLE
  2
KANJI49
 70
     0
 40
22.8
 41
0.9
 50
0.0
 71
     0
 42
22.8
  3
txt.shx
  4
extfont.shx
  0
STYLE
  2
KANJI50
 70
     0
 40
22.8
 41
0.9
 50
0.0
 71
     0
 42
22.8
  3
txt.shx
  4
extfont.shx
  0
STYLE
  2
KANJI51
 70
     0
 40
22.8
 41
0.9
 50
0.0
 71
     0
 42
22.8
  3
txt.shx
  4
extfont.shx
  0
STYLE
  2
KANJI52
 70
     4
 40
21.0
 41
0.9
 50
0.0
 71
     0
 42
21.0
  3
txt.shx
  4
extfont.shx
  0
STYLE
  2
KANJI53
 70
     4
 40
21.0
 41
0.9
 50
0.0
 71
     0
 42
21.0
  3
txt.shx
  4
extfont.shx
  0
STYLE
  2
KANJI54
 70
     0
 40
21.0
 41
0.9
 50
0.0
 71
     0
 42
21.0
  3
txt.shx
  4
extfont.shx
  0
STYLE
  2
KANJI55
 70
     0
 40
18.0
 41
0.9
 50
0.0
 71
     0
 42
18.0
  3
txt.shx
  4
extfont.shx
  0
STYLE
  2
KANJI56
 70
     0
 40
21.0
 41
0.9
 50
0.0
 71
     0
 42
21.0
  3
txt.shx
  4
extfont.shx
  0
STYLE
  2
KANJI57
 70
     0
 40
22.8
 41
0.9
 50
0.0
 71
     0
 42
22.8
  3
txt.shx
  4
extfont.shx
  0
STYLE
  2
KANJI58
 70
     0
 40
22.8
 41
0.9
 50
0.0
 71
     0
 42
22.8
  3
txt.shx
  4
extfont.shx
  0
STYLE
  2
KANJI59
 70
     0
 40
21.0
 41
0.628571429
 50
0.0
 71
     0
 42
21.0
  3
txt.shx
  4
extfont.shx
  0
STYLE
  2
KANJI60
 70
     0
 40
20.4
 41
0.705882353
 50
0.0
 71
     0
 42
20.4
  3
txt.shx
  4
extfont.shx
  0
STYLE
  2
KANJI61
 70
     0
 40
18.0
 41
0.8
 50
0.0
 71
     0
 42
18.0
  3
txt.shx
  4
extfont.shx
  0
STYLE
  2
KANJI62
 70
     0
 40
19.2
 41
0.71875
 50
0.0
 71
     0
 42
19.2
  3
txt.shx
  4
extfont.shx
  0
STYLE
  2
KANJI63
 70
     0
 40
19.2
 41
0.8
 50
0.0
 71
     0
 42
19.2
  3
txt.shx
  4
extfont.shx
  0
STYLE
  2
KANJI64
 70
     0
 40
21.0
 41
0.571428571
 50
0.0
 71
     0
 42
21.0
  3
txt.shx
  4
extfont.shx
  0
STYLE
  2
KANJI65
 70
     0
 40
18.0
 41
0.833333333
 50
0.0
 71
     0
 42
18.0
  3
txt.shx
  4
extfont.shx
  0
STYLE
  2
KANJI66
 70
     0
 40
21.0
 41
0.9
 50
0.0
 71
     0
 42
21.0
  3
txt.shx
  4
extfont.shx
  0
STYLE
  2
KANJI67
 70
     0
 40
21.0
 41
0.857142857
 50
0.0
 71
     0
 42
21.0
  3
txt.shx
  4
extfont.shx
  0
STYLE
  2
KANJI68
 70
     0
 40
18.0
 41
0.833333333
 50
0.0
 71
     0
 42
18.0
  3
txt.shx
  4
extfont.shx
  0
STYLE
  2
KANJI69
 70
     0
 40
13.182
 41
0.85
 50
0.0
 71
     0
 42
13.182
  3
txt.shx
  4
extfont.shx
  0
STYLE
  2
KANJI70
 70
     0
 40
11.661
 41
0.822608696
 50
0.0
 71
     0
 42
11.661
  3
txt.shx
  4
extfont.shx
  0
STYLE
  2
KANJI71
 70
     0
 40
11.8638
 41
0.726495726
 50
0.0
 71
     0
 42
11.8638
  3
txt.shx
  4
extfont.shx
  0
STYLE
  2
KANJI72
 70
     4
 40
45.0
 41
0.538166667
 50
0.0
 71
     0
 42
45.0
  3
txt.shx
  4
extfont.shx
  0
STYLE
  2
KANJI73
 70
     0
 40
17.740702234
 41
0.880962996
 50
0.0
 71
     0
 42
17.740702234
  3
txt.shx
  4
extfont.shx
  0
STYLE
  2
KANJI74
 70
     0
 40
11.7
 41
0.8
 50
0.0
 71
     0
 42
11.7
  3
txt.shx
  4
extfont.shx
  0
STYLE
  2
KANJI75
 70
     0
 40
15.0
 41
0.911
 50
0.0
 71
     0
 42
15.0
  3
txt.shx
  4
extfont.shx
  0
ENDTAB
  0
TABLE
  2
VIEW
 70
     0
  0
ENDTAB
  0
ENDSEC
  0
SECTION
  2
BLOCKS
  0
ENDSEC
  0
SECTION
  2
ENTITIES
  0
POLYLINE
  8
0
  6
CONTINUOUS
 62
     6
 66
     1
  0
VERTEX
  8
0
  6
CONTINUOUS
 62
     6
 10
77.92
 20
82.7
 30
0.0
  0
VERTEX
  8
0
  6
CONTINUOUS
 62
     6
 10
77.92
 20
1696.7
 30
0.0
  0
VERTEX
  8
0
  6
CONTINUOUS
 62
     6
 10
2399.92
 20
1696.7
 30
0.0
  0
SEQEND
  0
LINE
  8
0
  6
CONTINUOUS
 62
     6
 10
83.919998738
 20
172.699981077
 30
0.0
 11
473.919916738
 21
172.699981077
 31
0.0
  0
LINE
  8
0
  6
CONTINUOUS
 62
     6
 10
83.919998738
 20
88.699998738
 30
0.0
 11
473.919916738
 21
88.699998738
 31
0.0
  0
LINE
  8
0
  6
CONTINUOUS
 62
     6
 10
83.919998738
 20
88.699998738
 30
0.0
 11
83.919998738
 21
172.699981077
 31
0.0
  0
LINE
  8
0
  6
CONTINUOUS
 62
     6
 10
83.919998738
 20
130.699989908
 30
0.0
 11
473.919916738
 21
130.699989908
 31
0.0
  0
LINE
  8
0
  6
CONTINUOUS
 62
     4
 10
9.6199996
 20
87.8999996
 30
0.0
 11
72.0199948
 21
87.8999996
 31
0.0
  0
LINE
  8
0
  6
CONTINUOUS
 62
     4
 10
9.6199996
 20
119.0999972
 30
0.0
 11
72.0199948
 21
119.0999972
 31
0.0
  0
LINE
  8
0
  6
CONTINUOUS
 62
     4
 10
9.6199996
 20
150.2999948
 30
0.0
 11
72.0199948
 21
150.2999948
 31
0.0
  0
LINE
  8
0
  6
CONTINUOUS
 62
     4
 10
9.6199996
 20
181.4999924
 30
0.0
 11
72.0199948
 21
181.4999924
 31
0.0
  0
LINE
  8
0
  6
CONTINUOUS
 62
     4
 10
9.6199996
 20
212.69999
 30
0.0
 11
72.0199948
 21
212.69999
 31
0.0
  0
LINE
  8
0
  6
CONTINUOUS
 62
     4
 10
9.6199996
 20
243.8999876
 30
0.0
 11
72.0199948
 21
243.8999876
 31
0.0
  0
LINE
  8
0
  6
CONTINUOUS
 62
     4
 10
9.6199996
 20
275.0999852
 30
0.0
 11
72.0199948
 21
275.0999852
 31
0.0
  0
LINE
  8
0
  6
CONTINUOUS
 62
     4
 10
9.6199996
 20
306.2999828
 30
0.0
 11
72.0199948
 21
306.2999828
 31
0.0
  0
LINE
  8
0
  6
CONTINUOUS
 62
     4
 10
9.6199996
 20
337.4999804
 30
0.0
 11
72.0199948
 21
337.4999804
 31
0.0
  0
LINE
  8
0
  6
CONTINUOUS
 62
     4
 10
9.6199996
 20
368.699978
 30
0.0
 11
72.0199948
 21
368.699978
 31
0.0
  0
LINE
  8
0
  6
CONTINUOUS
 62
     4
 10
72.0199948
 20
87.8999996
 30
0.0
 11
72.0199948
 21
368.699978
 31
0.0
  0
LINE
  8
0
  6
CONTINUOUS
 62
     4
 10
40.8199972
 20
87.8999996
 30
0.0
 11
40.8199972
 21
337.4999804
 31
0.0
  0
TEXT
  8
0
  6
CONTINUOUS
 62
     4
 10
20.27999878
 20
96.9999989
 30
1.55999988
 40
15.5999988
  1
計
 50
0.0
 41
0.75
 51
0.0
  7
KANJI0
  0
TEXT
  8
0
  6
CONTINUOUS
 62
     4
 10
20.27999878
 20
159.91999406
 30
1.55999988
 40
15.5999988
  1
設
 50
0.0
 41
0.75
 51
0.0
  7
KANJI0
  0
TEXT
  8
0
  6
CONTINUOUS
 62
     4
 10
20.27999878
 20
190.5999917
 30
1.55999988
 40
15.5999988
  1
管
 50
0.0
 41
0.75
 51
0.0
  7
KANJI0
  0
TEXT
  8
0
  6
CONTINUOUS
 62
     4
 10
20.27999878
 20
221.7999893
 30
1.55999988
 40
15.5999988
  1
製
 50
0.0
 41
0.75
 51
0.0
  7
KANJI0
  0
TEXT
  8
0
  6
CONTINUOUS
 62
     4
 10
20.27999878
 20
252.9999869
 30
1.55999988
 40
15.5999988
  1
資
 50
0.0
 41
0.75
 51
0.0
  7
KANJI0
  0
TEXT
  8
0
  6
CONTINUOUS
 62
     4
 10
20.27999878
 20
284.1999845
 30
1.55999988
 40
15.5999988
  1
営
 50
0.0
 41
0.75
 51
0.0
  7
KANJI0
  0
TEXT
  8
0
  6
CONTINUOUS
 62
     4
 10
20.27999878
 20
315.3999821
 30
1.55999988
 40
15.5999988
  1
客
 50
0.0
 41
0.75
 51
0.0
  7
KANJI0
  0
TEXT
  8
0
  6
CONTINUOUS
 62
     4
 10
20.0199988
 20
347.8999796
 30
1.55999988
 40
15.5999988
  1
出　図
 50
0.0
 41
0.75
 51
0.0
  7
KANJI0
  0
LINE
  8
0
  6
CONTINUOUS
 62
     4
 10
9.6199996
 20
87.8999996
 30
0.0
 11
9.6199996
 21
368.699978
 31
0.0
  0
LINE
  8
0
  6
CONTINUOUS
 62
     6
 10
2399.92
 20
82.7
 30
0.0
 11
77.92
 21
82.7
 31
0.0
  0
TEXT
  8
0
  6
CONTINUOUS
 62
     4
 10
95.919996215
 20
112.699993692
 30
1.199999748
 40
11.999997477
  1
ＰＡＲＴＳ　ＬＩＳＴ
 50
0.0
 41
0.6
 51
0.0
  7
KANJI1
  0
TEXT
  8
0
  6
CONTINUOUS
 62
     4
 10
95.919996215
 20
94.699997477
 30
1.439999697
 40
14.399996972
  1
部品表
 50
0.0
 41
0.9
 51
0.0
  7
KANJI2
  0
TEXT
  8
0
  6
CONTINUOUS
 62
     3
 10
95.919996215
 20
142.699987385
 30
1.799999622
 40
17.999996215
  1
ＰＬ
 50
0.0
 41
0.9
 51
0.0
  7
KANJI3
  0
TEXT
  8
0
  6
CONTINUOUS
 62
     4
 10
365.919939446
 20
112.699993692
 30
1.199999748
 40
11.999997477
  1
Ｎ０．
 50
0.0
 41
0.6
 51
0.0
  7
KANJI1
  0
TEXT
  8
0
  6
CONTINUOUS
 62
     4
 10
365.919939446
 20
94.699997477
 30
1.439999697
 40
14.399996972
  1
項番
 50
0.0
 41
0.9
 51
0.0
  7
KANJI2
  0
LINE
  8
0
  6
CONTINUOUS
 62
     6
 10
473.919916738
 20
88.699998738
 30
0.0
 11
473.919916738
 21
172.699981077
 31
0.0
  0
LINE
  8
0
  6
CONTINUOUS
 62
     6
 10
353.919941969
 20
88.699998738
 30
0.0
 11
353.919941969
 21
172.699981077
 31
0.0
  0
LINE
  8
0
  6
CONTINUOUS
 62
     6
 10
2399.92
 20
1696.7
 30
0.0
 11
2399.92
 21
82.7
 31
0.0
  0
LINE
  8
0
  6
CONTINUOUS
 62
     6
 10
1593.920062
 20
87.8999996
 30
0.0
 11
1593.920062
 21
420.699974
 31
0.0
  0
LINE
  8
0
  6
CONTINUOUS
 62
     6
 10
2394.7200004
 20
87.8999996
 30
0.0
 11
2394.7200004
 21
420.699974
 31
0.0
  0
LINE
  8
0
  6
CONTINUOUS
 62
     4
 10
1783.7200474
 20
87.8999996
 30
0.0
 11
1783.7200474
 21
420.699974
 31
0.0
  0
LINE
  8
0
  6
CONTINUOUS
 62
     4
 10
1593.920062
 20
129.4999964
 30
0.0
 11
1783.7200474
 21
129.4999964
 31
0.0
  0
TEXT
  8
0
  6
CONTINUOUS
 62
     4
 10
1604.3200612
 20
111.2999978
 30
1.03999992
 40
10.3999992
  1
ＳＣＡＬＥ
 50
0.0
 41
0.6
 51
0.0
  7
KANJI4
  0
TEXT
  8
0
  6
CONTINUOUS
 62
     4
 10
1604.3200612
 20
95.699999
 30
1.247999904
 40
12.47999904
  1
尺度
 50
0.0
 41
0.6
 51
0.0
  7
KANJI5
  0
LINE
  8
0
  6
CONTINUOUS
 62
     6
 10
1183.1200936
 20
129.4999964
 30
0.0
 11
1593.920062
 21
129.4999964
 31
0.0
  0
LINE
  8
0
  6
CONTINUOUS
 62
     6
 10
1183.1200936
 20
87.8999996
 30
0.0
 11
2394.7200004
 21
87.8999996
 31
0.0
  0
TEXT
  8
0
  6
CONTINUOUS
 62
     6
 10
1788.920047
 20
111.2999978
 30
0.0
 40
18.1999986
  1
ＵＮＩＴＥＣ　ＩＮＤＵＳＴＲＹ　ＣＯ．，ＬＴＤ．
 50
0.0
 41
0.42031746
 51
0.0
  7
KANJI6
  0
TEXT
  8
0
  6
CONTINUOUS
 62
     6
 10
2044.175027365
 20
104.53999832
 30
3.11999976
 40
31.1999976
  1
ユニテック工業株式会社
 50
0.0
 41
0.9
 51
0.0
  7
KANJI7
  0
LINE
  8
0
  6
CONTINUOUS
 62
     6
 10
2002.575030565
 20
115.45999748
 30
0.0
 11
1988.847031621
 21
115.45999748
 31
0.0
  0
LINE
  8
0
  6
CONTINUOUS
 62
     6
 10
2002.575030565
 20
117.955997288
 30
0.0
 11
1988.847031621
 21
117.955997288
 31
0.0
  0
LINE
  8
0
  6
CONTINUOUS
 62
     6
 10
2002.575030565
 20
115.45999748
 30
0.0
 11
2016.303029509
 21
115.45999748
 31
0.0
  0
LINE
  8
0
  6
CONTINUOUS
 62
     6
 10
2002.575030565
 20
117.955997288
 30
0.0
 11
2016.303029509
 21
117.955997288
 31
0.0
  0
LINE
  8
0
  6
CONTINUOUS
 62
     6
 10
2016.303029509
 20
117.955997288
 30
0.0
 11
2016.303029509
 21
115.45999748
 31
0.0
  0
ARC
  8
0
  6
CONTINUOUS
 62
     6
 10
2019.423029269
 20
116.707997384
 30
0.0
 40
12.47999904
 50
185.739170477
 51
90.0
  0
ARC
  8
0
  6
CONTINUOUS
 62
     6
 10
2019.423029269
 20
116.707997384
 30
0.0
 40
14.975998848
 50
184.780191847
 51
90.0
  0
LINE
  8
0
  6
CONTINUOUS
 62
     6
 10
1988.847031621
 20
115.45999748
 30
0.0
 11
1988.847031621
 21
117.955997288
 31
0.0
  0
ARC
  8
0
  6
CONTINUOUS
 62
     6
 10
1985.727031861
 20
116.707997384
 30
0.0
 40
12.47999904
 50
90.0
 51
354.260829523
  0
ARC
  8
0
  6
CONTINUOUS
 62
     6
 10
1985.727031861
 20
116.707997384
 30
0.0
 40
14.975998848
 50
90.0
 51
355.219808153
  0
LINE
  8
0
  6
CONTINUOUS
 62
     6
 10
2000.703030709
 20
131.683996232
 30
0.0
 11
2000.703030709
 21
129.187996424
 31
0.0
  0
LINE
  8
0
  6
CONTINUOUS
 62
     6
 10
1985.727031861
 20
129.187996424
 30
0.0
 11
2000.703030709
 21
129.187996424
 31
0.0
  0
LINE
  8
0
  6
CONTINUOUS
 62
     6
 10
2004.447030421
 20
131.683996232
 30
0.0
 11
2004.447030421
 21
129.187996424
 31
0.0
  0
LINE
  8
0
  6
CONTINUOUS
 62
     6
 10
2019.423029269
 20
129.187996424
 30
0.0
 11
2004.447030421
 21
129.187996424
 31
0.0
  0
TEXT
  8
0
  6
CONTINUOUS
 62
     4
 10
1315.7200834
 20
111.2999978
 30
1.03999992
 40
10.3999992
  1
ＢＹ
 50
0.0
 41
0.6
 51
0.0
  7
KANJI4
  0
TEXT
  8
0
  6
CONTINUOUS
 62
     4
 10
1430.1200746
 20
111.2999978
 30
1.03999992
 40
10.3999992
  1
ＤＥＳＣＲＩＰＴＩＯＮ
 50
0.0
 41
0.6
 51
0.0
  7
KANJI4
  0
TEXT
  8
0
  6
CONTINUOUS
 62
     4
 10
1315.7200834
 20
95.699999
 30
1.247999904
 40
12.47999904
  1
担当
 50
0.0
 41
0.6
 51
0.0
  7
KANJI5
  0
TEXT
  8
0
  6
CONTINUOUS
 62
     4
 10
1445.7200734
 20
95.699999
 30
1.247999904
 40
12.47999904
  1
記　　　　事
 50
0.0
 41
0.6
 51
0.0
  7
KANJI5
  0
LINE
  8
0
  6
CONTINUOUS
 62
     4
 10
1205.2200919
 20
121.699997
 30
0.0
 11
1188.3200932
 21
95.699999
 31
0.0
  0
TEXT
  8
0
  6
CONTINUOUS
 62
     4
 10
1248.1200886
 20
111.2999978
 30
1.03999992
 40
10.3999992
  1
ＤＡＴＥ
 50
0.0
 41
0.6
 51
0.0
  7
KANJI4
  0
TEXT
  8
0
  6
CONTINUOUS
 62
     4
 10
1255.920088
 20
95.699999
 30
1.247999904
 40
12.47999904
  1
日付
 50
0.0
 41
0.6
 51
0.0
  7
KANJI5
  0
LINE
  8
0
  6
CONTINUOUS
 62
     4
 10
1188.3200932
 20
95.699999
 30
0.0
 11
1222.1200906
 21
95.699999
 31
0.0
  0
LINE
  8
0
  6
CONTINUOUS
 62
     4
 10
1205.2200919
 20
121.699997
 30
0.0
 11
1222.1200906
 21
95.699999
 31
0.0
  0
LINE
  8
0
  6
CONTINUOUS
 62
     6
 10
1183.1200936
 20
87.8999996
 30
0.0
 11
1183.1200936
 21
129.4999964
 31
0.0
  0
LINE
  8
0
  6
CONTINUOUS
 62
     4
 10
1227.3200902
 20
87.8999996
 30
0.0
 11
1227.3200902
 21
129.4999964
 31
0.0
  0
LINE
  8
0
  6
CONTINUOUS
 62
     4
 10
1300.1200846
 20
87.8999996
 30
0.0
 11
1300.1200846
 21
129.4999964
 31
0.0
  0
LINE
  8
0
  6
CONTINUOUS
 62
     4
 10
1346.920081
 20
87.8999996
 30
0.0
 11
1346.920081
 21
129.4999964
 31
0.0
  0
TEXT
  8
0
  6
CONTINUOUS
 62
     4
 10
1604.3200612
 20
319.2999818
 30
1.03999992
 40
10.3999992
  1
ＣＯＤＥ
 50
0.0
 41
0.6
 51
0.0
  7
KANJI4
  0
LINE
  8
0
  6
CONTINUOUS
 62
     4
 10
1593.920062
 20
337.4999804
 30
0.0
 11
2394.7200004
 21
337.4999804
 31
0.0
  0
TEXT
  8
0
  6
CONTINUOUS
 62
     4
 10
1604.3200612
 20
303.699983
 30
1.247999904
 40
12.47999904
  1
分類
 50
0.0
 41
0.6
 51
0.0
  7
KANJI5
  0
TEXT
  8
0
  6
CONTINUOUS
 62
     4
 10
1612.42
 20
343.7
 30
6.0
 40
21.6
  1
ご注文主
 50
0.0
 41
1.111111111
 51
0.0
  7
KANJI8
  0
TEXT
  8
0
  6
CONTINUOUS
 62
     4
 10
1604.3200612
 20
194.4999914
 30
1.03999992
 40
10.3999992
  1
ＤＲＡＷＮ
 50
0.0
 41
0.6
 51
0.0
  7
KANJI4
  0
TEXT
  8
0
  6
CONTINUOUS
 62
     4
 10
1604.3200612
 20
236.0999882
 30
1.03999992
 40
10.3999992
  1
ＤＥＳＩＧＮ
 50
0.0
 41
0.6
 51
0.0
  7
KANJI4
  0
TEXT
  8
0
  6
CONTINUOUS
 62
     4
 10
1604.3200612
 20
277.699985
 30
1.03999992
 40
10.3999992
  1
ＣＨＥＣＫ
 50
0.0
 41
0.6
 51
0.0
  7
KANJI4
  0
LINE
  8
0
  6
CONTINUOUS
 62
     4
 10
1593.920062
 20
254.2999868
 30
0.0
 11
1783.7200474
 21
254.2999868
 31
0.0
  0
LINE
  8
0
  6
CONTINUOUS
 62
     4
 10
1593.920062
 20
212.69999
 30
0.0
 11
1783.7200474
 21
212.69999
 31
0.0
  0
LINE
  8
0
  6
CONTINUOUS
 62
     4
 10
1593.920062
 20
295.8999836
 30
0.0
 11
1783.7200474
 21
295.8999836
 31
0.0
  0
TEXT
  8
0
  6
CONTINUOUS
 62
     4
 10
1604.3200612
 20
220.4999894
 30
1.247999904
 40
12.47999904
  1
設計
 50
0.0
 41
0.6
 51
0.0
  7
KANJI5
  0
TEXT
  8
0
  6
CONTINUOUS
 62
     4
 10
1604.3200612
 20
262.0999862
 30
1.247999904
 40
12.47999904
  1
検図
 50
0.0
 41
0.6
 51
0.0
  7
KANJI5
  0
LINE
  8
0
  6
CONTINUOUS
 62
     4
 10
1799.06004622
 20
295.8999836
 30
0.0
 11
2394.7200004
 21
295.8999836
 31
0.0
  0
LINE
  8
0
  6
CONTINUOUS
 62
     4
 10
1783.7200474
 20
212.69999
 30
0.0
 11
2394.7200004
 21
212.69999
 31
0.0
  0
TEXT
  8
0
  6
CONTINUOUS
 62
     4
 10
1794.1200466
 20
194.4999914
 30
1.03999992
 40
10.3999992
  1
ＤＲＡＷＩＮＧ　ＮＯ．
 50
0.0
 41
0.8
 51
0.0
  7
KANJI9
  0
TEXT
  8
0
  6
CONTINUOUS
 62
     4
 10
1794.1200466
 20
236.0999882
 30
1.03999992
 40
10.3999992
  1
ＭＦＧ　ＮＯ．
 50
0.0
 41
0.8
 51
0.0
  7
KANJI9
  0
TEXT
  8
0
  6
CONTINUOUS
 62
     4
 10
1794.1200466
 20
277.699985
 30
1.03999992
 40
10.3999992
  1
ＴＹＰＥ
 50
0.0
 41
0.8
 51
0.0
  7
KANJI9
  0
LINE
  8
0
  6
CONTINUOUS
 62
     4
 10
1799.3200462
 20
254.2999868
 30
0.0
 11
2038.5200278
 21
254.2999868
 31
0.0
  0
TEXT
  8
0
  6
CONTINUOUS
 62
     4
 10
1794.1200466
 20
176.2999928
 30
1.247999904
 40
12.47999904
  1
図　面　番　号
 50
0.0
 41
0.8
 51
0.0
  7
KANJI10
  0
TEXT
  8
0
  6
CONTINUOUS
 62
     4
 10
1794.1200466
 20
217.8999896
 30
1.247999904
 40
12.47999904
  1
製番
 50
0.0
 41
0.8
 51
0.0
  7
KANJI10
  0
TEXT
  8
0
  6
CONTINUOUS
 62
     4
 10
1794.1200466
 20
259.4999864
 30
1.247999904
 40
12.47999904
  1
機種
 50
0.0
 41
0.8
 51
0.0
  7
KANJI10
  0
LINE
  8
0
  6
CONTINUOUS
 62
     4
 10
1593.920062
 20
171.0999932
 30
0.0
 11
1783.7200474
 21
171.0999932
 31
0.0
  0
TEXT
  8
0
  6
CONTINUOUS
 62
     4
 10
1604.3200612
 20
152.8999946
 30
1.03999992
 40
10.3999992
  1
ＤＡＴＥ
 50
0.0
 41
0.6
 51
0.0
  7
KANJI4
  0
TEXT
  8
0
  6
CONTINUOUS
 62
     4
 10
1604.3200612
 20
137.2999958
 30
1.247999904
 40
12.47999904
  1
日付
 50
0.0
 41
0.6
 51
0.0
  7
KANJI5
  0
TEXT
  8
0
  6
CONTINUOUS
 62
     4
 10
1604.3200612
 20
178.8999926
 30
1.247999904
 40
12.47999904
  1
作図
 50
0.0
 41
0.6
 51
0.0
  7
KANJI5
  0
LINE
  8
0
  6
CONTINUOUS
 62
     4
 10
1783.7200474
 20
152.8999946
 30
0.0
 11
2394.7200004
 21
152.8999946
 31
0.0
  0
LINE
  8
0
  6
LTYPE1
 62
     4
 10
2220.5200138
 20
160.699994
 30
0.0
 11
2220.5200138
 21
202.2999908
 31
0.0
  0
LINE
  8
0
  6
LTYPE1
 62
     4
 10
2184.1200166
 20
160.699994
 30
0.0
 11
2184.1200166
 21
202.2999908
 31
0.0
  0
LINE
  8
0
  6
LTYPE1
 62
     4
 10
2147.7200194
 20
160.699994
 30
0.0
 11
2147.7200194
 21
202.2999908
 31
0.0
  0
LINE
  8
0
  6
LTYPE1
 62
     4
 10
2111.3200222
 20
160.699994
 30
0.0
 11
2111.3200222
 21
202.2999908
 31
0.0
  0
LINE
  8
0
  6
LTYPE1
 62
     4
 10
2074.920025
 20
160.699994
 30
0.0
 11
2074.920025
 21
202.2999908
 31
0.0
  0
LINE
  8
0
  6
LTYPE1
 62
     4
 10
2038.5200278
 20
160.699994
 30
0.0
 11
2038.5200278
 21
202.2999908
 31
0.0
  0
LINE
  8
0
  6
LTYPE1
 62
     4
 10
2002.1200306
 20
160.699994
 30
0.0
 11
2002.1200306
 21
202.2999908
 31
0.0
  0
LINE
  8
0
  6
LTYPE1
 62
     4
 10
1965.7200334
 20
160.699994
 30
0.0
 11
1965.7200334
 21
202.2999908
 31
0.0
  0
LINE
  8
0
  6
LTYPE1
 62
     4
 10
1965.7200334
 20
202.2999908
 30
0.0
 11
2220.5200138
 21
202.2999908
 31
0.0
  0
LINE
  8
0
  6
LTYPE1
 62
     4
 10
1965.7200334
 20
160.699994
 30
0.0
 11
2220.5200138
 21
160.699994
 31
0.0
  0
LINE
  8
0
  6
CONTINUOUS
 62
     4
 10
2241.3200122
 20
182.7999923
 30
0.0
 11
2251.7200114
 21
182.7999923
 31
0.0
  0
LINE
  8
0
  6
CONTINUOUS
 62
     4
 10
2306.3200072
 20
167.1999935
 30
0.0
 11
2269.92001
 21
167.1999935
 31
0.0
  0
LINE
  8
0
  6
CONTINUOUS
 62
     4
 10
2269.92001
 20
167.1999935
 30
0.0
 11
2288.1200086
 21
198.3999911
 31
0.0
  0
LINE
  8
0
  6
CONTINUOUS
 62
     4
 10
2288.1200086
 20
198.3999911
 30
0.0
 11
2306.3200072
 21
167.1999935
 31
0.0
  0
TEXT
  8
0
  6
CONTINUOUS
 62
     4
 10
2054.1200266
 20
277.699985
 30
1.03999992
 40
10.3999992
  1
ＴＩＴＬＥ
 50
0.0
 41
0.8
 51
0.0
  7
KANJI9
  0
TEXT
  8
0
  6
CONTINUOUS
 62
     4
 10
2054.1200266
 20
259.4999864
 30
1.247999904
 40
12.47999904
  1
名称
 50
0.0
 41
0.8
 51
0.0
  7
KANJI10
  0
TEXT
  8
0
  6
CONTINUOUS
 62
     2
 10
2138.92
 20
220.7
 30
15.0
 40
30.0
  1
外形寸法図
 50
0.0
 41
1.0
 51
0.0
  7
KANJI11
  0
TEXT
  8
0
  6
CONTINUOUS
 62
     2
 10
2102.92
 20
256.7
 30
4.285714286
 40
30.0
  1
マイティシリンダ
 50
0.0
 41
1.0
 51
0.0
  7
KANJI12
  0
TEXT
  8
0
  6
CONTINUOUS
 62
     2
 10
1934.2200334
 20
166.699994
 30
1.8
 40
30.0
  1
Ａ
 50
0.0
 41
0.8
 51
0.0
  7
KANJI13
  0
CIRCLE
  8
0
  6
CONTINUOUS
 62
     2
 10
1895.2200334
 20
231.199994
 30
0.0
 40
15.0
  0
TEXT
  8
0
  6
CONTINUOUS
 62
     2
 10
1883.9700334
 20
219.949994
 30
1.8
 40
24.0
  1
Ｓ
 50
0.0
 41
1.0
 51
0.0
  7
KANJI14
  0
LINE
  8
0
  6
CONTINUOUS
 62
     6
 10
2000.703030709
 20
131.683996232
 30
0.0
 11
1985.727031861
 21
131.683996232
 31
0.0
  0
LINE
  8
0
  6
CONTINUOUS
 62
     6
 10
2004.447030421
 20
131.683996232
 30
0.0
 11
2019.423029269
 21
131.683996232
 31
0.0
  0
TEXT
  8
0
  6
CONTINUOUS
 62
     2
 10
1660.9200334
 20
181.699994
 30
6.0
 40
21.0
  1
岡田
 50
0.0
 41
0.857142857
 51
0.0
  7
KANJI15
  0
LINE
  8
0
  6
CONTINUOUS
 62
     4
 10
2394.7200004
 20
379.0999772
 30
0.0
 11
2394.7200004
 21
420.699974
 31
0.0
  0
LINE
  8
0
  6
CONTINUOUS
 62
     6
 10
1594.670062
 20
379.0999772
 30
0.0
 11
2395.4700004
 21
379.0999772
 31
0.0
  0
LINE
  8
0
  6
CONTINUOUS
 62
     6
 10
1593.920062
 20
420.699974
 30
0.0
 11
2394.7200004
 21
420.699974
 31
0.0
  0
TEXT
  8
0
  6
CONTINUOUS
 62
     4
 10
1612.42
 20
385.2999968
 30
6.0
 40
21.6
  1
ご用途
 50
0.0
 41
1.111111111
 51
0.0
  7
KANJI8
  0
TEXT
  8
0
  6
CONTINUOUS
 62
     2
 10
1703.92
 20
94.7
 30
1.8
 40
27.0
  1
１／６
 50
0.0
 41
0.666666667
 51
0.0
  7
KANJI16
  0
LINE
  8
0
  6
CONTINUOUS
 62
     1
 10
1518.37
 20
1685.9
 30
0.0
 11
1518.37
 21
1565.78
 31
0.0
  0
LINE
  8
0
  6
CONTINUOUS
 62
     2
 10
1449.07
 20
1685.9
 30
0.0
 11
1449.07
 21
1565.78
 31
0.0
  0
LINE
  8
0
  6
CONTINUOUS
 62
     2
 10
1379.77
 20
1685.9
 30
0.0
 11
1379.77
 21
1565.78
 31
0.0
  0
LINE
  8
0
  6
CONTINUOUS
 62
     1
 10
1287.37
 20
1685.9
 30
0.0
 11
1287.37
 21
1565.78
 31
0.0
  0
LINE
  8
0
  6
CONTINUOUS
 62
     1
 10
1287.37
 20
1685.9
 30
0.0
 11
1518.37
 21
1685.9
 31
0.0
  0
LINE
  8
0
  6
CONTINUOUS
 62
     1
 10
1287.37
 20
1648.94
 30
0.0
 11
1518.37
 21
1648.94
 31
0.0
  0
LINE
  8
0
  6
CONTINUOUS
 62
     2
 10
1287.37
 20
1621.22
 30
0.0
 11
1518.37
 21
1621.22
 31
0.0
  0
LINE
  8
0
  6
CONTINUOUS
 62
     2
 10
1287.37
 20
1593.5
 30
0.0
 11
1518.37
 21
1593.5
 31
0.0
  0
LINE
  8
0
  6
CONTINUOUS
 62
     1
 10
1287.37
 20
1565.78
 30
0.0
 11
1518.37
 21
1565.78
 31
0.0
  0
TEXT
  8
0
  6
CONTINUOUS
 62
     2
 10
1458.31
 20
1669.73
 30
1.386
 40
13.86
  1
起動電流
 50
0.0
 41
0.9
 51
0.0
  7
KANJI17
  0
TEXT
  8
0
  6
CONTINUOUS
 62
     2
 10
1458.31
 20
1653.56
 30
1.386
 40
13.86
  1
　　　Ａ
 50
0.0
 41
0.9
 51
0.0
  7
KANJI17
  0
TEXT
  8
0
  6
CONTINUOUS
 62
     2
 10
1389.01
 20
1669.73
 30
1.386
 40
13.86
  1
定格電流
 50
0.0
 41
0.9
 51
0.0
  7
KANJI17
  0
TEXT
  8
0
  6
CONTINUOUS
 62
     2
 10
1389.01
 20
1653.56
 30
1.386
 40
13.86
  1
　　　Ａ
 50
0.0
 41
0.9
 51
0.0
  7
KANJI17
  0
TEXT
  8
0
  6
CONTINUOUS
 62
     2
 10
1295.224
 20
1600.43
 30
1.386
 40
13.86
  1
２００／６０
 50
0.0
 41
0.9
 51
0.0
  7
KANJI17
  0
TEXT
  8
0
  6
CONTINUOUS
 62
     2
 10
1295.224
 20
1669.73
 30
1.386
 40
13.86
  1
電圧／周波数
 50
0.0
 41
0.9
 51
0.0
  7
KANJI17
  0
TEXT
  8
0
  6
CONTINUOUS
 62
     2
 10
1295.224
 20
1653.56
 30
1.386
 40
13.86
  1
　Ｖ／Ｈｚ
 50
0.0
 41
0.9
 51
0.0
  7
KANJI17
  0
TEXT
  8
0
  6
CONTINUOUS
 62
     2
 10
1295.224
 20
1628.15
 30
1.386
 40
13.86
  1
２００／５０
 50
0.0
 41
0.9
 51
0.0
  7
KANJI17
  0
TEXT
  8
0
  6
CONTINUOUS
 62
     2
 10
1295.224
 20
1572.71
 30
1.386
 40
13.86
  1
２２０／６０
 50
0.0
 41
0.9
 51
0.0
  7
KANJI17
  0
LINE
  8
0
  6
CONTINUOUS
 62
     1
 10
1241.17
 20
1685.9
 30
0.0
 11
1241.17
 21
1565.78
 31
0.0
  0
LINE
  8
0
  6
CONTINUOUS
 62
     2
 10
1171.87
 20
1685.9
 30
0.0
 11
1171.87
 21
1565.78
 31
0.0
  0
LINE
  8
0
  6
CONTINUOUS
 62
     2
 10
1102.57
 20
1685.9
 30
0.0
 11
1102.57
 21
1565.78
 31
0.0
  0
LINE
  8
0
  6
CONTINUOUS
 62
     1
 10
1010.17
 20
1685.9
 30
0.0
 11
1010.17
 21
1565.78
 31
0.0
  0
LINE
  8
0
  6
CONTINUOUS
 62
     1
 10
1010.17
 20
1685.9
 30
0.0
 11
1241.17
 21
1685.9
 31
0.0
  0
LINE
  8
0
  6
CONTINUOUS
 62
     1
 10
1010.17
 20
1648.94
 30
0.0
 11
1241.17
 21
1648.94
 31
0.0
  0
LINE
  8
0
  6
CONTINUOUS
 62
     2
 10
1010.17
 20
1621.22
 30
0.0
 11
1241.17
 21
1621.22
 31
0.0
  0
LINE
  8
0
  6
CONTINUOUS
 62
     2
 10
1010.17
 20
1593.5
 30
0.0
 11
1241.17
 21
1593.5
 31
0.0
  0
LINE
  8
0
  6
CONTINUOUS
 62
     1
 10
1010.17
 20
1565.78
 30
0.0
 11
1241.17
 21
1565.78
 31
0.0
  0
TEXT
  8
0
  6
CONTINUOUS
 62
     2
 10
1181.11
 20
1669.73
 30
1.386
 40
13.86
  1
起動電流
 50
0.0
 41
0.9
 51
0.0
  7
KANJI17
  0
TEXT
  8
0
  6
CONTINUOUS
 62
     2
 10
1181.11
 20
1653.56
 30
1.386
 40
13.86
  1
　　　Ａ
 50
0.0
 41
0.9
 51
0.0
  7
KANJI17
  0
TEXT
  8
0
  6
CONTINUOUS
 62
     2
 10
1111.81
 20
1669.73
 30
1.386
 40
13.86
  1
定格電流
 50
0.0
 41
0.9
 51
0.0
  7
KANJI17
  0
TEXT
  8
0
  6
CONTINUOUS
 62
     2
 10
1111.81
 20
1653.56
 30
1.386
 40
13.86
  1
　　　Ａ
 50
0.0
 41
0.9
 51
0.0
  7
KANJI17
  0
TEXT
  8
0
  6
CONTINUOUS
 62
     2
 10
1018.024
 20
1669.73
 30
1.386
 40
13.86
  1
電圧／周波数
 50
0.0
 41
0.9
 51
0.0
  7
KANJI17
  0
TEXT
  8
0
  6
CONTINUOUS
 62
     2
 10
1018.024
 20
1653.56
 30
1.386
 40
13.86
  1
　Ｖ／Ｈｚ
 50
0.0
 41
0.9
 51
0.0
  7
KANJI17
  0
TEXT
  8
0
  6
CONTINUOUS
 62
     2
 10
1018.024
 20
1628.15
 30
1.386
 40
13.86
  1
４００／５０
 50
0.0
 41
0.9
 51
0.0
  7
KANJI17
  0
TEXT
  8
0
  6
CONTINUOUS
 62
     2
 10
1018.024
 20
1600.43
 30
1.386
 40
13.86
  1
４００／６０
 50
0.0
 41
0.9
 51
0.0
  7
KANJI17
  0
TEXT
  8
0
  6
CONTINUOUS
 62
     2
 10
1018.024
 20
1572.71
 30
1.386
 40
13.86
  1
４４０／６０
 50
0.0
 41
0.9
 51
0.0
  7
KANJI17
  0
TEXT
  8
0
  6
CONTINUOUS
 62
     2
 10
1111.81
 20
1628.15
 30
1.386
 40
13.86
  1
　２．０
 50
0.0
 41
0.9
 51
0.0
  7
KANJI17
  0
TEXT
  8
0
  6
CONTINUOUS
 62
     2
 10
1111.81
 20
1572.71
 30
1.386
 40
13.86
  1
　１．７
 50
0.0
 41
0.9
 51
0.0
  7
KANJI17
  0
TEXT
  8
0
  6
CONTINUOUS
 62
     2
 10
1111.81
 20
1600.43
 30
1.386
 40
13.86
  1
　１．８
 50
0.0
 41
0.9
 51
0.0
  7
KANJI17
  0
TEXT
  8
0
  6
CONTINUOUS
 62
     2
 10
1389.01
 20
1628.15
 30
1.386
 40
13.86
  1
　４．０
 50
0.0
 41
0.9
 51
0.0
  7
KANJI17
  0
TEXT
  8
0
  6
CONTINUOUS
 62
     2
 10
1389.01
 20
1600.43
 30
1.386
 40
13.86
  1
　３．２
 50
0.0
 41
0.9
 51
0.0
  7
KANJI17
  0
TEXT
  8
0
  6
CONTINUOUS
 62
     2
 10
1389.01
 20
1572.71
 30
1.386
 40
13.86
  1
　３．４
 50
0.0
 41
0.9
 51
0.0
  7
KANJI17
  0
TEXT
  8
0
  6
CONTINUOUS
 62
     2
 10
1181.11
 20
1628.15
 30
1.386
 40
13.86
  1
　６．６
 50
0.0
 41
0.9
 51
0.0
  7
KANJI17
  0
TEXT
  8
0
  6
CONTINUOUS
 62
     2
 10
1181.11
 20
1600.43
 30
1.386
 40
13.86
  1
　５．８
 50
0.0
 41
0.9
 51
0.0
  7
KANJI17
  0
TEXT
  8
0
  6
CONTINUOUS
 62
     2
 10
1181.11
 20
1572.71
 30
1.386
 40
13.86
  1
　６．４
 50
0.0
 41
0.9
 51
0.0
  7
KANJI17
  0
TEXT
  8
0
  6
CONTINUOUS
 62
     2
 10
1458.31
 20
1628.15
 30
1.386
 40
13.86
  1
１３．３
 50
0.0
 41
0.9
 51
0.0
  7
KANJI17
  0
TEXT
  8
0
  6
CONTINUOUS
 62
     2
 10
1458.31
 20
1600.43
 30
1.386
 40
13.86
  1
１１．６
 50
0.0
 41
0.9
 51
0.0
  7
KANJI17
  0
TEXT
  8
0
  6
CONTINUOUS
 62
     2
 10
1458.31
 20
1572.71
 30
1.386
 40
13.86
  1
１２．７
 50
0.0
 41
0.9
 51
0.0
  7
KANJI17
  0
TEXT
  8
0
  6
CONTINUOUS
 62
     2
 10
171.4
 20
37.4
 30
0.0
 40
18.0
  1
ＦＤ　Ｎｏ．ＭＣ１９１
 50
0.0
 41
0.9
 51
0.0
  7
KANJI18
  0
TEXT
  8
0
  6
CONTINUOUS
 62
     2
 10
1856.92
 20
262.7
 30
0.0
 40
21.0
  1
ＭＣＬＣ１Ｂ－Ｊ
 50
0.0
 41
0.793650794
 51
0.0
  7
KANJI19
  0
TEXT
  8
0
  6
CONTINUOUS
 62
     2
 10
1971.7200334
 20
166.699994
 30
13.0
 40
30.0
  1
３００２４４１
 50
0.0
 41
0.8
 51
0.0
  7
KANJI20
  0
TEXT
  8
0
  6
CONTINUOUS
 62
     2
 10
1050.133
 20
1544.99
 30
1.617
 40
16.17
  1
注意：サーマルリレー等の選定は、上記の値で選定して下さい。
 50
0.0
 41
0.9
 51
0.0
  7
KANJI21
  0
LINE
  8
0
  6
CONTINUOUS
 62
     2
 10
1040.893
 20
1540.37
 30
0.0
 11
1507.0
 21
1540.37
 31
0.0
  0
LINE
  8
0
  6
CONTINUOUS
 62
     1
 10
444.0
 20
593.5
 30
0.0
 11
444.0
 21
582.55046
 31
0.0
  0
LINE
  8
0
  6
CONTINUOUS
 62
     1
 10
444.0
 20
593.5
 30
0.0
 11
444.0
 21
604.44954
 31
0.0
  0
LINE
  8
0
  6
CONTINUOUS
 62
     1
 10
435.9789
 20
585.23198
 30
0.0
 11
437.527076294
 21
582.55046
 31
0.0
  0
LINE
  8
0
  6
CONTINUOUS
 62
     1
 10
435.9789
 20
593.5
 30
0.0
 11
435.9789
 21
585.23198
 31
0.0
  0
LINE
  8
0
  6
CONTINUOUS
 62
     1
 10
435.9789
 20
601.76802
 30
0.0
 11
437.527076294
 21
604.44954
 31
0.0
  0
LINE
  8
0
  6
CONTINUOUS
 62
     1
 10
435.9789
 20
593.5
 30
0.0
 11
435.9789
 21
601.76802
 31
0.0
  0
ARC
  8
0
  6
CONTINUOUS
 62
     1
 10
446.433121693
 20
593.5
 30
0.0
 40
10.454221693
 50
148.419912243
 51
211.580087757
  0
ARC
  8
0
  6
CONTINUOUS
 62
     1
 10
439.172013606
 20
585.287845
 30
0.0
 40
3.193602261
 50
121.002313915
 51
182.989498403
  0
LINE
  8
0
  6
CONTINUOUS
 62
     1
 10
435.9789
 20
601.76802
 30
0.0
 11
437.527076294
 21
604.44954
 31
0.0
  0
ARC
  8
0
  6
CONTINUOUS
 62
     1
 10
439.172013606
 20
601.712155
 30
0.0
 40
3.193602261
 50
177.010501597
 51
238.997686085
  0
LINE
  8
0
  6
CONTINUOUS
 62
     1
 10
444.0
 20
582.55046
 30
0.0
 11
437.527076294
 21
582.55046
 31
0.0
  0
LINE
  8
0
  6
CONTINUOUS
 62
     1
 10
444.0
 20
588.02523
 30
0.0
 11
437.527076294
 21
588.02523
 31
0.0
  0
LINE
  8
0
  6
CONTINUOUS
 62
     1
 10
444.0
 20
598.97477
 30
0.0
 11
437.527076294
 21
598.97477
 31
0.0
  0
LINE
  8
0
  6
CONTINUOUS
 62
     1
 10
444.0
 20
604.44954
 30
0.0
 11
437.527076294
 21
604.44954
 31
0.0
  0
LINE
  8
0
  6
CONTINUOUS
 62
     1
 10
444.0
 20
721.5
 30
0.0
 11
444.0
 21
710.55046
 31
0.0
  0
LINE
  8
0
  6
CONTINUOUS
 62
     1
 10
444.0
 20
721.5
 30
0.0
 11
444.0
 21
732.44954
 31
0.0
  0
LINE
  8
0
  6
CONTINUOUS
 62
     1
 10
435.9789
 20
713.23198
 30
0.0
 11
437.527076294
 21
710.55046
 31
0.0
  0
LINE
  8
0
  6
CONTINUOUS
 62
     1
 10
435.9789
 20
721.5
 30
0.0
 11
435.9789
 21
713.23198
 31
0.0
  0
LINE
  8
0
  6
CONTINUOUS
 62
     1
 10
435.9789
 20
729.76802
 30
0.0
 11
437.527076294
 21
732.44954
 31
0.0
  0
LINE
  8
0
  6
CONTINUOUS
 62
     1
 10
435.9789
 20
721.5
 30
0.0
 11
435.9789
 21
729.76802
 31
0.0
  0
ARC
  8
0
  6
CONTINUOUS
 62
     1
 10
446.433121693
 20
721.5
 30
0.0
 40
10.454221693
 50
148.419912243
 51
211.580087757
  0
ARC
  8
0
  6
CONTINUOUS
 62
     1
 10
439.172013606
 20
713.287845
 30
0.0
 40
3.193602261
 50
121.002313915
 51
182.989498403
  0
LINE
  8
0
  6
CONTINUOUS
 62
     1
 10
435.9789
 20
729.76802
 30
0.0
 11
437.527076294
 21
732.44954
 31
0.0
  0
ARC
  8
0
  6
CONTINUOUS
 62
     1
 10
439.172013606
 20
729.712155
 30
0.0
 40
3.193602261
 50
177.010501597
 51
238.997686085
  0
LINE
  8
0
  6
CONTINUOUS
 62
     1
 10
444.0
 20
710.55046
 30
0.0
 11
437.527076294
 21
710.55046
 31
0.0
  0
LINE
  8
0
  6
CONTINUOUS
 62
     1
 10
444.0
 20
716.02523
 30
0.0
 11
437.527076294
 21
716.02523
 31
0.0
  0
LINE
  8
0
  6
CONTINUOUS
 62
     1
 10
444.0
 20
726.97477
 30
0.0
 11
437.527076294
 21
726.97477
 31
0.0
  0
LINE
  8
0
  6
CONTINUOUS
 62
     1
 10
444.0
 20
732.44954
 30
0.0
 11
437.527076294
 21
732.44954
 31
0.0
  0
LINE
  8
0
  6
CONTINUOUS
 62
     1
 10
638.0
 20
599.5
 30
0.0
 11
712.0
 21
599.5
 31
0.0
  0
LINE
  8
0
  6
CONTINUOUS
 62
     1
 10
712.0
 20
599.5
 30
0.0
 11
712.0
 21
710.5
 31
0.0
  0
LINE
  8
0
  6
CONTINUOUS
 62
     1
 10
545.0
 20
600.5
 30
0.0
 11
545.0
 21
714.5
 31
0.0
  0
CIRCLE
  8
0
  6
CONTINUOUS
 62
     1
 10
590.0
 20
657.5
 30
0.0
 40
10.0
  0
CIRCLE
  8
0
  6
CONTINUOUS
 62
     1
 10
590.0
 20
657.5
 30
0.0
 40
21.0
  0
CIRCLE
  8
0
  6
CONTINUOUS
 62
     1
 10
590.0
 20
657.5
 30
0.0
 40
25.0
  0
LINE
  8
0
  6
CONTINUOUS
 62
     1
 10
530.0
 20
714.5
 30
0.0
 11
545.0
 21
714.5
 31
0.0
  0
LINE
  8
0
  6
CONTINUOUS
 62
     1
 10
558.9
 20
710.5
 30
0.0
 11
712.0
 21
710.5
 31
0.0
  0
LINE
  8
0
  6
CONTINUOUS
 62
     1
 10
638.0
 20
599.5
 30
0.0
 11
638.0
 21
651.9
 31
0.0
  0
LINE
  8
0
  6
CONTINUOUS
 62
     1
 10
558.9
 20
604.5
 30
0.0
 11
635.5
 21
604.5
 31
0.0
  0
LINE
  8
0
  6
CONTINUOUS
 62
     1
 10
720.0
 20
598.0
 30
0.0
 11
720.0
 21
597.0
 31
0.0
  0
ARC
  8
0
  6
CONTINUOUS
 62
     1
 10
633.0
 20
595.0
 30
0.0
 40
3.0
 50
90.0
 51
180.0
  0
LINE
  8
0
  6
CONTINUOUS
 62
     1
 10
759.0
 20
555.0
 30
0.0
 11
630.0
 21
555.0
 31
0.0
  0
LINE
  8
0
  6
CONTINUOUS
 62
     1
 10
720.0
 20
597.0
 30
0.0
 11
756.0
 21
597.0
 31
0.0
  0
ARC
  8
0
  6
CONTINUOUS
 62
     1
 10
756.0
 20
594.0
 30
0.0
 40
3.0
 50
0.0
 51
90.0
  0
LINE
  8
0
  6
CONTINUOUS
 62
     1
 10
759.0
 20
553.5
 30
0.0
 11
630.0
 21
553.5
 31
0.0
  0
LINE
  8
0
  6
CONTINUOUS
 62
     1
 10
759.0
 20
548.5
 30
0.0
 11
759.0
 21
594.0
 31
0.0
  0
ARC
  8
0
  6
CONTINUOUS
 62
     1
 10
758.0
 20
548.5
 30
0.0
 40
1.0
 50
270.0
 51
0.0
  0
LINE
  8
0
  6
CONTINUOUS
 62
     1
 10
756.0
 20
547.5
 30
0.0
 11
756.0
 21
547.5
 31
0.0
  0
ARC
  8
0
  6
CONTINUOUS
 62
     1
 10
755.0
 20
547.5
 30
0.0
 40
1.0
 50
270.0
 51
0.0
  0
LINE
  8
0
  6
CONTINUOUS
 62
     1
 10
630.0
 20
548.5
 30
0.0
 11
630.0
 21
595.0
 31
0.0
  0
LINE
  8
0
  6
CONTINUOUS
 62
     1
 10
758.0
 20
547.5
 30
0.0
 11
631.0
 21
547.5
 31
0.0
  0
ARC
  8
0
  6
CONTINUOUS
 62
     1
 10
631.0
 20
548.5
 30
0.0
 40
1.0
 50
180.0
 51
270.0
  0
ARC
  8
0
  6
CONTINUOUS
 62
     1
 10
634.0
 20
547.5
 30
0.0
 40
1.0
 50
180.0
 51
270.0
  0
LINE
  8
0
  6
CONTINUOUS
 62
     1
 10
755.0
 20
546.5
 30
0.0
 11
634.1
 21
546.5
 31
0.0
  0
LINE
  8
0
  6
CONTINUOUS
 62
     1
 10
633.0
 20
598.0
 30
0.0
 11
720.0
 21
598.0
 31
0.0
  0
LINE
  8
0
  6
CONTINUOUS
 62
     1
 10
633.0
 20
599.5
 30
0.0
 11
720.0
 21
599.5
 31
0.0
  0
LINE
  8
0
  6
CONTINUOUS
 62
     1
 10
548.0
 20
702.5
 30
0.0
 11
548.0
 21
713.44954
 31
0.0
  0
LINE
  8
0
  6
CONTINUOUS
 62
     1
 10
548.0
 20
702.5
 30
0.0
 11
548.0
 21
691.55046
 31
0.0
  0
LINE
  8
0
  6
CONTINUOUS
 62
     1
 10
545.0
 20
713.25
 30
0.0
 11
548.0
 21
713.25
 31
0.0
  0
LINE
  8
0
  6
CONTINUOUS
 62
     1
 10
545.0
 20
702.5
 30
0.0
 11
548.000254073
 21
705.500254073
 31
0.0
  0
LINE
  8
0
  6
CONTINUOUS
 62
     1
 10
548.000254073
 20
702.5
 30
0.0
 11
545.0
 21
699.499745927
 31
0.0
  0
LINE
  8
0
  6
CONTINUOUS
 62
     1
 10
545.0
 20
691.75
 30
0.0
 11
548.0
 21
691.75
 31
0.0
  0
LINE
  8
0
  6
CONTINUOUS
 62
     1
 10
548.0
 20
713.25
 30
0.0
 11
559.3
 21
713.25
 31
0.0
  0
LINE
  8
0
  6
CONTINUOUS
 62
     1
 10
559.3
 20
702.5
 30
0.0
 11
559.3
 21
713.25
 31
0.0
  0
LINE
  8
0
  6
CONTINUOUS
 62
     1
 10
559.3
 20
713.25
 30
0.0
 11
560.0
 21
712.037564435
 31
0.0
  0
LINE
  8
0
  6
CONTINUOUS
 62
     1
 10
560.0
 20
702.5
 30
0.0
 11
560.0
 21
712.037564435
 31
0.0
  0
LINE
  8
0
  6
CONTINUOUS
 62
     1
 10
548.0
 20
691.75
 30
0.0
 11
559.3
 21
691.75
 31
0.0
  0
LINE
  8
0
  6
CONTINUOUS
 62
     1
 10
559.3
 20
702.5
 30
0.0
 11
559.3
 21
691.75
 31
0.0
  0
LINE
  8
0
  6
CONTINUOUS
 62
     1
 10
559.3
 20
691.75
 30
0.0
 11
560.0
 21
692.962435565
 31
0.0
  0
LINE
  8
0
  6
CONTINUOUS
 62
     1
 10
560.0
 20
702.5
 30
0.0
 11
560.0
 21
692.962435565
 31
0.0
  0
LINE
  8
0
  6
CONTINUOUS
 62
     1
 10
548.0
 20
612.5
 30
0.0
 11
548.0
 21
601.55046
 31
0.0
  0
LINE
  8
0
  6
CONTINUOUS
 62
     1
 10
548.0
 20
612.5
 30
0.0
 11
548.0
 21
623.44954
 31
0.0
  0
LINE
  8
0
  6
CONTINUOUS
 62
     1
 10
545.0
 20
601.75
 30
0.0
 11
548.0
 21
601.75
 31
0.0
  0
LINE
  8
0
  6
CONTINUOUS
 62
     1
 10
545.0
 20
612.5
 30
0.0
 11
548.000254073
 21
609.499745927
 31
0.0
  0
LINE
  8
0
  6
CONTINUOUS
 62
     1
 10
548.000254073
 20
612.5
 30
0.0
 11
545.0
 21
615.500254073
 31
0.0
  0
LINE
  8
0
  6
CONTINUOUS
 62
     1
 10
545.0
 20
623.25
 30
0.0
 11
548.0
 21
623.25
 31
0.0
  0
LINE
  8
0
  6
CONTINUOUS
 62
     1
 10
548.0
 20
601.75
 30
0.0
 11
559.3
 21
601.75
 31
0.0
  0
LINE
  8
0
  6
CONTINUOUS
 62
     1
 10
559.3
 20
612.5
 30
0.0
 11
559.3
 21
601.75
 31
0.0
  0
LINE
  8
0
  6
CONTINUOUS
 62
     1
 10
559.3
 20
601.75
 30
0.0
 11
560.0
 21
602.962435565
 31
0.0
  0
LINE
  8
0
  6
CONTINUOUS
 62
     1
 10
560.0
 20
612.5
 30
0.0
 11
560.0
 21
602.962435565
 31
0.0
  0
LINE
  8
0
  6
CONTINUOUS
 62
     1
 10
548.0
 20
623.25
 30
0.0
 11
559.3
 21
623.25
 31
0.0
  0
LINE
  8
0
  6
CONTINUOUS
 62
     1
 10
559.3
 20
612.5
 30
0.0
 11
559.3
 21
623.25
 31
0.0
  0
LINE
  8
0
  6
CONTINUOUS
 62
     1
 10
559.3
 20
623.25
 30
0.0
 11
560.0
 21
622.037564435
 31
0.0
  0
LINE
  8
0
  6
CONTINUOUS
 62
     1
 10
560.0
 20
612.5
 30
0.0
 11
560.0
 21
622.037564435
 31
0.0
  0
LINE
  8
0
  6
CONTINUOUS
 62
     1
 10
530.0
 20
600.5
 30
0.0
 11
545.0
 21
600.5
 31
0.0
  0
POINT
  8
0
  6
CONTINUOUS
 62
     1
 10
530.0
 20
600.5
 30
0.0
  0
LINE
  8
0
  6
CONTINUOUS
 62
     1
 10
530.0
 20
600.5
 30
0.0
 11
530.0
 21
714.5
 31
0.0
  0
LINE
  8
0
  6
CONTINUOUS
 62
     1
 10
721.0
 20
606.5
 30
0.0
 11
721.0
 21
708.5
 31
0.0
  0
LINE
  8
0
  6
CONTINUOUS
 62
     1
 10
721.0
 20
708.5
 30
0.0
 11
712.0
 21
708.5
 31
0.0
  0
LINE
  8
0
  6
CONTINUOUS
 62
     1
 10
721.0
 20
606.5
 30
0.0
 11
712.0
 21
606.5
 31
0.0
  0
LINE
  8
0
  6
CONTINUOUS
 62
     1
 10
721.0
 20
705.0
 30
0.0
 11
712.0
 21
705.0
 31
0.0
  0
LINE
  8
0
  6
CONTINUOUS
 62
     1
 10
721.0
 20
610.0
 30
0.0
 11
712.0
 21
610.0
 31
0.0
  0
LINE
  8
0
  6
CONTINUOUS
 62
     1
 10
721.0
 20
653.5
 30
0.0
 11
712.0
 21
653.5
 31
0.0
  0
LINE
  8
0
  6
CONTINUOUS
 62
     1
 10
721.0
 20
661.5
 30
0.0
 11
712.0
 21
661.5
 31
0.0
  0
LINE
  8
0
  6
LTYPE2
 62
     2
 10
469.1
 20
593.5
 30
0.0
 11
434.9
 21
593.5
 31
0.0
  0
LINE
  8
0
  6
LTYPE2
 62
     2
 10
470.1
 20
721.5
 30
0.0
 11
434.9
 21
721.5
 31
0.0
  0
LINE
  8
0
  6
LTYPE2
 62
     2
 10
509.0
 20
702.5
 30
0.0
 11
562.0
 21
702.5
 31
0.0
  0
LINE
  8
0
  6
LTYPE2
 62
     2
 10
590.0
 20
626.0
 30
0.0
 11
590.0
 21
689.0
 31
0.0
  0
LINE
  8
0
  6
LTYPE2
 62
     2
 10
509.0
 20
612.5
 30
0.0
 11
562.0
 21
612.5
 31
0.0
  0
LINE
  8
0
  6
LTYPE1
 62
     2
 10
759.0
 20
581.3
 30
0.0
 11
749.0
 21
581.3
 31
0.0
  0
LINE
  8
0
  6
LTYPE1
 62
     2
 10
759.0
 20
582.5
 30
0.0
 11
749.0
 21
582.5
 31
0.0
  0
LINE
  8
0
  6
LTYPE1
 62
     2
 10
759.0
 20
562.7
 30
0.0
 11
749.0
 21
562.7
 31
0.0
  0
LINE
  8
0
  6
LTYPE1
 62
     2
 10
759.0
 20
561.5
 30
0.0
 11
749.0
 21
561.5
 31
0.0
  0
LINE
  8
0
  6
LTYPE3
 62
     2
 10
765.2
 20
572.0
 30
0.0
 11
745.5
 21
572.0
 31
0.0
  0
LINE
  8
0
  6
LTYPE3
 62
     2
 10
674.0
 20
586.3
 30
0.0
 11
674.0
 21
601.15
 31
0.0
  0
LINE
  8
0
  6
CONTINUOUS
 62
     2
 10
818.5
 20
622.5
 30
0.0
 11
821.735238064
 21
634.574072829
 31
0.0
  0
LINE
  8
0
  6
CONTINUOUS
 62
     2
 10
818.5
 20
622.5
 30
0.0
 11
815.264761936
 21
634.574072829
 31
0.0
  0
LINE
  8
0
  6
CONTINUOUS
 62
     2
 10
818.5
 20
622.5
 30
0.0
 11
818.5
 21
692.5
 31
0.0
  0
LINE
  8
0
  6
CONTINUOUS
 62
     2
 10
818.5
 20
692.5
 30
0.0
 11
815.264761936
 21
680.425927171
 31
0.0
  0
LINE
  8
0
  6
CONTINUOUS
 62
     2
 10
818.5
 20
692.5
 30
0.0
 11
821.735238064
 21
680.425927171
 31
0.0
  0
LINE
  8
0
  6
CONTINUOUS
 62
     2
 10
759.0
 20
572.0
 30
0.0
 11
761.506004628
 21
559.753778509
 31
0.0
  0
LINE
  8
0
  6
CONTINUOUS
 62
     2
 10
759.0
 20
572.0
 30
0.0
 11
767.293374416
 21
562.647463403
 31
0.0
  0
LINE
  8
0
  6
CONTINUOUS
 62
     2
 10
759.0
 20
572.0
 30
0.0
 11
784.0
 21
522.0
 31
0.0
  0
LINE
  8
0
  6
CONTINUOUS
 62
     2
 10
784.0
 20
522.0
 30
0.0
 11
851.5
 21
522.0
 31
0.0
  0
LINE
  8
0
  6
CONTINUOUS
 62
     2
 10
656.8
 20
548.7
 30
0.0
 11
659.449054108
 21
536.483924021
 31
0.0
  0
LINE
  8
0
  6
CONTINUOUS
 62
     2
 10
656.8
 20
548.7
 30
0.0
 11
665.202186143
 21
539.445094921
 31
0.0
  0
LINE
  8
0
  6
CONTINUOUS
 62
     2
 10
444.0
 20
407.3625
 30
0.0
 11
456.074072829
 21
404.127261936
 31
0.0
  0
LINE
  8
0
  6
CONTINUOUS
 62
     2
 10
444.0
 20
407.3625
 30
0.0
 11
456.074072829
 21
410.597738064
 31
0.0
  0
LINE
  8
0
  6
CONTINUOUS
 62
     2
 10
444.0
 20
407.3625
 30
0.0
 11
530.0
 21
407.3625
 31
0.0
  0
LINE
  8
0
  6
CONTINUOUS
 62
     2
 10
530.0
 20
407.3625
 30
0.0
 11
517.925927171
 21
410.597738064
 31
0.0
  0
LINE
  8
0
  6
CONTINUOUS
 62
     2
 10
530.0
 20
407.3625
 30
0.0
 11
517.925927171
 21
404.127261936
 31
0.0
  0
LINE
  8
0
  6
CONTINUOUS
 62
     2
 10
530.0
 20
407.3625
 30
0.0
 11
542.074072829
 21
404.127261936
 31
0.0
  0
LINE
  8
0
  6
CONTINUOUS
 62
     2
 10
530.0
 20
407.3625
 30
0.0
 11
542.074072829
 21
410.597738064
 31
0.0
  0
LINE
  8
0
  6
CONTINUOUS
 62
     2
 10
530.0
 20
407.3625
 30
0.0
 11
590.0
 21
407.3625
 31
0.0
  0
LINE
  8
0
  6
CONTINUOUS
 62
     2
 10
590.0
 20
407.3625
 30
0.0
 11
577.925927171
 21
410.597738064
 31
0.0
  0
LINE
  8
0
  6
CONTINUOUS
 62
     2
 10
590.0
 20
407.3625
 30
0.0
 11
577.925927171
 21
404.127261936
 31
0.0
  0
LINE
  8
0
  6
CONTINUOUS
 62
     2
 10
590.0
 20
407.3625
 30
0.0
 11
602.074072829
 21
404.127261936
 31
0.0
  0
LINE
  8
0
  6
CONTINUOUS
 62
     2
 10
590.0
 20
407.3625
 30
0.0
 11
602.074072829
 21
410.597738064
 31
0.0
  0
LINE
  8
0
  6
CONTINUOUS
 62
     2
 10
590.0
 20
407.3625
 30
0.0
 11
1221.0
 21
407.3625
 31
0.0
  0
LINE
  8
0
  6
CONTINUOUS
 62
     2
 10
590.0
 20
450.7
 30
0.0
 11
602.074072829
 21
447.464761936
 31
0.0
  0
LINE
  8
0
  6
CONTINUOUS
 62
     2
 10
590.0
 20
450.7
 30
0.0
 11
602.074072829
 21
453.935238064
 31
0.0
  0
LINE
  8
0
  6
CONTINUOUS
 62
     2
 10
590.0
 20
450.7
 30
0.0
 11
1116.0
 21
450.7
 31
0.0
  0
LINE
  8
0
  6
CONTINUOUS
 62
     2
 10
444.0
 20
399.8625
 30
0.0
 11
444.0
 21
355.5
 31
0.0
  0
LINE
  8
0
  6
CONTINUOUS
 62
     2
 10
444.0
 20
363.0
 30
0.0
 11
456.074072829
 21
359.764761936
 31
0.0
  0
LINE
  8
0
  6
CONTINUOUS
 62
     2
 10
444.0
 20
363.0
 30
0.0
 11
456.074072829
 21
366.235238064
 31
0.0
  0
LINE
  8
0
  6
CONTINUOUS
 62
     2
 10
444.0
 20
363.0
 30
0.0
 11
1221.0
 21
363.0
 31
0.0
  0
LINE
  8
0
  6
CONTINUOUS
 62
     2
 10
444.0
 20
571.875
 30
0.0
 11
444.0
 21
399.8625
 31
0.0
  0
LINE
  8
0
  6
CONTINUOUS
 62
     2
 10
530.0
 20
575.875
 30
0.0
 11
530.0
 21
399.8625
 31
0.0
  0
LINE
  8
0
  6
CONTINUOUS
 62
     2
 10
590.0
 20
629.375
 30
0.0
 11
590.0
 21
399.8625
 31
0.0
  0
LINE
  8
0
  6
CONTINUOUS
 62
     2
 10
656.8
 20
548.7
 30
0.0
 11
700.292647059
 21
464.2
 31
0.0
  0
ARC
  8
0
  6
CONTINUOUS
 62
     1
 10
542.0
 20
727.0
 30
0.0
 40
2.0
 50
90.0
 51
180.0
  0
ARC
  8
0
  6
CONTINUOUS
 62
     1
 10
542.0
 20
858.0
 30
0.0
 40
2.0
 50
180.0
 51
270.0
  0
LINE
  8
0
  6
CONTINUOUS
 62
     1
 10
577.0
 20
856.0
 30
0.0
 11
577.0
 21
729.0
 31
0.0
  0
LINE
  8
0
  6
CONTINUOUS
 62
     1
 10
766.810381815
 20
834.327582684
 30
0.0
 11
784.189618185
 21
832.672417316
 31
0.0
  0
ARC
  8
0
  6
CONTINUOUS
 62
     1
 10
767.0
 20
836.318573629
 30
0.0
 40
2.0
 50
180.0
 51
264.559667969
  0
LINE
  8
0
  6
CONTINUOUS
 62
     1
 10
766.810381815
 20
844.327582684
 30
0.0
 11
784.189618185
 21
842.672417316
 31
0.0
  0
ARC
  8
0
  6
CONTINUOUS
 62
     1
 10
767.0
 20
846.318573629
 30
0.0
 40
2.0
 50
180.0
 51
264.559667969
  0
LINE
  8
0
  6
CONTINUOUS
 62
     1
 10
766.810381815
 20
750.672417316
 30
0.0
 11
784.189618185
 21
752.327582684
 31
0.0
  0
ARC
  8
0
  6
CONTINUOUS
 62
     1
 10
767.0
 20
748.681426371
 30
0.0
 40
2.0
 50
95.440332031
 51
180.0
  0
ARC
  8
0
  6
CONTINUOUS
 62
     1
 10
788.0
 20
817.5
 30
0.0
 40
2.0
 50
180.0
 51
270.0
  0
LINE
  8
0
  6
CONTINUOUS
 62
     1
 10
797.0
 20
815.5
 30
0.0
 11
788.0
 21
815.5
 31
0.0
  0
ARC
  8
0
  6
CONTINUOUS
 62
     1
 10
797.0
 20
813.5
 30
0.0
 40
2.0
 50
0.0
 51
90.0
  0
LINE
  8
0
  6
CONTINUOUS
 62
     1
 10
799.0
 20
813.5
 30
0.0
 11
799.0
 21
771.5
 31
0.0
  0
ARC
  8
0
  6
CONTINUOUS
 62
     1
 10
797.0
 20
771.5
 30
0.0
 40
2.0
 50
270.0
 51
0.0
  0
ARC
  8
0
  6
CONTINUOUS
 62
     1
 10
788.0
 20
767.5
 30
0.0
 40
2.0
 50
90.0
 51
180.0
  0
LINE
  8
0
  6
CONTINUOUS
 62
     1
 10
797.0
 20
769.5
 30
0.0
 11
788.0
 21
769.5
 31
0.0
  0
LINE
  8
0
  6
CONTINUOUS
 62
     1
 10
802.0
 20
804.0
 30
0.0
 11
799.0
 21
804.0
 31
0.0
  0
LINE
  8
0
  6
CONTINUOUS
 62
     1
 10
802.0
 20
781.0
 30
0.0
 11
799.0
 21
781.0
 31
0.0
  0
LINE
  8
0
  6
CONTINUOUS
 62
     1
 10
802.0
 20
804.0
 30
0.0
 11
802.0
 21
781.0
 31
0.0
  0
ARC
  8
0
  6
CONTINUOUS
 62
     1
 10
763.0
 20
731.0
 30
0.0
 40
2.0
 50
270.0
 51
0.0
  0
ARC
  8
0
  6
CONTINUOUS
 62
     1
 10
763.0
 20
854.0
 30
0.0
 40
2.0
 50
0.0
 51
90.0
  0
LINE
  8
0
  6
CONTINUOUS
 62
     1
 10
757.0
 20
856.0
 30
0.0
 11
757.0
 21
729.0
 31
0.0
  0
LINE
  8
0
  6
CONTINUOUS
 62
     1
 10
763.000005395
 20
729.0
 30
0.0
 11
542.0
 21
729.0
 31
0.0
  0
LINE
  8
0
  6
CONTINUOUS
 62
     1
 10
763.0
 20
856.0
 30
0.0
 11
542.0
 21
856.0
 31
0.0
  0
LINE
  8
0
  6
CONTINUOUS
 62
     1
 10
675.05
 20
875.5
 30
0.0
 11
675.05
 21
909.5
 31
0.0
  0
LINE
  8
0
  6
CONTINUOUS
 62
     1
 10
675.05
 20
875.5
 30
0.0
 11
649.05
 21
875.5
 31
0.0
  0
LINE
  8
0
  6
CONTINUOUS
 62
     1
 10
675.05
 20
909.5
 30
0.0
 11
649.05
 21
909.5
 31
0.0
  0
LINE
  8
0
  6
LTYPE3
 62
     2
 10
681.979475845
 20
892.5
 30
0.0
 11
641.979475845
 21
892.5
 31
0.0
  0
LINE
  8
0
  6
CONTINUOUS
 62
     1
 10
579.05
 20
867.5
 30
0.0
 11
579.05
 21
870.5
 31
0.0
  0
ARC
  8
0
  6
CONTINUOUS
 62
     1
 10
583.05
 20
864.5
 30
0.0
 40
3.0
 50
0.0
 51
90.0
  0
LINE
  8
0
  6
CONTINUOUS
 62
     1
 10
639.05
 20
867.5
 30
0.0
 11
639.05
 21
870.5
 31
0.0
  0
ARC
  8
0
  6
CONTINUOUS
 62
     1
 10
635.05
 20
864.5
 30
0.0
 40
3.0
 50
90.0
 51
180.0
  0
LINE
  8
0
  6
CONTINUOUS
 62
     1
 10
639.05
 20
867.5
 30
0.0
 11
579.05
 21
867.5
 31
0.0
  0
LINE
  8
0
  6
CONTINUOUS
 62
     1
 10
563.962087912
 20
872.5
 30
0.0
 11
656.05
 21
916.520045888
 31
0.0
  0
LINE
  8
0
  6
CONTINUOUS
 62
     1
 10
562.05
 20
876.5
 30
0.0
 11
563.962087912
 21
872.5
 31
0.0
  0
LINE
  8
0
  6
CONTINUOUS
 62
     1
 10
562.05
 20
876.5
 30
0.0
 11
654.137912088
 21
920.520045888
 31
0.0
  0
LINE
  8
0
  6
CONTINUOUS
 62
     1
 10
654.137912088
 20
920.520045888
 30
0.0
 11
656.05
 21
916.520045888
 31
0.0
  0
LINE
  8
0
  6
CONTINUOUS
 62
     1
 10
569.05
 20
879.846153846
 30
0.0
 11
569.05
 21
919.5
 31
0.0
  0
ARC
  8
0
  6
CONTINUOUS
 62
     1
 10
572.05
 20
919.5
 30
0.0
 40
3.0
 50
90.0
 51
180.0
  0
LINE
  8
0
  6
CONTINUOUS
 62
     1
 10
569.05
 20
873.5
 30
0.0
 11
569.05
 21
874.9321338
 31
0.0
  0
ARC
  8
0
  6
CONTINUOUS
 62
     1
 10
572.05
 20
873.5
 30
0.0
 40
3.0
 50
180.0
 51
270.0
  0
LINE
  8
0
  6
CONTINUOUS
 62
     1
 10
649.05
 20
873.5
 30
0.0
 11
649.05
 21
913.173892042
 31
0.0
  0
LINE
  8
0
  6
CONTINUOUS
 62
     1
 10
646.05
 20
870.5
 30
0.0
 11
572.05
 21
870.5
 31
0.0
  0
ARC
  8
0
  6
CONTINUOUS
 62
     1
 10
646.05
 20
873.5
 30
0.0
 40
3.0
 50
270.0
 51
0.0
  0
LINE
  8
0
  6
CONTINUOUS
 62
     1
 10
649.05
 20
918.087912088
 30
0.0
 11
649.05
 21
919.5
 31
0.0
  0
LINE
  8
0
  6
CONTINUOUS
 62
     1
 10
646.05
 20
922.5
 30
0.0
 11
572.05
 21
922.5
 31
0.0
  0
ARC
  8
0
  6
CONTINUOUS
 62
     1
 10
646.05
 20
919.5
 30
0.0
 40
3.0
 50
0.0
 51
90.0
  0
ARC
  8
0
  6
CONTINUOUS
 62
     1
 10
589.05
 20
859.0
 30
0.0
 40
3.0
 50
180.0
 51
270.0
  0
ARC
  8
0
  6
CONTINUOUS
 62
     1
 10
629.05
 20
859.0
 30
0.0
 40
3.0
 50
270.0
 51
0.0
  0
LINE
  8
0
  6
CONTINUOUS
 62
     1
 10
632.05
 20
859.000005395
 30
0.0
 11
632.05
 21
864.5
 31
0.0
  0
LINE
  8
0
  6
CONTINUOUS
 62
     1
 10
586.05
 20
859.000005395
 30
0.0
 11
586.05
 21
864.5
 31
0.0
  0
ARC
  8
0
  6
CONTINUOUS
 62
     1
 10
784.0
 20
785.318573629
 30
0.0
 40
2.0
 50
275.440332031
 51
0.0
  0
LINE
  8
0
  6
CONTINUOUS
 62
     1
 10
784.189618185
 20
783.327582684
 30
0.0
 11
766.810381815
 21
781.672417316
 31
0.0
  0
ARC
  8
0
  6
CONTINUOUS
 62
     1
 10
767.0
 20
779.681426371
 30
0.0
 40
2.0
 50
95.440332031
 51
180.0
  0
ARC
  8
0
  6
CONTINUOUS
 62
     1
 10
784.0
 20
799.681426371
 30
0.0
 40
2.0
 50
0.0
 51
84.559667969
  0
LINE
  8
0
  6
CONTINUOUS
 62
     1
 10
784.189618185
 20
801.672417316
 30
0.0
 11
766.810381815
 21
803.327582684
 31
0.0
  0
ARC
  8
0
  6
CONTINUOUS
 62
     1
 10
767.0
 20
805.318573629
 30
0.0
 40
2.0
 50
180.0
 51
264.559667969
  0
LINE
  8
0
  6
CONTINUOUS
 62
     1
 10
765.0
 20
854.000001907
 30
0.0
 11
765.0
 21
731.000004672
 31
0.0
  0
ARC
  8
0
  6
CONTINUOUS
 62
     1
 10
538.0
 20
870.5
 30
0.0
 40
2.0
 50
0.0
 51
90.0
  0
LINE
  8
0
  6
CONTINUOUS
 62
     1
 10
540.0
 20
870.5
 30
0.0
 11
540.0
 21
714.5
 31
0.0
  0
LINE
  8
0
  6
CONTINUOUS
 62
     1
 10
545.4999
 20
844.120720777
 30
0.0
 11
544.440300598
 21
845.956000777
 31
0.0
  0
LINE
  8
0
  6
CONTINUOUS
 62
     1
 10
545.4999
 20
838.461940777
 30
0.0
 11
545.4999
 21
844.120720777
 31
0.0
  0
LINE
  8
0
  6
CONTINUOUS
 62
     1
 10
545.4999
 20
832.803160777
 30
0.0
 11
544.440300598
 21
830.967880777
 31
0.0
  0
LINE
  8
0
  6
CONTINUOUS
 62
     1
 10
545.4999
 20
838.461940777
 30
0.0
 11
545.4999
 21
832.803160777
 31
0.0
  0
ARC
  8
0
  6
CONTINUOUS
 62
     1
 10
538.344844663
 20
838.461940777
 30
0.0
 40
7.155055337
 50
328.419912243
 51
31.580087757
  0
ARC
  8
0
  6
CONTINUOUS
 62
     1
 10
543.314476233
 20
844.082485777
 30
0.0
 40
2.185758211
 50
301.002313915
 51
2.989498403
  0
LINE
  8
0
  6
CONTINUOUS
 62
     1
 10
545.4999
 20
832.803160777
 30
0.0
 11
544.440300598
 21
830.967880777
 31
0.0
  0
ARC
  8
0
  6
CONTINUOUS
 62
     1
 10
543.314476233
 20
832.841395777
 30
0.0
 40
2.185758211
 50
357.010501597
 51
58.997686085
  0
LINE
  8
0
  6
CONTINUOUS
 62
     1
 10
540.0
 20
845.956000777
 30
0.0
 11
544.440300598
 21
845.956000777
 31
0.0
  0
LINE
  8
0
  6
CONTINUOUS
 62
     1
 10
540.0
 20
842.208970777
 30
0.0
 11
544.440300598
 21
842.208970777
 31
0.0
  0
LINE
  8
0
  6
CONTINUOUS
 62
     1
 10
540.0
 20
834.714910777
 30
0.0
 11
544.440300598
 21
834.714910777
 31
0.0
  0
LINE
  8
0
  6
CONTINUOUS
 62
     1
 10
540.0
 20
830.967880777
 30
0.0
 11
544.440300598
 21
830.967880777
 31
0.0
  0
LINE
  8
0
  6
LTYPE3
 62
     2
 10
535.0
 20
838.461940777
 30
0.0
 11
549.8
 21
838.461940777
 31
0.0
  0
LINE
  8
0
  6
LTYPE3
 62
     2
 10
609.0
 20
849.5
 30
0.0
 11
609.0
 21
924.5
 31
0.0
  0
LINE
  8
0
  6
LTYPE3
 62
     2
 10
778.5
 20
835.5
 30
0.0
 11
791.7
 21
835.5
 31
0.0
  0
LINE
  8
0
  6
CONTINUOUS
 62
     1
 10
766.810381815
 20
740.672417316
 30
0.0
 11
784.189618185
 21
742.327582684
 31
0.0
  0
LINE
  8
0
  6
LTYPE3
 62
     2
 10
778.5
 20
749.5
 30
0.0
 11
791.7
 21
749.5
 31
0.0
  0
ARC
  8
0
  6
CONTINUOUS
 62
     1
 10
767.0
 20
738.681426371
 30
0.0
 40
2.0
 50
95.440332031
 51
180.0
  0
LINE
  8
0
  6
CONTINUOUS
 62
     1
 10
786.0
 20
840.681426371
 30
0.0
 11
786.0
 21
744.88812
 31
0.0
  0
ARC
  8
0
  6
CONTINUOUS
 62
     1
 10
784.0
 20
830.681426371
 30
0.0
 40
2.0
 50
0.0
 51
84.559667969
  0
ARC
  8
0
  6
CONTINUOUS
 62
     1
 10
784.0
 20
840.681426371
 30
0.0
 40
2.0
 50
0.0
 51
84.559667969
  0
LINE
  8
0
  6
CONTINUOUS
 62
     1
 10
789.5002
 20
838.98244
 30
0.0
 11
788.848117512
 21
840.11188
 31
0.0
  0
LINE
  8
0
  6
CONTINUOUS
 62
     1
 10
789.5002
 20
832.01756
 30
0.0
 11
788.848117512
 21
830.88812
 31
0.0
  0
ARC
  8
0
  6
CONTINUOUS
 62
     1
 10
785.096945074
 20
835.5
 30
0.0
 40
4.403254926
 50
328.419912243
 51
31.580087757
  0
ARC
  8
0
  6
CONTINUOUS
 62
     1
 10
788.155279868
 20
838.95891
 30
0.0
 40
1.34512595
 50
301.002313915
 51
2.989498403
  0
LINE
  8
0
  6
CONTINUOUS
 62
     1
 10
789.5002
 20
832.01756
 30
0.0
 11
788.848117512
 21
830.88812
 31
0.0
  0
ARC
  8
0
  6
CONTINUOUS
 62
     1
 10
788.155279868
 20
832.04109
 30
0.0
 40
1.34512595
 50
357.010501597
 51
58.997686085
  0
LINE
  8
0
  6
CONTINUOUS
 62
     1
 10
786.0
 20
840.11188
 30
0.0
 11
788.848117512
 21
840.11188
 31
0.0
  0
LINE
  8
0
  6
CONTINUOUS
 62
     1
 10
786.0
 20
837.80594
 30
0.0
 11
788.848117512
 21
837.80594
 31
0.0
  0
LINE
  8
0
  6
CONTINUOUS
 62
     1
 10
786.0
 20
833.19406
 30
0.0
 11
788.848117512
 21
833.19406
 31
0.0
  0
LINE
  8
0
  6
CONTINUOUS
 62
     1
 10
786.0
 20
830.88812
 30
0.0
 11
788.848117512
 21
830.88812
 31
0.0
  0
LINE
  8
0
  6
CONTINUOUS
 62
     1
 10
789.5002
 20
838.98244
 30
0.0
 11
789.5002
 21
832.01756
 31
0.0
  0
LINE
  8
0
  6
CONTINUOUS
 62
     1
 10
807.0
 20
796.852902
 30
0.0
 11
806.184924603
 21
798.264654
 31
0.0
  0
LINE
  8
0
  6
CONTINUOUS
 62
     1
 10
807.0
 20
788.147098
 30
0.0
 11
806.184924603
 21
786.735346
 31
0.0
  0
ARC
  8
0
  6
CONTINUOUS
 62
     1
 10
801.496118477
 20
792.5
 30
0.0
 40
5.503881523
 50
328.419912243
 51
31.580087757
  0
ARC
  8
0
  6
CONTINUOUS
 62
     1
 10
805.318906993
 20
796.8234905
 30
0.0
 40
1.681350271
 50
301.002313915
 51
2.989498403
  0
LINE
  8
0
  6
CONTINUOUS
 62
     1
 10
807.0
 20
788.147098
 30
0.0
 11
806.184924603
 21
786.735346
 31
0.0
  0
ARC
  8
0
  6
CONTINUOUS
 62
     1
 10
805.318906993
 20
788.1765095
 30
0.0
 40
1.681350271
 50
357.010501597
 51
58.997686085
  0
LINE
  8
0
  6
CONTINUOUS
 62
     1
 10
803.00039
 20
795.382327
 30
0.0
 11
806.184924603
 21
795.382327
 31
0.0
  0
LINE
  8
0
  6
CONTINUOUS
 62
     1
 10
803.00039
 20
798.264654
 30
0.0
 11
806.184924603
 21
798.264654
 31
0.0
  0
LINE
  8
0
  6
CONTINUOUS
 62
     1
 10
803.00039
 20
789.617673
 30
0.0
 11
806.184924603
 21
789.617673
 31
0.0
  0
LINE
  8
0
  6
CONTINUOUS
 62
     1
 10
803.00039
 20
786.735346
 30
0.0
 11
806.184924603
 21
786.735346
 31
0.0
  0
LINE
  8
0
  6
CONTINUOUS
 62
     1
 10
807.0
 20
788.147098
 30
0.0
 11
807.0
 21
796.852902
 31
0.0
  0
LINE
  8
0
  6
CONTINUOUS
 62
     1
 10
803.00039
 20
799.0
 30
0.0
 11
802.0
 21
799.0
 31
0.0
  0
LINE
  8
0
  6
CONTINUOUS
 62
     1
 10
803.00039
 20
799.0
 30
0.0
 11
803.00039
 21
786.0
 31
0.0
  0
LINE
  8
0
  6
CONTINUOUS
 62
     1
 10
803.00039
 20
786.0
 30
0.0
 11
802.0
 21
786.0
 31
0.0
  0
ARC
  8
0
  6
CONTINUOUS
 62
     1
 10
784.0
 20
754.318573629
 30
0.0
 40
2.0
 50
275.440332031
 51
0.0
  0
LINE
  8
0
  6
CONTINUOUS
 62
     1
 10
789.5002
 20
746.01756
 30
0.0
 11
788.848117512
 21
744.88812
 31
0.0
  0
LINE
  8
0
  6
CONTINUOUS
 62
     1
 10
789.5002
 20
752.98244
 30
0.0
 11
788.848117512
 21
754.11188
 31
0.0
  0
ARC
  8
0
  6
CONTINUOUS
 62
     1
 10
785.096945074
 20
749.5
 30
0.0
 40
4.403254926
 50
328.419912243
 51
31.580087757
  0
ARC
  8
0
  6
CONTINUOUS
 62
     1
 10
788.155279868
 20
746.04109
 30
0.0
 40
1.34512595
 50
357.010501597
 51
58.997686085
  0
LINE
  8
0
  6
CONTINUOUS
 62
     1
 10
789.5002
 20
752.98244
 30
0.0
 11
788.848117512
 21
754.11188
 31
0.0
  0
ARC
  8
0
  6
CONTINUOUS
 62
     1
 10
788.155279868
 20
752.95891
 30
0.0
 40
1.34512595
 50
301.002313915
 51
2.989498403
  0
LINE
  8
0
  6
CONTINUOUS
 62
     1
 10
786.0
 20
744.88812
 30
0.0
 11
788.848117512
 21
744.88812
 31
0.0
  0
LINE
  8
0
  6
CONTINUOUS
 62
     1
 10
786.0
 20
747.19406
 30
0.0
 11
788.848117512
 21
747.19406
 31
0.0
  0
LINE
  8
0
  6
CONTINUOUS
 62
     1
 10
786.0
 20
751.80594
 30
0.0
 11
788.848117512
 21
751.80594
 31
0.0
  0
LINE
  8
0
  6
CONTINUOUS
 62
     1
 10
786.0
 20
754.11188
 30
0.0
 11
788.848117512
 21
754.11188
 31
0.0
  0
LINE
  8
0
  6
CONTINUOUS
 62
     1
 10
789.5002
 20
746.01756
 30
0.0
 11
789.5002
 21
752.98244
 31
0.0
  0
ARC
  8
0
  6
CONTINUOUS
 62
     1
 10
784.0
 20
744.318573629
 30
0.0
 40
2.0
 50
275.440332031
 51
0.0
  0
LINE
  8
0
  6
LTYPE1
 62
     1
 10
794.1
 20
807.0
 30
0.0
 11
786.0
 21
797.8
 31
0.0
  0
ARC
  8
0
  6
LTYPE1
 62
     1
 10
797.5
 20
804.0
 30
0.0
 40
4.5
 50
290.9
 51
137.7
  0
LINE
  8
0
  6
LTYPE1
 62
     1
 10
792.0
 20
797.0
 30
0.0
 11
786.0
 21
797.8
 31
0.0
  0
LINE
  8
0
  6
LTYPE1
 62
     1
 10
799.1
 20
799.8
 30
0.0
 11
792.0
 21
797.0
 31
0.0
  0
LINE
  8
0
  6
LTYPE1
 62
     1
 10
792.0
 20
788.0
 30
0.0
 11
786.0
 21
787.2
 31
0.0
  0
ARC
  8
0
  6
LTYPE1
 62
     1
 10
797.5
 20
781.0
 30
0.0
 40
4.5
 50
222.3
 51
69.1
  0
LINE
  8
0
  6
LTYPE1
 62
     1
 10
794.1
 20
778.0
 30
0.0
 11
786.0
 21
787.2
 31
0.0
  0
LINE
  8
0
  6
LTYPE1
 62
     1
 10
799.1
 20
785.2
 30
0.0
 11
792.0
 21
788.0
 31
0.0
  0
LINE
  8
0
  6
LTYPE1
 62
     1
 10
792.0
 20
797.0
 30
0.0
 11
792.0
 21
788.0
 31
0.0
  0
LINE
  8
0
  6
CONTINUOUS
 62
     1
 10
545.4999
 20
740.879279223
 30
0.0
 11
544.440300598
 21
739.043999223
 31
0.0
  0
LINE
  8
0
  6
CONTINUOUS
 62
     1
 10
545.4999
 20
746.538059223
 30
0.0
 11
545.4999
 21
740.879279223
 31
0.0
  0
LINE
  8
0
  6
CONTINUOUS
 62
     1
 10
545.4999
 20
752.196839223
 30
0.0
 11
544.440300598
 21
754.032119223
 31
0.0
  0
LINE
  8
0
  6
CONTINUOUS
 62
     1
 10
545.4999
 20
746.538059223
 30
0.0
 11
545.4999
 21
752.196839223
 31
0.0
  0
ARC
  8
0
  6
CONTINUOUS
 62
     1
 10
538.344844663
 20
746.538059223
 30
0.0
 40
7.155055337
 50
328.419912243
 51
31.580087757
  0
ARC
  8
0
  6
CONTINUOUS
 62
     1
 10
543.314476233
 20
740.917514223
 30
0.0
 40
2.185758211
 50
357.010501597
 51
58.997686085
  0
LINE
  8
0
  6
CONTINUOUS
 62
     1
 10
545.4999
 20
752.196839223
 30
0.0
 11
544.440300598
 21
754.032119223
 31
0.0
  0
ARC
  8
0
  6
CONTINUOUS
 62
     1
 10
543.314476233
 20
752.158604223
 30
0.0
 40
2.185758211
 50
301.002313915
 51
2.989498403
  0
LINE
  8
0
  6
CONTINUOUS
 62
     1
 10
540.0
 20
739.043999223
 30
0.0
 11
544.440300598
 21
739.043999223
 31
0.0
  0
LINE
  8
0
  6
CONTINUOUS
 62
     1
 10
540.0
 20
742.791029223
 30
0.0
 11
544.440300598
 21
742.791029223
 31
0.0
  0
LINE
  8
0
  6
CONTINUOUS
 62
     1
 10
540.0
 20
750.285089223
 30
0.0
 11
544.440300598
 21
750.285089223
 31
0.0
  0
LINE
  8
0
  6
CONTINUOUS
 62
     1
 10
540.0
 20
754.032119223
 30
0.0
 11
544.440300598
 21
754.032119223
 31
0.0
  0
LINE
  8
0
  6
LTYPE3
 62
     2
 10
535.0
 20
746.538059223
 30
0.0
 11
549.8
 21
746.538059223
 31
0.0
  0
LINE
  8
0
  6
CONTINUOUS
 62
     2
 10
675.05
 20
892.5
 30
0.0
 11
686.118811641
 21
898.307874727
 31
0.0
  0
LINE
  8
0
  6
CONTINUOUS
 62
     2
 10
675.05
 20
892.5
 30
0.0
 11
681.731934708
 21
903.064172876
 31
0.0
  0
LINE
  8
0
  6
CONTINUOUS
 62
     2
 10
675.05
 20
892.5
 30
0.0
 11
705.008113477
 21
920.131269711
 31
0.0
  0
LINE
  8
0
  6
CONTINUOUS
 62
     2
 10
705.008113477
 20
920.131269711
 30
0.0
 11
778.508113477
 21
920.131269711
 31
0.0
  0
LINE
  8
2
  6
CONTINUOUS
 62
     2
 10
800.2
 20
813.0
 30
0.0
 11
808.793379441
 21
822.077655522
 31
0.0
  0
LINE
  8
2
  6
CONTINUOUS
 62
     2
 10
800.2
 20
813.0
 30
0.0
 11
803.10325714
 21
825.15817001
 31
0.0
  0
LINE
  8
2
  6
CONTINUOUS
 62
     2
 10
800.2
 20
813.0
 30
0.0
 11
878.7
 21
958.0
 31
0.0
  0
ARC
  8
0
  6
CONTINUOUS
 62
     1
 10
538.0
 20
714.5
 30
0.0
 40
2.0
 50
270.0
 51
0.0
  0
LINE
  8
0
  6
CONTINUOUS
 62
     1
 10
538.0
 20
712.5
 30
0.0
 11
530.0
 21
712.5
 31
0.0
  0
LINE
  8
0
  6
CONTINUOUS
 62
     1
 10
425.0
 20
775.5
 30
0.0
 11
425.0
 21
809.5
 31
0.0
  0
LINE
  8
0
  6
CONTINUOUS
 62
     1
 10
455.0
 20
775.5
 30
0.0
 11
455.0
 21
809.5
 31
0.0
  0
LINE
  8
0
  6
CONTINUOUS
 62
     1
 10
459.0
 20
809.5
 30
0.0
 11
425.0
 21
809.5
 31
0.0
  0
LINE
  8
0
  6
CONTINUOUS
 62
     1
 10
459.0
 20
775.5
 30
0.0
 11
425.0
 21
775.5
 31
0.0
  0
LINE
  8
0
  6
CONTINUOUS
 62
     1
 10
459.0
 20
774.0
 30
0.0
 11
444.0
 21
774.0
 31
0.0
  0
LINE
  8
0
  6
CONTINUOUS
 62
     1
 10
444.0
 20
765.0
 30
0.0
 11
444.0
 21
757.50594
 31
0.0
  0
LINE
  8
0
  6
CONTINUOUS
 62
     1
 10
444.0
 20
765.0
 30
0.0
 11
444.0
 21
772.49406
 31
0.0
  0
LINE
  8
0
  6
CONTINUOUS
 62
     1
 10
438.5001
 20
759.34122
 30
0.0
 11
439.559699402
 21
757.50594
 31
0.0
  0
LINE
  8
0
  6
CONTINUOUS
 62
     1
 10
438.5001
 20
765.0
 30
0.0
 11
438.5001
 21
759.34122
 31
0.0
  0
LINE
  8
0
  6
CONTINUOUS
 62
     1
 10
438.5001
 20
770.65878
 30
0.0
 11
439.559699402
 21
772.49406
 31
0.0
  0
LINE
  8
0
  6
CONTINUOUS
 62
     1
 10
438.5001
 20
765.0
 30
0.0
 11
438.5001
 21
770.65878
 31
0.0
  0
ARC
  8
0
  6
CONTINUOUS
 62
     1
 10
445.655155337
 20
765.0
 30
0.0
 40
7.155055337
 50
148.419912243
 51
211.580087757
  0
ARC
  8
0
  6
CONTINUOUS
 62
     1
 10
440.685523767
 20
759.379455
 30
0.0
 40
2.185758211
 50
121.002313915
 51
182.989498403
  0
LINE
  8
0
  6
CONTINUOUS
 62
     1
 10
438.5001
 20
770.65878
 30
0.0
 11
439.559699402
 21
772.49406
 31
0.0
  0
ARC
  8
0
  6
CONTINUOUS
 62
     1
 10
440.685523767
 20
770.620545
 30
0.0
 40
2.185758211
 50
177.010501597
 51
238.997686085
  0
LINE
  8
0
  6
CONTINUOUS
 62
     1
 10
444.0
 20
757.50594
 30
0.0
 11
439.559699402
 21
757.50594
 31
0.0
  0
LINE
  8
0
  6
CONTINUOUS
 62
     1
 10
444.0
 20
761.25297
 30
0.0
 11
439.559699402
 21
761.25297
 31
0.0
  0
LINE
  8
0
  6
CONTINUOUS
 62
     1
 10
444.0
 20
768.74703
 30
0.0
 11
439.559699402
 21
768.74703
 31
0.0
  0
LINE
  8
0
  6
CONTINUOUS
 62
     1
 10
444.0
 20
772.49406
 30
0.0
 11
439.559699402
 21
772.49406
 31
0.0
  0
LINE
  8
0
  6
CONTINUOUS
 62
     1
 10
487.0
 20
835.5
 30
0.0
 11
459.0
 21
835.5
 31
0.0
  0
ARC
  8
0
  6
CONTINUOUS
 62
     1
 10
487.0
 20
841.5
 30
0.0
 40
6.0
 50
270.0
 51
360.0
  0
LINE
  8
0
  6
LTYPE2
 62
     2
 10
474.6
 20
765.0
 30
0.0
 11
435.3
 21
765.0
 31
0.0
  0
LINE
  8
0
  6
CONTINUOUS
 62
     2
 10
449.5
 20
809.3
 30
0.0
 11
448.019645058
 21
821.712032438
 31
0.0
  0
LINE
  8
0
  6
CONTINUOUS
 62
     2
 10
449.5
 20
809.3
 30
0.0
 11
442.011958794
 21
819.308957933
 31
0.0
  0
LINE
  8
0
  6
CONTINUOUS
 62
     2
 10
425.0
 20
817.0
 30
0.0
 11
425.0
 21
1013.4
 31
0.0
  0
LINE
  8
0
  6
CONTINUOUS
 62
     2
 10
425.0
 20
1005.9
 30
0.0
 11
437.074072829
 21
1002.664761936
 31
0.0
  0
LINE
  8
0
  6
CONTINUOUS
 62
     2
 10
425.0
 20
1005.9
 30
0.0
 11
437.074072829
 21
1009.135238064
 31
0.0
  0
LINE
  8
0
  6
CONTINUOUS
 62
     2
 10
425.0
 20
1005.9
 30
0.0
 11
530.0
 21
1005.9
 31
0.0
  0
LINE
  8
0
  6
CONTINUOUS
 62
     2
 10
530.0
 20
1005.9
 30
0.0
 11
517.925927171
 21
1009.135238064
 31
0.0
  0
LINE
  8
0
  6
CONTINUOUS
 62
     2
 10
530.0
 20
1005.9
 30
0.0
 11
517.925927171
 21
1002.664761936
 31
0.0
  0
LINE
  8
0
  6
CONTINUOUS
 62
     2
 10
409.58
 20
909.1
 30
0.0
 11
328.6
 21
909.1
 31
0.0
  0
LINE
  8
0
  6
CONTINUOUS
 62
     2
 10
449.5
 20
809.3
 30
0.0
 11
409.58
 21
909.1
 31
0.0
  0
LINE
  8
0
  6
CONTINUOUS
 62
     1
 10
459.0
 20
580.0
 30
0.0
 11
459.0
 21
835.5
 31
0.0
  0
LINE
  8
0
  6
CONTINUOUS
 62
     1
 10
444.0
 20
580.0
 30
0.0
 11
444.0
 21
774.0
 31
0.0
  0
LINE
  8
0
  6
LTYPE2
 62
     2
 10
793.5
 20
657.5
 30
0.0
 11
418.9
 21
657.5
 31
0.0
  0
LINE
  8
0
  6
LTYPE2
 62
     2
 10
1239.283472275
 20
657.5
 30
0.0
 11
828.5
 21
657.5
 31
0.0
  0
LINE
  8
0
  6
CONTINUOUS
 62
     2
 10
530.0
 20
1005.9
 30
0.0
 11
542.074072829
 21
1002.664761936
 31
0.0
  0
LINE
  8
0
  6
CONTINUOUS
 62
     2
 10
530.0
 20
1005.9
 30
0.0
 11
542.074072829
 21
1009.135238064
 31
0.0
  0
LINE
  8
0
  6
CONTINUOUS
 62
     2
 10
806.99181787
 20
1005.9
 30
0.0
 11
794.917745041
 21
1009.135238064
 31
0.0
  0
LINE
  8
0
  6
CONTINUOUS
 62
     2
 10
806.99181787
 20
1005.9
 30
0.0
 11
794.917745041
 21
1002.664761936
 31
0.0
  0
LINE
  8
0
  6
CONTINUOUS
 62
     2
 10
530.0
 20
1005.9
 30
0.0
 11
806.99181787
 21
1005.9
 31
0.0
  0
LINE
  8
0
  6
CONTINUOUS
 62
     2
 10
806.99181787
 20
806.4
 30
0.0
 11
806.99181787
 21
1013.4
 31
0.0
  0
LINE
  8
0
  6
LTYPE2
 62
     2
 10
817.0
 20
792.5
 30
0.0
 11
415.6
 21
792.5
 31
0.0
  0
LINE
  8
0
  6
CONTINUOUS
 62
     1
 10
1049.183009455
 20
692.5
 30
0.0
 11
721.0
 21
692.5
 31
0.0
  0
LINE
  8
0
  6
CONTINUOUS
 62
     1
 10
1049.183009455
 20
622.5
 30
0.0
 11
721.0
 21
622.5
 31
0.0
  0
TEXT
  8
0
  6
CONTINUOUS
 62
     2
 10
813.5
 20
635.75
 30
0.0
 40
18.0
  1
φ７０
 50
90.0
 41
0.9
 51
0.0
  7
KANJI22
  0
TEXT
  8
0
  6
CONTINUOUS
 62
     2
 10
784.0
 20
527.0
 30
0.0
 40
18.0
  1
ＰＦ１／２
 50
0.0
 41
0.9
 51
0.0
  7
KANJI22
  0
TEXT
  8
0
  6
CONTINUOUS
 62
     2
 10
472.75
 20
412.3625
 30
0.0
 40
18.0
  1
８６
 50
0.0
 41
0.9
 51
0.0
  7
KANJI22
  0
TEXT
  8
0
  6
CONTINUOUS
 62
     2
 10
545.75
 20
412.3625
 30
0.0
 40
18.0
  1
６０
 50
0.0
 41
0.9
 51
0.0
  7
KANJI22
  0
TEXT
  8
0
  6
CONTINUOUS
 62
     2
 10
788.25
 20
368.0
 30
0.0
 40
18.0
  1
ｍｉｎ．ＡＬ
 50
0.0
 41
0.9
 51
0.0
  7
KANJI22
  0
TEXT
  8
0
  6
CONTINUOUS
 62
     2
 10
846.25
 20
455.7
 30
0.0
 40
18.0
  1
Ｃ
 50
0.0
 41
0.9
 51
0.0
  7
KANJI22
  0
TEXT
  8
0
  6
CONTINUOUS
 62
     2
 10
703.8
 20
470.7
 30
0.0
 40
18.0
  1
推力リミッタ
 50
0.0
 41
0.9
 51
0.0
  7
KANJI22
  0
TEXT
  8
0
  6
CONTINUOUS
 62
     2
 10
705.008113477
 20
925.131269711
 30
0.0
 40
18.0
  1
ＰＦ３／４
 50
0.0
 41
0.9
 51
0.0
  7
KANJI22
  0
TEXT
  8
0
  6
CONTINUOUS
 62
     2
 10
455.75
 20
1010.9
 30
0.0
 40
18.0
  1
１１３
 50
0.0
 41
0.9
 51
0.0
  7
KANJI22
  0
TEXT
  8
0
  6
CONTINUOUS
 62
     2
 10
328.6
 20
914.1
 30
0.0
 40
18.0
  1
手動軸カバー
 50
0.0
 41
0.9
 51
0.0
  7
KANJI22
  0
TEXT
  8
0
  6
CONTINUOUS
 62
     2
 10
628.75
 20
1010.9
 30
0.0
 40
18.0
  1
２７７
 50
0.0
 41
0.9
 51
0.0
  7
KANJI22
  0
TEXT
  8
0
  6
CONTINUOUS
 62
     2
 10
587.540009455
 20
769.5
 30
0.0
 40
18.0
  1
日本電産
 50
0.0
 41
0.9
 51
0.0
  7
KANJI22
  0
TEXT
  8
0
  6
CONTINUOUS
 62
     2
 10
587.540009455
 20
746.5
 30
0.0
 40
18.0
  1
エコノストップモータ
 50
0.0
 41
0.9
 51
0.0
  7
KANJI22
  0
LINE
  8
0
  6
CONTINUOUS
 62
     2
 10
849.240009455
 20
856.3
 30
0.0
 11
846.004771391
 21
844.225927171
 31
0.0
  0
LINE
  8
0
  6
CONTINUOUS
 62
     2
 10
849.240009455
 20
856.3
 30
0.0
 11
852.475247519
 21
844.225927171
 31
0.0
  0
LINE
  8
0
  6
CONTINUOUS
 62
     2
 10
849.240009455
 20
856.3
 30
0.0
 11
849.240009455
 21
729.3
 31
0.0
  0
LINE
  8
0
  6
CONTINUOUS
 62
     2
 10
849.240009455
 20
729.3
 30
0.0
 11
852.475247519
 21
741.374072829
 31
0.0
  0
LINE
  8
0
  6
CONTINUOUS
 62
     2
 10
849.240009455
 20
729.3
 30
0.0
 11
846.004771391
 21
741.374072829
 31
0.0
  0
TEXT
  8
0
  6
CONTINUOUS
 62
     2
 10
844.240009455
 20
765.05
 30
0.0
 40
18.0
  1
φ１２７
 50
90.0
 41
0.9
 51
0.0
  7
KANJI22
  0
LINE
  8
0
  6
CONTINUOUS
 62
     2
 10
769.0
 20
856.3
 30
0.0
 11
860.1
 21
856.3
 31
0.0
  0
LINE
  8
0
  6
CONTINUOUS
 62
     2
 10
769.0
 20
729.3
 30
0.0
 11
860.1
 21
729.3
 31
0.0
  0
LINE
  8
0
  6
CONTINUOUS
 62
     2
 10
700.292647059
 20
464.2
 30
0.0
 11
802.0
 21
464.2
 31
0.0
  0
LINE
  8
0
  6
CONTINUOUS
 62
     1
 10
644.3
 20
546.5
 30
0.0
 11
633.7
 21
546.5
 31
0.0
  0
ARC
  8
0
  6
CONTINUOUS
 62
     1
 10
639.4
 20
547.5
 30
0.0
 40
5.0
 50
272.3
 51
348.5
  0
ARC
  8
0
  6
CONTINUOUS
 62
     1
 10
638.6
 20
547.5
 30
0.0
 40
5.0
 50
191.5
 51
267.7
  0
LINE
  8
0
  6
CONTINUOUS
 62
     1
 10
639.6
 20
542.5
 30
0.0
 11
638.4
 21
542.5
 31
0.0
  0
LINE
  8
0
  6
LTYPE4
 62
     2
 10
639.0
 20
539.1
 30
0.0
 11
639.0
 21
552.5
 31
0.0
  0
LINE
  8
0
  6
CONTINUOUS
 62
     1
 10
754.3
 20
546.5
 30
0.0
 11
743.7
 21
546.5
 31
0.0
  0
ARC
  8
0
  6
CONTINUOUS
 62
     1
 10
749.4
 20
547.5
 30
0.0
 40
5.0
 50
272.3
 51
348.5
  0
ARC
  8
0
  6
CONTINUOUS
 62
     1
 10
748.6
 20
547.5
 30
0.0
 40
5.0
 50
191.5
 51
267.7
  0
LINE
  8
0
  6
CONTINUOUS
 62
     1
 10
749.6
 20
542.5
 30
0.0
 11
748.4
 21
542.5
 31
0.0
  0
LINE
  8
0
  6
LTYPE4
 62
     2
 10
749.0
 20
539.1
 30
0.0
 11
749.0
 21
552.5
 31
0.0
  0
LINE
  8
0
  6
LTYPE3
 62
     6
 10
239.708333
 20
1095.133317
 30
0.0
 11
239.708333
 21
1078.732460936
 31
0.0
  0
LINE
  8
0
  6
LTYPE3
 62
     6
 10
370.105262694
 20
1095.133317
 30
0.0
 11
239.708333
 21
1095.133317
 31
0.0
  0
TEXT
  8
0
  6
CONTINUOUS
 62
     6
 10
222.173590591
 20
1081.648168681
 30
1.093390404
 40
10.933904043
  1
Ｕ
 50
0.0
 41
0.9
 51
0.0
  7
KANJI23
  0
CIRCLE
  8
0
  6
CONTINUOUS
 62
     6
 10
239.708333
 20
1075.452289723
 30
0.0
 40
4.373561617
  0
LINE
  8
0
  6
CONTINUOUS
 62
     6
 10
234.68354931
 20
1070.427506033
 30
0.0
 11
244.888526417
 21
1080.63248314
 31
0.0
  0
TEXT
  8
0
  6
CONTINUOUS
 62
     6
 10
249.953806047
 20
1103.799448352
 30
1.518597784
 40
15.185977837
  1
エコノストップモータ
 50
0.0
 41
0.66671875
 51
0.0
  7
KANJI24
  0
CIRCLE
  8
0
  6
CONTINUOUS
 62
     6
 10
284.537339575
 20
1049.939846957
 30
0.0
 40
18.223173404
  0
TEXT
  8
0
  6
CONTINUOUS
 62
     6
 10
276.883606745
 20
1041.192723723
 30
1.82231734
 40
18.223173404
  1
Ｍ
 50
0.0
 41
0.9
 51
0.0
  7
KANJI25
  0
LINE
  8
0
  6
CONTINUOUS
 62
     6
 10
260.482750681
 20
1024.427404191
 30
0.0
 11
271.781118192
 21
1037.548089042
 31
0.0
  0
LINE
  8
0
  6
CONTINUOUS
 62
     6
 10
260.482750681
 20
1075.452289723
 30
0.0
 11
271.781118192
 21
1062.331604872
 31
0.0
  0
LINE
  8
0
  6
CONTINUOUS
 62
     6
 10
260.482750681
 20
1075.452289723
 30
0.0
 11
244.081894617
 21
1075.452289723
 31
0.0
  0
LINE
  8
0
  6
CONTINUOUS
 62
     6
 10
266.678629639
 20
1049.939846957
 30
0.0
 11
244.081894617
 21
1049.939846957
 31
0.0
  0
LINE
  8
0
  6
CONTINUOUS
 62
     6
 10
260.482750681
 20
1024.427404191
 30
0.0
 11
244.081894617
 21
1024.427404191
 31
0.0
  0
TEXT
  8
0
  6
CONTINUOUS
 62
     6
 10
223.266980995
 20
1055.771262446
 30
1.093390404
 40
10.933904043
  1
Ｖ
 50
0.0
 41
0.9
 51
0.0
  7
KANJI23
  0
TEXT
  8
0
  6
CONTINUOUS
 62
     6
 10
224.360371399
 20
1029.894356212
 30
1.093390404
 40
10.933904043
  1
Ｗ
 50
0.0
 41
0.9
 51
0.0
  7
KANJI23
  0
CIRCLE
  8
0
  6
CONTINUOUS
 62
     6
 10
239.708333
 20
1049.939846957
 30
0.0
 40
4.373561617
  0
LINE
  8
0
  6
CONTINUOUS
 62
     6
 10
234.68354931
 20
1044.915063267
 30
0.0
 11
244.888526417
 21
1055.120040374
 31
0.0
  0
LINE
  8
0
  6
LTYPE3
 62
     6
 10
239.708333
 20
1071.443191574
 30
0.0
 11
239.708333
 21
1053.22001817
 31
0.0
  0
CIRCLE
  8
0
  6
CONTINUOUS
 62
     6
 10
239.708333
 20
1024.427404191
 30
0.0
 40
4.373561617
  0
LINE
  8
0
  6
CONTINUOUS
 62
     6
 10
234.68354931
 20
1019.402620501
 30
0.0
 11
244.888526417
 21
1029.607597607
 31
0.0
  0
LINE
  8
0
  6
LTYPE3
 62
     6
 10
239.708333
 20
1045.930748808
 30
0.0
 11
239.708333
 21
1028.800965808
 31
0.0
  0
LINE
  8
0
  6
LTYPE3
 62
     6
 10
239.708333
 20
1020.053842574
 30
0.0
 11
239.708333
 21
999.721584891
 31
0.0
  0
TEXT
  8
0
  6
CONTINUOUS
 62
     6
 10
310.778709277
 20
1041.684749405
 30
1.457853872
 40
14.578538724
  1
Ｂ
 50
0.0
 41
0.9
 51
0.0
  7
KANJI26
  0
CIRCLE
  8
0
  6
CONTINUOUS
 62
     6
 10
317.339051703
 20
1049.939846957
 30
0.0
 40
14.578538724
  0
LINE
  8
0
  6
LTYPE3
 62
     6
 10
370.105262694
 20
999.721584891
 30
0.0
 11
239.708333
 21
999.721584891
 31
0.0
  0
LINE
  8
0
  6
LTYPE3
 62
     6
 10
370.105262694
 20
999.721584891
 30
0.0
 11
370.105262694
 21
1095.133317
 31
0.0
  0
TEXT
  8
0
  6
CONTINUOUS
 62
     2
 10
244.803726364
 20
974.512221811
 30
0.0
 40
15.6
  1
モーター結線図
 50
0.0
 41
0.925
 51
0.0
  7
KANJI27
  0
LINE
  8
0
  6
CONTINUOUS
 62
     1
 10
522.5
 20
732.5
 30
0.0
 11
522.5
 21
662.5
 31
0.0
  0
LINE
  8
0
  6
CONTINUOUS
 62
     1
 10
479.5
 20
732.5
 30
0.0
 11
479.5
 21
662.5
 31
0.0
  0
TEXT
  8
0
  6
CONTINUOUS
 62
     2
 10
484.5
 20
721.5
 30
5.0
 40
20.0
  1
銘板
 50
270.0
 41
0.925
 51
0.0
  7
KANJI28
  0
LINE
  8
0
  6
CONTINUOUS
 62
     1
 10
522.5
 20
732.5
 30
0.0
 11
479.5
 21
732.5
 31
0.0
  0
LINE
  8
0
  6
CONTINUOUS
 62
     1
 10
522.5
 20
662.5
 30
0.0
 11
479.5
 21
662.5
 31
0.0
  0
ARC
  8
0
  6
CONTINUOUS
 62
     2
 10
372.0
 20
792.0
 30
0.0
 40
20.0
 50
231.952957468
 51
156.801409486
  0
LINE
  8
0
  6
CONTINUOUS
 62
     2
 10
353.6170994
 20
799.878385972
 30
0.0
 11
355.91179211
 21
809.715824749
 31
0.0
  0
TEXT
  8
0
  6
CONTINUOUS
 62
     2
 10
291.6170994
 20
782.878385972
 30
0.0
 40
15.0
  1
前進方向
 50
0.0
 41
0.9
 51
0.0
  7
KANJI29
  0
LINE
  8
0
  6
CONTINUOUS
 62
     2
 10
353.6170994
 20
799.878385972
 30
0.0
 11
361.885260778
 21
804.785722507
 31
0.0
  0
LINE
  8
0
  6
CONTINUOUS
 62
     2
 10
555.003319123
 20
200.833311846
 30
0.0
 11
562.730725733
 21
198.762759485
 31
0.0
  0
LINE
  8
0
  6
CONTINUOUS
 62
     2
 10
555.003319123
 20
200.833311846
 30
0.0
 11
562.730725733
 21
202.903864207
 31
0.0
  0
LINE
  8
0
  6
CONTINUOUS
 62
     2
 10
555.003319123
 20
200.833311846
 30
0.0
 11
692.603319123
 21
200.833311846
 31
0.0
  0
LINE
  8
0
  6
CONTINUOUS
 62
     2
 10
692.603319123
 20
200.833311846
 30
0.0
 11
684.875912513
 21
202.903864207
 31
0.0
  0
LINE
  8
0
  6
CONTINUOUS
 62
     2
 10
692.603319123
 20
200.833311846
 30
0.0
 11
684.875912513
 21
198.762759485
 31
0.0
  0
LINE
  8
0
  6
CONTINUOUS
 62
     2
 10
692.603319123
 20
199.633311846
 30
0.0
 11
692.603319123
 21
196.833311846
 31
0.0
  0
LINE
  8
0
  6
CONTINUOUS
 62
     2
 10
692.603319123
 20
200.833311846
 30
0.0
 11
700.330725733
 21
198.762759485
 31
0.0
  0
LINE
  8
0
  6
CONTINUOUS
 62
     2
 10
692.603319123
 20
200.833311846
 30
0.0
 11
700.330725733
 21
202.903864207
 31
0.0
  0
LINE
  8
0
  6
CONTINUOUS
 62
     2
 10
692.603319123
 20
200.833311846
 30
0.0
 11
895.003319123
 21
200.833311846
 31
0.0
  0
LINE
  8
0
  6
CONTINUOUS
 62
     2
 10
895.003319123
 20
200.833311846
 30
0.0
 11
887.275912513
 21
202.903864207
 31
0.0
  0
LINE
  8
0
  6
CONTINUOUS
 62
     2
 10
895.003319123
 20
200.833311846
 30
0.0
 11
887.275912513
 21
198.762759485
 31
0.0
  0
LINE
  8
0
  6
CONTINUOUS
 62
     2
 10
692.603319123
 20
174.503864207
 30
0.0
 11
684.875912513
 21
176.574416568
 31
0.0
  0
LINE
  8
0
  6
CONTINUOUS
 62
     2
 10
692.603319123
 20
174.503864207
 30
0.0
 11
684.875912513
 21
172.433311846
 31
0.0
  0
LINE
  8
0
  6
CONTINUOUS
 62
     2
 10
680.603319123
 20
174.503864207
 30
0.0
 11
692.603319123
 21
174.503864207
 31
0.0
  0
LINE
  8
0
  6
CONTINUOUS
 62
     2
 10
692.603319123
 20
174.503864207
 30
0.0
 11
713.403319123
 21
174.503864207
 31
0.0
  0
LINE
  8
0
  6
CONTINUOUS
 62
     2
 10
713.403319123
 20
174.503864207
 30
0.0
 11
721.130725733
 21
172.433311846
 31
0.0
  0
LINE
  8
0
  6
CONTINUOUS
 62
     2
 10
713.403319123
 20
174.503864207
 30
0.0
 11
721.130725733
 21
176.574416568
 31
0.0
  0
LINE
  8
0
  6
CONTINUOUS
 62
     2
 10
555.003319123
 20
149.233311846
 30
0.0
 11
555.003319123
 21
143.233311846
 31
0.0
  0
LINE
  8
0
  6
CONTINUOUS
 62
     2
 10
555.003319123
 20
147.233311846
 30
0.0
 11
562.730725733
 21
145.162759485
 31
0.0
  0
LINE
  8
0
  6
CONTINUOUS
 62
     2
 10
555.003319123
 20
147.233311846
 30
0.0
 11
562.730725733
 21
149.303864207
 31
0.0
  0
LINE
  8
0
  6
CONTINUOUS
 62
     2
 10
555.003319123
 20
147.233311846
 30
0.0
 11
713.403319123
 21
147.233311846
 31
0.0
  0
LINE
  8
0
  6
CONTINUOUS
 62
     2
 10
713.403319123
 20
147.233311846
 30
0.0
 11
705.675912513
 21
149.303864207
 31
0.0
  0
LINE
  8
0
  6
CONTINUOUS
 62
     2
 10
713.403319123
 20
147.233311846
 30
0.0
 11
705.675912513
 21
145.162759485
 31
0.0
  0
LINE
  8
0
  6
CONTINUOUS
 62
     2
 10
713.403319123
 20
148.433311846
 30
0.0
 11
713.403319123
 21
143.233311846
 31
0.0
  0
LINE
  8
0
  6
CONTINUOUS
 62
     2
 10
713.403319123
 20
147.233311846
 30
0.0
 11
721.130725733
 21
145.162759485
 31
0.0
  0
LINE
  8
0
  6
CONTINUOUS
 62
     2
 10
713.403319123
 20
147.233311846
 30
0.0
 11
721.130725733
 21
149.303864207
 31
0.0
  0
LINE
  8
0
  6
CONTINUOUS
 62
     2
 10
895.003319123
 20
143.633311846
 30
0.0
 11
895.003319123
 21
143.233311846
 31
0.0
  0
LINE
  8
0
  6
CONTINUOUS
 62
     2
 10
555.003319123
 20
118.033311846
 30
0.0
 11
562.730725733
 21
115.962759485
 31
0.0
  0
LINE
  8
0
  6
CONTINUOUS
 62
     2
 10
555.003319123
 20
118.033311846
 30
0.0
 11
562.730725733
 21
120.103864207
 31
0.0
  0
LINE
  8
0
  6
CONTINUOUS
 62
     2
 10
555.003319123
 20
118.033311846
 30
0.0
 11
872.603319123
 21
118.033311846
 31
0.0
  0
LINE
  8
0
  6
CONTINUOUS
 62
     2
 10
872.603319123
 20
118.033311846
 30
0.0
 11
864.875912513
 21
120.103864207
 31
0.0
  0
LINE
  8
0
  6
CONTINUOUS
 62
     2
 10
872.603319123
 20
118.033311846
 30
0.0
 11
864.875912513
 21
115.962759485
 31
0.0
  0
LINE
  8
0
  6
CONTINUOUS
 62
     2
 10
872.603319123
 20
118.833311846
 30
0.0
 11
872.603319123
 21
114.033311846
 31
0.0
  0
LINE
  8
0
  6
CONTINUOUS
 62
     2
 10
872.603319123
 20
118.033311846
 30
0.0
 11
864.875912513
 21
120.103864207
 31
0.0
  0
LINE
  8
0
  6
CONTINUOUS
 62
     2
 10
872.603319123
 20
118.033311846
 30
0.0
 11
864.875912513
 21
115.962759485
 31
0.0
  0
LINE
  8
0
  6
CONTINUOUS
 62
     2
 10
860.603319123
 20
118.033311846
 30
0.0
 11
872.603319123
 21
118.033311846
 31
0.0
  0
LINE
  8
0
  6
CONTINUOUS
 62
     2
 10
872.603319123
 20
118.033311846
 30
0.0
 11
895.003319123
 21
118.033311846
 31
0.0
  0
LINE
  8
0
  6
CONTINUOUS
 62
     2
 10
895.003319123
 20
118.033311846
 30
0.0
 11
902.730725733
 21
115.962759485
 31
0.0
  0
LINE
  8
0
  6
CONTINUOUS
 62
     2
 10
895.003319123
 20
118.033311846
 30
0.0
 11
902.730725733
 21
120.103864207
 31
0.0
  0
LINE
  8
0
  6
CONTINUOUS
 62
     2
 10
555.003319123
 20
211.633311846
 30
0.0
 11
555.003319123
 21
196.833311846
 31
0.0
  0
LINE
  8
0
  6
CONTINUOUS
 62
     2
 10
895.003319123
 20
211.633311846
 30
0.0
 11
895.003319123
 21
196.833311846
 31
0.0
  0
LINE
  8
0
  6
CONTINUOUS
 62
     2
 10
692.603319123
 20
200.433311846
 30
0.0
 11
692.603319123
 21
211.633311846
 31
0.0
  0
LINE
  8
0
  6
CONTINUOUS
 62
     2
 10
713.403319123
 20
187.303864207
 30
0.0
 11
713.403319123
 21
170.503864207
 31
0.0
  0
LINE
  8
0
  6
CONTINUOUS
 62
     2
 10
555.003319123
 20
196.833311846
 30
0.0
 11
555.003319123
 21
104.833311846
 31
0.0
  0
LINE
  8
0
  6
CONTINUOUS
 62
     2
 10
895.003319123
 20
200.833311846
 30
0.0
 11
895.003319123
 21
106.033311846
 31
0.0
  0
LINE
  8
0
  6
CONTINUOUS
 62
     2
 10
713.403319123
 20
174.503864207
 30
0.0
 11
713.403319123
 21
138.033311846
 31
0.0
  0
LINE
  8
0
  6
CONTINUOUS
 62
     2
 10
692.603319123
 20
200.833311846
 30
0.0
 11
692.603319123
 21
165.233311846
 31
0.0
  0
TEXT
  8
0
  6
CONTINUOUS
 62
     3
 10
596.803319123
 20
202.833311846
 30
0.0
 40
15.0
  1
ｍｉｎ．Ｌ
 50
0.0
 41
0.9
 51
0.0
  7
KANJI29
  0
TEXT
  8
0
  6
CONTINUOUS
 62
     3
 10
750.603319123
 20
202.833311846
 30
0.0
 40
15.0
  1
機械的ストローク
 50
0.0
 41
0.9
 51
0.0
  7
KANJI29
  0
TEXT
  8
0
  6
CONTINUOUS
 62
     3
 10
725.403319123
 20
176.503864207
 30
0.0
 40
15.0
  1
余裕
 50
0.0
 41
0.9
 51
0.0
  7
KANJI29
  0
TEXT
  8
0
  6
CONTINUOUS
 62
     3
 10
607.203319123
 20
149.233311846
 30
0.0
 40
15.0
  1
常用ｍｉｎ
 50
0.0
 41
0.9
 51
0.0
  7
KANJI29
  0
TEXT
  8
0
  6
CONTINUOUS
 62
     3
 10
686.803319123
 20
120.033311846
 30
0.0
 40
15.0
  1
常用ｍａｘ
 50
0.0
 41
0.9
 51
0.0
  7
KANJI29
  0
TEXT
  8
0
  6
CONTINUOUS
 62
     3
 10
907.003319123
 20
120.033311846
 30
0.0
 40
15.0
  1
余裕
 50
0.0
 41
0.9
 51
0.0
  7
KANJI29
  0
LINE
  8
0
  6
CONTINUOUS
 62
     2
 10
713.403319123
 20
174.503864207
 30
0.0
 11
753.503319123
 21
174.503864207
 31
0.0
  0
LINE
  8
0
  6
CONTINUOUS
 62
     2
 10
895.003319123
 20
118.033311846
 30
0.0
 11
937.503319123
 21
118.033311846
 31
0.0
  0
LINE
  8
0
  6
CONTINUOUS
 62
     1
 10
1171.0
 20
632.0
 30
0.0
 11
1238.0
 21
632.0
 31
0.0
  0
ARC
  8
0
  6
CONTINUOUS
 62
     1
 10
1238.0
 20
640.0
 30
0.0
 40
8.0
 50
270.0
 51
0.0
  0
LINE
  8
0
  6
CONTINUOUS
 62
     1
 10
1171.0
 20
682.0
 30
0.0
 11
1238.0
 21
682.0
 31
0.0
  0
LINE
  8
0
  6
CONTINUOUS
 62
     1
 10
1246.0
 20
640.0
 30
0.0
 11
1246.0
 21
674.0
 31
0.0
  0
ARC
  8
0
  6
CONTINUOUS
 62
     1
 10
1238.0
 20
674.0
 30
0.0
 40
8.0
 50
0.0
 51
90.0
  0
CIRCLE
  8
0
  6
CONTINUOUS
 62
     1
 10
1221.0
 20
657.0
 30
0.0
 40
12.5
  0
CIRCLE
  8
0
  6
CONTINUOUS
 62
     1
 10
1221.0
 20
657.0
 30
0.0
 40
22.0
  0
CIRCLE
  8
0
  6
CONTINUOUS
 62
     1
 10
1221.0
 20
672.5
 30
0.0
 40
3.0
  0
LINE
  8
0
  6
CONTINUOUS
 62
     1
 10
1216.8
 20
640.2
 30
0.0
 11
1218.8
 21
639.9
 31
0.0
  0
LINE
  8
0
  6
CONTINUOUS
 62
     1
 10
1219.3
 20
644.6
 30
0.0
 11
1219.064615385
 21
643.030769231
 31
0.0
  0
LINE
  8
0
  6
CONTINUOUS
 62
     1
 10
1219.064615385
 20
643.030769231
 30
0.0
 11
1216.8
 21
640.2
 31
0.0
  0
LINE
  8
0
  6
CONTINUOUS
 62
     1
 10
1221.0
 20
642.6
 30
0.0
 11
1218.8
 21
639.9
 31
0.0
  0
LINE
  8
0
  6
CONTINUOUS
 62
     1
 10
1225.2
 20
640.2
 30
0.0
 11
1223.2
 21
639.9
 31
0.0
  0
LINE
  8
0
  6
CONTINUOUS
 62
     1
 10
1222.7
 20
644.6
 30
0.0
 11
1222.935384615
 21
643.030769231
 31
0.0
  0
LINE
  8
0
  6
CONTINUOUS
 62
     1
 10
1222.935384615
 20
643.030769231
 30
0.0
 11
1225.2
 21
640.2
 31
0.0
  0
LINE
  8
0
  6
CONTINUOUS
 62
     1
 10
1221.0
 20
642.6
 30
0.0
 11
1223.2
 21
639.9
 31
0.0
  0
LINE
  8
0
  6
CONTINUOUS
 62
     1
 10
1081.0
 20
622.5
 30
0.0
 11
1081.0
 21
657.5
 31
0.0
  0
CIRCLE
  8
0
  6
CONTINUOUS
 62
     1
 10
886.0
 20
657.5
 30
0.0
 40
19.5
  0
LINE
  8
0
  6
CONTINUOUS
 62
     1
 10
866.0
 20
677.5
 30
0.0
 11
906.0
 21
677.5
 31
0.0
  0
LINE
  8
0
  6
CONTINUOUS
 62
     1
 10
906.0
 20
637.5
 30
0.0
 11
906.0
 21
677.5
 31
0.0
  0
LINE
  8
0
  6
CONTINUOUS
 62
     1
 10
866.0
 20
637.5
 30
0.0
 11
906.0
 21
637.5
 31
0.0
  0
LINE
  8
0
  6
CONTINUOUS
 62
     1
 10
866.0
 20
637.5
 30
0.0
 11
866.0
 21
677.5
 31
0.0
  0
LINE
  8
0
  6
LTYPE1
 62
     2
 10
1186.0
 20
632.0
 30
0.0
 11
1186.0
 21
682.0
 31
0.0
  0
LINE
  8
0
  6
LTYPE2
 62
     2
 10
886.0
 20
632.4
 30
0.0
 11
886.0
 21
682.3
 31
0.0
  0
LINE
  8
0
  6
CONTINUOUS
 62
     2
 10
1245.5
 20
682.0
 30
0.0
 11
1309.1
 21
682.0
 31
0.0
  0
LINE
  8
0
  6
CONTINUOUS
 62
     2
 10
1301.6
 20
682.0
 30
0.0
 11
1298.364761936
 21
669.925927171
 31
0.0
  0
LINE
  8
0
  6
CONTINUOUS
 62
     2
 10
1301.6
 20
682.0
 30
0.0
 11
1304.835238064
 21
669.925927171
 31
0.0
  0
LINE
  8
0
  6
CONTINUOUS
 62
     2
 10
1301.6
 20
682.0
 30
0.0
 11
1301.6
 21
632.0
 31
0.0
  0
LINE
  8
0
  6
CONTINUOUS
 62
     2
 10
1301.6
 20
632.0
 30
0.0
 11
1304.835238064
 21
644.074072829
 31
0.0
  0
LINE
  8
0
  6
CONTINUOUS
 62
     2
 10
1301.6
 20
632.0
 30
0.0
 11
1298.364761936
 21
644.074072829
 31
0.0
  0
LINE
  8
0
  6
CONTINUOUS
 62
     2
 10
1245.5
 20
632.0
 30
0.0
 11
1309.1
 21
632.0
 31
0.0
  0
LINE
  8
0
  6
CONTINUOUS
 62
     2
 10
892.1
 20
668.3
 30
0.0
 11
899.588041206
 21
678.308957933
 31
0.0
  0
LINE
  8
0
  6
CONTINUOUS
 62
     2
 10
892.1
 20
668.3
 30
0.0
 11
893.580354942
 21
680.712032438
 31
0.0
  0
LINE
  8
0
  6
CONTINUOUS
 62
     2
 10
892.1
 20
668.3
 30
0.0
 11
942.1
 21
793.3
 31
0.0
  0
LINE
  8
0
  6
LTYPE5
 62
     2
 10
1221.0
 20
632.0
 30
0.0
 11
1221.0
 21
689.1
 31
0.0
  0
LINE
  8
0
  6
CONTINUOUS
 62
     2
 10
1228.5
 20
666.6
 30
0.0
 11
1237.413448812
 21
675.363585469
 31
0.0
  0
LINE
  8
0
  6
CONTINUOUS
 62
     2
 10
1228.5
 20
666.6
 30
0.0
 11
1231.837480372
 21
678.64621205
 31
0.0
  0
LINE
  8
0
  6
CONTINUOUS
 62
     2
 10
1228.5
 20
666.6
 30
0.0
 11
1265.0
 21
728.6
 31
0.0
  0
LINE
  8
0
  6
CONTINUOUS
 62
     2
 10
1265.0
 20
728.6
 30
0.0
 11
1353.5
 21
728.6
 31
0.0
  0
LINE
  8
0
  6
CONTINUOUS
 62
     2
 10
1221.0
 20
407.3625
 30
0.0
 11
1208.925927171
 21
410.597738064
 31
0.0
  0
LINE
  8
0
  6
CONTINUOUS
 62
     2
 10
1221.0
 20
407.3625
 30
0.0
 11
1208.925927171
 21
404.127261936
 31
0.0
  0
LINE
  8
0
  6
CONTINUOUS
 62
     2
 10
1116.0
 20
450.7
 30
0.0
 11
1103.925927171
 21
453.935238064
 31
0.0
  0
LINE
  8
0
  6
CONTINUOUS
 62
     2
 10
1116.0
 20
450.7
 30
0.0
 11
1103.925927171
 21
447.464761936
 31
0.0
  0
LINE
  8
0
  6
CONTINUOUS
 62
     2
 10
1116.0
 20
450.7
 30
0.0
 11
1128.074072829
 21
447.464761936
 31
0.0
  0
LINE
  8
0
  6
CONTINUOUS
 62
     2
 10
1116.0
 20
450.7
 30
0.0
 11
1128.074072829
 21
453.935238064
 31
0.0
  0
LINE
  8
0
  6
CONTINUOUS
 62
     2
 10
1116.0
 20
450.7
 30
0.0
 11
1171.0
 21
450.7
 31
0.0
  0
LINE
  8
0
  6
CONTINUOUS
 62
     2
 10
1171.0
 20
450.7
 30
0.0
 11
1158.925927171
 21
453.935238064
 31
0.0
  0
LINE
  8
0
  6
CONTINUOUS
 62
     2
 10
1171.0
 20
450.7
 30
0.0
 11
1158.925927171
 21
447.464761936
 31
0.0
  0
LINE
  8
0
  6
CONTINUOUS
 62
     2
 10
1171.0
 20
450.7
 30
0.0
 11
1183.074072829
 21
447.464761936
 31
0.0
  0
LINE
  8
0
  6
CONTINUOUS
 62
     2
 10
1171.0
 20
450.7
 30
0.0
 11
1183.074072829
 21
453.935238064
 31
0.0
  0
LINE
  8
0
  6
CONTINUOUS
 62
     2
 10
1171.0
 20
450.7
 30
0.0
 11
1221.0
 21
450.7
 31
0.0
  0
LINE
  8
0
  6
CONTINUOUS
 62
     2
 10
1221.0
 20
450.7
 30
0.0
 11
1208.925927171
 21
453.935238064
 31
0.0
  0
LINE
  8
0
  6
CONTINUOUS
 62
     2
 10
1221.0
 20
450.7
 30
0.0
 11
1208.925927171
 21
447.464761936
 31
0.0
  0
LINE
  8
0
  6
CONTINUOUS
 62
     2
 10
1221.0
 20
363.0
 30
0.0
 11
1208.925927171
 21
366.235238064
 31
0.0
  0
LINE
  8
0
  6
CONTINUOUS
 62
     2
 10
1221.0
 20
363.0
 30
0.0
 11
1208.925927171
 21
359.764761936
 31
0.0
  0
LINE
  8
0
  6
CONTINUOUS
 62
     2
 10
1221.0
 20
399.8625
 30
0.0
 11
1221.0
 21
355.5
 31
0.0
  0
LINE
  8
0
  6
CONTINUOUS
 62
     1
 10
1116.0
 20
622.5
 30
0.0
 11
1033.182501379
 21
622.5
 31
0.0
  0
LINE
  8
0
  6
CONTINUOUS
 62
     2
 10
1221.0
 20
631.375
 30
0.0
 11
1221.0
 21
399.8625
 31
0.0
  0
LINE
  8
0
  6
CONTINUOUS
 62
     2
 10
1116.0
 20
619.875
 30
0.0
 11
1116.0
 21
443.2
 31
0.0
  0
LINE
  8
0
  6
CONTINUOUS
 62
     1
 10
1116.0
 20
622.5
 30
0.0
 11
1116.0
 21
657.5
 31
0.0
  0
LINE
  8
2
  6
CONTINUOUS
 62
     2
 10
878.7
 20
958.0
 30
0.0
 11
1013.7
 21
958.0
 31
0.0
  0
ARC
  8
0
  6
CONTINUOUS
 62
     1
 10
1070.845218677
 20
711.5
 30
0.0
 40
1.0
 50
90.0
 51
165.0
  0
ARC
  8
0
  6
CONTINUOUS
 62
     1
 10
1070.845219502
 20
711.5
 30
0.0
 40
1.0
 50
15.0
 51
90.0
  0
LINE
  8
0
  6
CONTINUOUS
 62
     1
 10
1075.433185539
 20
698.241180955
 30
0.0
 11
1071.811145329
 21
711.758819045
 31
0.0
  0
ARC
  8
0
  6
CONTINUOUS
 62
     1
 10
1076.399111365
 20
698.5
 30
0.0
 40
1.0
 50
195.0
 51
270.0
  0
ARC
  8
0
  6
CONTINUOUS
 62
     1
 10
1076.399112039
 20
698.5
 30
0.0
 40
1.0
 50
270.0
 51
345.0
  0
LINE
  8
0
  6
CONTINUOUS
 62
     1
 10
1077.365037865
 20
698.241180955
 30
0.0
 11
1080.987078075
 21
711.758819045
 31
0.0
  0
ARC
  8
0
  6
CONTINUOUS
 62
     1
 10
1081.953003902
 20
711.5
 30
0.0
 40
1.0
 50
90.0
 51
165.0
  0
LINE
  8
0
  6
CONTINUOUS
 62
     1
 10
1086.540970764
 20
698.241180955
 30
0.0
 11
1082.918930554
 21
711.758819045
 31
0.0
  0
ARC
  8
0
  6
CONTINUOUS
 62
     1
 10
1087.50689659
 20
698.5
 30
0.0
 40
1.0
 50
195.0
 51
270.0
  0
ARC
  8
0
  6
CONTINUOUS
 62
     1
 10
1081.953005553
 20
711.5
 30
0.0
 40
1.0
 50
15.0
 51
90.0
  0
LINE
  8
0
  6
CONTINUOUS
 62
     1
 10
1049.183009455
 20
657.5
 30
0.0
 11
1049.183009455
 21
690.5
 31
0.0
  0
LINE
  8
0
  6
CONTINUOUS
 62
     1
 10
1070.845218677
 20
712.5
 30
0.0
 11
1070.845218677
 21
657.5
 31
0.0
  0
LINE
  8
0
  6
CONTINUOUS
 62
     1
 10
1076.399111365
 20
657.5
 30
0.0
 11
1076.399111365
 21
697.5
 31
0.0
  0
LINE
  8
0
  6
CONTINUOUS
 62
     1
 10
1081.953004728
 20
712.5
 30
0.0
 11
1081.953004728
 21
657.5
 31
0.0
  0
LINE
  8
0
  6
CONTINUOUS
 62
     1
 10
1087.50689659
 20
697.5
 30
0.0
 11
1087.50689659
 21
657.5
 31
0.0
  0
LINE
  8
0
  6
LTYPE6
 62
     2
 10
1132.676112865
 20
697.5
 30
0.0
 11
1101.730004728
 21
697.5
 31
0.0
  0
LINE
  8
0
  6
LTYPE6
 62
     2
 10
1138.230005553
 20
712.5
 30
0.0
 11
1101.730004728
 21
712.5
 31
0.0
  0
ARC
  8
0
  6
CONTINUOUS
 62
     1
 10
1149.337790779
 20
711.5
 30
0.0
 40
1.0
 50
15.0
 51
90.0
  0
ARC
  8
0
  6
CONTINUOUS
 62
     1
 10
1149.337789953
 20
711.5
 30
0.0
 40
1.0
 50
90.0
 51
165.0
  0
LINE
  8
0
  6
CONTINUOUS
 62
     1
 10
1144.749823916
 20
698.241180955
 30
0.0
 11
1148.371864126
 21
711.758819045
 31
0.0
  0
ARC
  8
0
  6
CONTINUOUS
 62
     1
 10
1143.78389809
 20
698.5
 30
0.0
 40
1.0
 50
270.0
 51
345.0
  0
ARC
  8
0
  6
CONTINUOUS
 62
     1
 10
1143.783897416
 20
698.5
 30
0.0
 40
1.0
 50
195.0
 51
270.0
  0
LINE
  8
0
  6
CONTINUOUS
 62
     1
 10
1142.81797159
 20
698.241180955
 30
0.0
 11
1139.19593138
 21
711.758819045
 31
0.0
  0
ARC
  8
0
  6
CONTINUOUS
 62
     1
 10
1138.230005553
 20
711.5
 30
0.0
 40
1.0
 50
15.0
 51
90.0
  0
ARC
  8
0
  6
CONTINUOUS
 62
     1
 10
1138.230003902
 20
711.5
 30
0.0
 40
1.0
 50
90.0
 51
165.0
  0
ARC
  8
0
  6
CONTINUOUS
 62
     1
 10
1132.676112865
 20
698.5
 30
0.0
 40
1.0
 50
270.0
 51
345.0
  0
LINE
  8
0
  6
CONTINUOUS
 62
     1
 10
1133.642038691
 20
698.241180955
 30
0.0
 11
1137.264078901
 21
711.758819045
 31
0.0
  0
LINE
  8
0
  6
CONTINUOUS
 62
     1
 10
1156.0
 20
690.5
 30
0.0
 11
1150.303716605
 21
711.758819045
 31
0.0
  0
LINE
  8
0
  6
CONTINUOUS
 62
     1
 10
1168.5
 20
692.5
 30
0.0
 11
1158.5
 21
692.5
 31
0.0
  0
LINE
  8
0
  6
CONTINUOUS
 62
     1
 10
1171.0
 20
690.5
 30
0.0
 11
1156.0
 21
690.5
 31
0.0
  0
LINE
  8
0
  6
CONTINUOUS
 62
     1
 10
1168.5
 20
690.5
 30
0.0
 11
1168.5
 21
692.5
 31
0.0
  0
LINE
  8
0
  6
CONTINUOUS
 62
     1
 10
1158.5
 20
690.5
 30
0.0
 11
1158.5
 21
692.5
 31
0.0
  0
LINE
  8
0
  6
CONTINUOUS
 62
     1
 10
1156.0
 20
657.5
 30
0.0
 11
1156.0
 21
690.5
 31
0.0
  0
LINE
  8
0
  6
CONTINUOUS
 62
     1
 10
1132.676112865
 20
697.5
 30
0.0
 11
1132.676112865
 21
657.5
 31
0.0
  0
LINE
  8
0
  6
CONTINUOUS
 62
     1
 10
1138.230004728
 20
712.5
 30
0.0
 11
1138.230004728
 21
657.5
 31
0.0
  0
LINE
  8
0
  6
CONTINUOUS
 62
     1
 10
1149.337790779
 20
712.5
 30
0.0
 11
1149.337790779
 21
657.5
 31
0.0
  0
LINE
  8
0
  6
CONTINUOUS
 62
     1
 10
1143.78389809
 20
657.5
 30
0.0
 11
1143.78389809
 21
697.5
 31
0.0
  0
LINE
  8
0
  6
LTYPE6
 62
     2
 10
1087.50689659
 20
697.5
 30
0.0
 11
1101.730004728
 21
697.5
 31
0.0
  0
LINE
  8
0
  6
LTYPE6
 62
     2
 10
1081.953004728
 20
712.5
 30
0.0
 11
1101.730004728
 21
712.5
 31
0.0
  0
LINE
  8
0
  6
CONTINUOUS
 62
     1
 10
1051.683009455
 20
694.5
 30
0.0
 11
1061.683009455
 21
694.5
 31
0.0
  0
LINE
  8
0
  6
CONTINUOUS
 62
     1
 10
1051.683009455
 20
692.5
 30
0.0
 11
1051.683009455
 21
694.5
 31
0.0
  0
LINE
  8
0
  6
CONTINUOUS
 62
     1
 10
1061.683009455
 20
692.5
 30
0.0
 11
1061.683009455
 21
694.5
 31
0.0
  0
LINE
  8
0
  6
CONTINUOUS
 62
     1
 10
1064.71890784
 20
692.5
 30
0.0
 11
1049.182501379
 21
692.5
 31
0.0
  0
LINE
  8
0
  6
CONTINUOUS
 62
     1
 10
1064.71890784
 20
692.5
 30
0.0
 11
1069.87929285
 21
711.758819045
 31
0.0
  0
LINE
  8
0
  6
CONTINUOUS
 62
     1
 10
1064.71890784
 20
692.5
 30
0.0
 11
1064.71890784
 21
657.5
 31
0.0
  0
LINE
  8
0
  6
CONTINUOUS
 62
     1
 10
1049.183472275
 20
657.5
 30
0.0
 11
1049.183472275
 21
692.5
 31
0.0
  0
LINE
  8
0
  6
CONTINUOUS
 62
     1
 10
1049.183472275
 20
692.5
 30
0.0
 11
1064.183009455
 21
692.5
 31
0.0
  0
ARC
  8
0
  6
CONTINUOUS
 62
     1
 10
1070.845726752
 20
603.5
 30
0.0
 40
1.0
 50
195.0
 51
270.0
  0
ARC
  8
0
  6
CONTINUOUS
 62
     1
 10
1070.845727578
 20
603.5
 30
0.0
 40
1.0
 50
270.0
 51
345.0
  0
LINE
  8
0
  6
CONTINUOUS
 62
     1
 10
1075.433693614
 20
616.758819045
 30
0.0
 11
1071.811653404
 21
603.241180955
 31
0.0
  0
ARC
  8
0
  6
CONTINUOUS
 62
     1
 10
1076.399619441
 20
616.5
 30
0.0
 40
1.0
 50
90.0
 51
165.0
  0
ARC
  8
0
  6
CONTINUOUS
 62
     1
 10
1076.399620115
 20
616.5
 30
0.0
 40
1.0
 50
15.0
 51
90.0
  0
LINE
  8
0
  6
CONTINUOUS
 62
     1
 10
1077.365545941
 20
616.758819045
 30
0.0
 11
1080.987586151
 21
603.241180955
 31
0.0
  0
ARC
  8
0
  6
CONTINUOUS
 62
     1
 10
1081.953511977
 20
603.5
 30
0.0
 40
1.0
 50
195.0
 51
270.0
  0
LINE
  8
0
  6
CONTINUOUS
 62
     1
 10
1086.541478839
 20
616.758819045
 30
0.0
 11
1082.91943863
 21
603.241180955
 31
0.0
  0
ARC
  8
0
  6
CONTINUOUS
 62
     1
 10
1087.507404666
 20
616.5
 30
0.0
 40
1.0
 50
90.0
 51
165.0
  0
ARC
  8
0
  6
CONTINUOUS
 62
     1
 10
1081.953513629
 20
603.5
 30
0.0
 40
1.0
 50
270.0
 51
345.0
  0
LINE
  8
0
  6
CONTINUOUS
 62
     1
 10
1051.683517531
 20
619.5
 30
0.0
 11
1061.683517531
 21
619.5
 31
0.0
  0
LINE
  8
0
  6
CONTINUOUS
 62
     1
 10
1051.683517531
 20
621.5
 30
0.0
 11
1051.683517531
 21
619.5
 31
0.0
  0
LINE
  8
0
  6
CONTINUOUS
 62
     1
 10
1061.683517531
 20
621.5
 30
0.0
 11
1061.683517531
 21
619.5
 31
0.0
  0
LINE
  8
0
  6
CONTINUOUS
 62
     1
 10
1064.987365108
 20
621.5
 30
0.0
 11
1069.879800926
 21
603.241180955
 31
0.0
  0
LINE
  8
0
  6
CONTINUOUS
 62
     1
 10
1049.183009455
 20
621.5
 30
0.0
 11
1064.987365108
 21
621.5
 31
0.0
  0
LINE
  8
0
  6
CONTINUOUS
 62
     1
 10
1049.183009455
 20
657.5
 30
0.0
 11
1049.183009455
 21
621.5
 31
0.0
  0
ARC
  8
0
  6
CONTINUOUS
 62
     1
 10
1149.337790779
 20
603.5
 30
0.0
 40
1.0
 50
270.0
 51
345.0
  0
ARC
  8
0
  6
CONTINUOUS
 62
     1
 10
1149.337789953
 20
603.5
 30
0.0
 40
1.0
 50
195.0
 51
270.0
  0
LINE
  8
0
  6
CONTINUOUS
 62
     1
 10
1144.749823916
 20
616.758819045
 30
0.0
 11
1148.371864126
 21
603.241180955
 31
0.0
  0
ARC
  8
0
  6
CONTINUOUS
 62
     1
 10
1143.78389809
 20
616.5
 30
0.0
 40
1.0
 50
15.0
 51
90.0
  0
ARC
  8
0
  6
CONTINUOUS
 62
     1
 10
1143.783897416
 20
616.5
 30
0.0
 40
1.0
 50
90.0
 51
165.0
  0
LINE
  8
0
  6
CONTINUOUS
 62
     1
 10
1142.81797159
 20
616.758819045
 30
0.0
 11
1139.19593138
 21
603.241180955
 31
0.0
  0
ARC
  8
0
  6
CONTINUOUS
 62
     1
 10
1138.230005553
 20
603.5
 30
0.0
 40
1.0
 50
270.0
 51
345.0
  0
ARC
  8
0
  6
CONTINUOUS
 62
     1
 10
1138.230003902
 20
603.5
 30
0.0
 40
1.0
 50
195.0
 51
270.0
  0
LINE
  8
0
  6
CONTINUOUS
 62
     1
 10
1133.642038691
 20
616.758819045
 30
0.0
 11
1137.264078901
 21
603.241180955
 31
0.0
  0
LINE
  8
0
  6
CONTINUOUS
 62
     1
 10
1156.0
 20
624.5
 30
0.0
 11
1150.303716605
 21
603.241180955
 31
0.0
  0
LINE
  8
0
  6
CONTINUOUS
 62
     1
 10
1168.5
 20
622.5
 30
0.0
 11
1158.5
 21
622.5
 31
0.0
  0
LINE
  8
0
  6
CONTINUOUS
 62
     1
 10
1168.5
 20
624.5
 30
0.0
 11
1168.5
 21
622.5
 31
0.0
  0
LINE
  8
0
  6
CONTINUOUS
 62
     1
 10
1158.5
 20
624.5
 30
0.0
 11
1158.5
 21
622.5
 31
0.0
  0
LINE
  8
0
  6
CONTINUOUS
 62
     1
 10
1155.982501379
 20
624.6
 30
0.0
 11
1155.982501379
 21
632.4
 31
0.0
  0
ARC
  8
0
  6
CONTINUOUS
 62
     1
 10
1133.176112865
 20
616.5
 30
0.0
 40
1.0
 50
15.0
 51
90.0
  0
LINE
  8
0
  6
LTYPE6
 62
     2
 10
1133.176112865
 20
617.5
 30
0.0
 11
1088.676112865
 21
617.5
 31
0.0
  0
LINE
  8
0
  6
LTYPE6
 62
     2
 10
1138.230005553
 20
602.5
 30
0.0
 11
1084.676112865
 21
602.5
 31
0.0
  0
LINE
  8
0
  6
CONTINUOUS
 62
     1
 10
1171.0
 20
632.5
 30
0.0
 11
1116.0
 21
632.5
 31
0.0
  0
LINE
  8
0
  6
CONTINUOUS
 62
     1
 10
1186.0
 20
830.6
 30
0.0
 11
1246.0
 21
830.6
 31
0.0
  0
LINE
  8
0
  6
CONTINUOUS
 62
     1
 10
1246.0
 20
815.6
 30
0.0
 11
1246.0
 21
830.6
 31
0.0
  0
LINE
  8
0
  6
CONTINUOUS
 62
     1
 10
1171.0
 20
815.6
 30
0.0
 11
1246.0
 21
815.6
 31
0.0
  0
LINE
  8
0
  6
CONTINUOUS
 62
     1
 10
1199.0
 20
811.1
 30
0.0
 11
1243.0
 21
811.1
 31
0.0
  0
LINE
  8
0
  6
CONTINUOUS
 62
     1
 10
1208.5
 20
805.1
 30
0.0
 11
1233.5
 21
805.1
 31
0.0
  0
LINE
  8
0
  6
CONTINUOUS
 62
     1
 10
1233.5
 20
805.1
 30
0.0
 11
1233.5
 21
811.1
 31
0.0
  0
LINE
  8
0
  6
CONTINUOUS
 62
     1
 10
1208.5
 20
805.1
 30
0.0
 11
1208.5
 21
811.1
 31
0.0
  0
LINE
  8
0
  6
CONTINUOUS
 62
     1
 10
1243.0
 20
811.1
 30
0.0
 11
1243.0
 21
815.6
 31
0.0
  0
LINE
  8
0
  6
CONTINUOUS
 62
     1
 10
1199.0
 20
811.1
 30
0.0
 11
1199.0
 21
815.6
 31
0.0
  0
CIRCLE
  8
0
  6
CONTINUOUS
 62
     1
 10
1221.0
 20
809.1
 30
0.0
 40
2.0
  0
LINE
  8
0
  6
LTYPE5
 62
     2
 10
1217.0
 20
809.2
 30
0.0
 11
1225.2
 21
809.2
 31
0.0
  0
LINE
  8
0
  6
LTYPE1
 62
     2
 10
1233.5
 20
811.1
 30
0.0
 11
1233.5
 21
830.6
 31
0.0
  0
LINE
  8
0
  6
LTYPE1
 62
     2
 10
1208.5
 20
811.1
 30
0.0
 11
1208.5
 21
830.6
 31
0.0
  0
LINE
  8
0
  6
CONTINUOUS
 62
     1
 10
1186.0
 20
855.6
 30
0.0
 11
1246.0
 21
855.6
 31
0.0
  0
LINE
  8
0
  6
CONTINUOUS
 62
     1
 10
1246.0
 20
870.6
 30
0.0
 11
1246.0
 21
855.6
 31
0.0
  0
LINE
  8
0
  6
CONTINUOUS
 62
     1
 10
1171.0
 20
870.6
 30
0.0
 11
1246.0
 21
870.6
 31
0.0
  0
LINE
  8
0
  6
CONTINUOUS
 62
     1
 10
1199.0
 20
875.1
 30
0.0
 11
1243.0
 21
875.1
 31
0.0
  0
LINE
  8
0
  6
CONTINUOUS
 62
     1
 10
1208.5
 20
881.1
 30
0.0
 11
1233.5
 21
881.1
 31
0.0
  0
LINE
  8
0
  6
CONTINUOUS
 62
     1
 10
1233.5
 20
881.1
 30
0.0
 11
1233.5
 21
875.1
 31
0.0
  0
LINE
  8
0
  6
CONTINUOUS
 62
     1
 10
1208.5
 20
881.1
 30
0.0
 11
1208.5
 21
875.1
 31
0.0
  0
LINE
  8
0
  6
CONTINUOUS
 62
     1
 10
1243.0
 20
875.1
 30
0.0
 11
1243.0
 21
870.6
 31
0.0
  0
LINE
  8
0
  6
CONTINUOUS
 62
     1
 10
1199.0
 20
875.1
 30
0.0
 11
1199.0
 21
870.6
 31
0.0
  0
CIRCLE
  8
0
  6
CONTINUOUS
 62
     1
 10
1221.0
 20
877.1
 30
0.0
 40
2.0
  0
LINE
  8
0
  6
LTYPE5
 62
     2
 10
1217.0
 20
877.0
 30
0.0
 11
1225.2
 21
877.0
 31
0.0
  0
LINE
  8
0
  6
LTYPE1
 62
     2
 10
1233.5
 20
875.1
 30
0.0
 11
1233.5
 21
855.6
 31
0.0
  0
LINE
  8
0
  6
LTYPE1
 62
     2
 10
1208.5
 20
875.1
 30
0.0
 11
1208.5
 21
855.6
 31
0.0
  0
LINE
  8
0
  6
CONTINUOUS
 62
     1
 10
1186.0
 20
830.6
 30
0.0
 11
1186.0
 21
855.6
 31
0.0
  0
LINE
  8
0
  6
CONTINUOUS
 62
     1
 10
1208.5
 20
830.6
 30
0.0
 11
1208.5
 21
855.6
 31
0.0
  0
LINE
  8
0
  6
CONTINUOUS
 62
     1
 10
1233.5
 20
830.6
 30
0.0
 11
1233.5
 21
855.6
 31
0.0
  0
LINE
  8
0
  6
LTYPE5
 62
     2
 10
1221.0
 20
800.1
 30
0.0
 11
1221.0
 21
881.1
 31
0.0
  0
LINE
  8
0
  6
LTYPE5
 62
     2
 10
1221.0
 20
886.1
 30
0.0
 11
1221.0
 21
805.1
 31
0.0
  0
LINE
  8
0
  6
CONTINUOUS
 62
     1
 10
1208.5
 20
855.6
 30
0.0
 11
1208.5
 21
830.6
 31
0.0
  0
LINE
  8
0
  6
CONTINUOUS
 62
     1
 10
1233.5
 20
855.6
 30
0.0
 11
1233.5
 21
830.6
 31
0.0
  0
LINE
  8
0
  6
CONTINUOUS
 62
     2
 10
1253.5
 20
815.6
 30
0.0
 11
1331.0
 21
815.6
 31
0.0
  0
LINE
  8
0
  6
CONTINUOUS
 62
     2
 10
1323.5
 20
815.6
 30
0.0
 11
1326.735238064
 21
827.674072829
 31
0.0
  0
LINE
  8
0
  6
CONTINUOUS
 62
     2
 10
1323.5
 20
815.6
 30
0.0
 11
1320.264761936
 21
827.674072829
 31
0.0
  0
LINE
  8
0
  6
CONTINUOUS
 62
     2
 10
1323.5
 20
815.6
 30
0.0
 11
1323.5
 21
870.6
 31
0.0
  0
LINE
  8
0
  6
CONTINUOUS
 62
     2
 10
1323.5
 20
870.6
 30
0.0
 11
1320.264761936
 21
858.525927171
 31
0.0
  0
LINE
  8
0
  6
CONTINUOUS
 62
     2
 10
1323.5
 20
870.6
 30
0.0
 11
1326.735238064
 21
858.525927171
 31
0.0
  0
LINE
  8
0
  6
CONTINUOUS
 62
     2
 10
1253.5
 20
870.6
 30
0.0
 11
1331.0
 21
870.6
 31
0.0
  0
LINE
  8
0
  6
CONTINUOUS
 62
     2
 10
1253.5
 20
830.6
 30
0.0
 11
1302.5
 21
830.6
 31
0.0
  0
LINE
  8
0
  6
CONTINUOUS
 62
     2
 10
1295.0
 20
830.6
 30
0.0
 11
1291.764761936
 21
818.525927171
 31
0.0
  0
LINE
  8
0
  6
CONTINUOUS
 62
     2
 10
1295.0
 20
830.6
 30
0.0
 11
1298.235238064
 21
818.525927171
 31
0.0
  0
LINE
  8
0
  6
CONTINUOUS
 62
     2
 10
1295.0
 20
811.85
 30
0.0
 11
1295.0
 21
902.85
 31
0.0
  0
LINE
  8
0
  6
CONTINUOUS
 62
     2
 10
1295.0
 20
855.6
 30
0.0
 11
1298.235238064
 21
867.674072829
 31
0.0
  0
LINE
  8
0
  6
CONTINUOUS
 62
     2
 10
1295.0
 20
855.6
 30
0.0
 11
1291.764761936
 21
867.674072829
 31
0.0
  0
LINE
  8
0
  6
CONTINUOUS
 62
     2
 10
1253.5
 20
855.6
 30
0.0
 11
1302.5
 21
855.6
 31
0.0
  0
LINE
  8
0
  6
LTYPE6
 62
     2
 10
1132.676112865
 20
803.1
 30
0.0
 11
1101.730004728
 21
803.1
 31
0.0
  0
LINE
  8
0
  6
LTYPE6
 62
     2
 10
1138.230005553
 20
788.1
 30
0.0
 11
1101.730004728
 21
788.1
 31
0.0
  0
ARC
  8
0
  6
CONTINUOUS
 62
     1
 10
1149.337790779
 20
789.1
 30
0.0
 40
1.0
 50
270.0
 51
345.0
  0
ARC
  8
0
  6
CONTINUOUS
 62
     1
 10
1149.337789953
 20
789.1
 30
0.0
 40
1.0
 50
195.0
 51
270.0
  0
LINE
  8
0
  6
CONTINUOUS
 62
     1
 10
1144.749823916
 20
802.358819045
 30
0.0
 11
1148.371864126
 21
788.841180955
 31
0.0
  0
ARC
  8
0
  6
CONTINUOUS
 62
     1
 10
1143.78389809
 20
802.1
 30
0.0
 40
1.0
 50
15.0
 51
90.0
  0
ARC
  8
0
  6
CONTINUOUS
 62
     1
 10
1143.783897416
 20
802.1
 30
0.0
 40
1.0
 50
90.0
 51
165.0
  0
LINE
  8
0
  6
CONTINUOUS
 62
     1
 10
1142.81797159
 20
802.358819045
 30
0.0
 11
1139.19593138
 21
788.841180955
 31
0.0
  0
ARC
  8
0
  6
CONTINUOUS
 62
     1
 10
1138.230005553
 20
789.1
 30
0.0
 40
1.0
 50
270.0
 51
345.0
  0
ARC
  8
0
  6
CONTINUOUS
 62
     1
 10
1138.230003902
 20
789.1
 30
0.0
 40
1.0
 50
195.0
 51
270.0
  0
ARC
  8
0
  6
CONTINUOUS
 62
     1
 10
1132.676112865
 20
802.1
 30
0.0
 40
1.0
 50
15.0
 51
90.0
  0
LINE
  8
0
  6
CONTINUOUS
 62
     1
 10
1133.642038691
 20
802.358819045
 30
0.0
 11
1137.264078901
 21
788.841180955
 31
0.0
  0
LINE
  8
0
  6
CONTINUOUS
 62
     1
 10
1156.0
 20
810.1
 30
0.0
 11
1150.303716605
 21
788.841180955
 31
0.0
  0
LINE
  8
0
  6
CONTINUOUS
 62
     1
 10
1168.5
 20
808.1
 30
0.0
 11
1158.5
 21
808.1
 31
0.0
  0
LINE
  8
0
  6
CONTINUOUS
 62
     1
 10
1171.0
 20
810.1
 30
0.0
 11
1156.0
 21
810.1
 31
0.0
  0
LINE
  8
0
  6
CONTINUOUS
 62
     1
 10
1168.5
 20
810.1
 30
0.0
 11
1168.5
 21
808.1
 31
0.0
  0
LINE
  8
0
  6
CONTINUOUS
 62
     1
 10
1158.5
 20
810.1
 30
0.0
 11
1158.5
 21
808.1
 31
0.0
  0
LINE
  8
0
  6
LTYPE6
 62
     2
 10
1132.676112865
 20
883.1
 30
0.0
 11
1101.730004728
 21
883.1
 31
0.0
  0
LINE
  8
0
  6
LTYPE6
 62
     2
 10
1138.230005553
 20
898.1
 30
0.0
 11
1101.730004728
 21
898.1
 31
0.0
  0
ARC
  8
0
  6
CONTINUOUS
 62
     1
 10
1149.337790779
 20
897.1
 30
0.0
 40
1.0
 50
15.0
 51
90.0
  0
ARC
  8
0
  6
CONTINUOUS
 62
     1
 10
1149.337789953
 20
897.1
 30
0.0
 40
1.0
 50
90.0
 51
165.0
  0
LINE
  8
0
  6
CONTINUOUS
 62
     1
 10
1144.749823916
 20
883.841180955
 30
0.0
 11
1148.371864126
 21
897.358819045
 31
0.0
  0
ARC
  8
0
  6
CONTINUOUS
 62
     1
 10
1143.78389809
 20
884.1
 30
0.0
 40
1.0
 50
270.0
 51
345.0
  0
ARC
  8
0
  6
CONTINUOUS
 62
     1
 10
1143.783897416
 20
884.1
 30
0.0
 40
1.0
 50
195.0
 51
270.0
  0
LINE
  8
0
  6
CONTINUOUS
 62
     1
 10
1142.81797159
 20
883.841180955
 30
0.0
 11
1139.19593138
 21
897.358819045
 31
0.0
  0
ARC
  8
0
  6
CONTINUOUS
 62
     1
 10
1138.230005553
 20
897.1
 30
0.0
 40
1.0
 50
15.0
 51
90.0
  0
ARC
  8
0
  6
CONTINUOUS
 62
     1
 10
1138.230003902
 20
897.1
 30
0.0
 40
1.0
 50
90.0
 51
165.0
  0
ARC
  8
0
  6
CONTINUOUS
 62
     1
 10
1132.676112865
 20
884.1
 30
0.0
 40
1.0
 50
270.0
 51
345.0
  0
LINE
  8
0
  6
CONTINUOUS
 62
     1
 10
1133.642038691
 20
883.841180955
 30
0.0
 11
1137.264078901
 21
897.358819045
 31
0.0
  0
LINE
  8
0
  6
CONTINUOUS
 62
     1
 10
1156.0
 20
876.1
 30
0.0
 11
1150.303716605
 21
897.358819045
 31
0.0
  0
LINE
  8
0
  6
CONTINUOUS
 62
     1
 10
1168.5
 20
878.1
 30
0.0
 11
1158.5
 21
878.1
 31
0.0
  0
LINE
  8
0
  6
CONTINUOUS
 62
     1
 10
1171.0
 20
876.1
 30
0.0
 11
1156.0
 21
876.1
 31
0.0
  0
LINE
  8
0
  6
CONTINUOUS
 62
     1
 10
1168.5
 20
876.1
 30
0.0
 11
1168.5
 21
878.1
 31
0.0
  0
LINE
  8
0
  6
CONTINUOUS
 62
     1
 10
1158.5
 20
876.1
 30
0.0
 11
1158.5
 21
878.1
 31
0.0
  0
LINE
  8
0
  6
CONTINUOUS
 62
     1
 10
1171.0
 20
843.1
 30
0.0
 11
1171.0
 21
876.1
 31
0.0
  0
LINE
  8
0
  6
CONTINUOUS
 62
     1
 10
1156.0
 20
843.1
 30
0.0
 11
1156.0
 21
876.1
 31
0.0
  0
LINE
  8
0
  6
CONTINUOUS
 62
     1
 10
1132.676112865
 20
883.1
 30
0.0
 11
1132.676112865
 21
843.1
 31
0.0
  0
LINE
  8
0
  6
CONTINUOUS
 62
     1
 10
1138.230004728
 20
898.1
 30
0.0
 11
1138.230004728
 21
843.1
 31
0.0
  0
LINE
  8
0
  6
CONTINUOUS
 62
     1
 10
1149.337790779
 20
898.1
 30
0.0
 11
1149.337790779
 21
843.1
 31
0.0
  0
LINE
  8
0
  6
CONTINUOUS
 62
     1
 10
1143.78389809
 20
843.1
 30
0.0
 11
1143.78389809
 21
883.1
 31
0.0
  0
LINE
  8
0
  6
LTYPE3
 62
     2
 10
1103.7
 20
843.1
 30
0.0
 11
1266.0
 21
843.1
 31
0.0
  0
LINE
  8
0
  6
CONTINUOUS
 62
     1
 10
1156.0
 20
843.1
 30
0.0
 11
1156.0
 21
810.1
 31
0.0
  0
LINE
  8
0
  6
CONTINUOUS
 62
     1
 10
1132.676112865
 20
803.1
 30
0.0
 11
1132.676112865
 21
843.1
 31
0.0
  0
LINE
  8
0
  6
CONTINUOUS
 62
     1
 10
1138.230004728
 20
788.1
 30
0.0
 11
1138.230004728
 21
843.1
 31
0.0
  0
LINE
  8
0
  6
CONTINUOUS
 62
     1
 10
1149.337790779
 20
788.1
 30
0.0
 11
1149.337790779
 21
843.1
 31
0.0
  0
LINE
  8
0
  6
CONTINUOUS
 62
     1
 10
1143.78389809
 20
843.1
 30
0.0
 11
1143.78389809
 21
803.1
 31
0.0
  0
LINE
  8
0
  6
CONTINUOUS
 62
     2
 10
1094.230004728
 20
898.1
 30
0.0
 11
1081.9
 21
898.1
 31
0.0
  0
LINE
  8
0
  6
CONTINUOUS
 62
     2
 10
1089.4
 20
898.1
 30
0.0
 11
1086.164761936
 21
886.025927171
 31
0.0
  0
LINE
  8
0
  6
CONTINUOUS
 62
     2
 10
1089.4
 20
898.1
 30
0.0
 11
1092.635238064
 21
886.025927171
 31
0.0
  0
LINE
  8
0
  6
CONTINUOUS
 62
     2
 10
1089.4
 20
898.1
 30
0.0
 11
1089.4
 21
788.1
 31
0.0
  0
LINE
  8
0
  6
CONTINUOUS
 62
     2
 10
1089.4
 20
788.1
 30
0.0
 11
1092.635238064
 21
800.174072829
 31
0.0
  0
LINE
  8
0
  6
CONTINUOUS
 62
     2
 10
1089.4
 20
788.1
 30
0.0
 11
1086.164761936
 21
800.174072829
 31
0.0
  0
LINE
  8
0
  6
CONTINUOUS
 62
     2
 10
1094.230004728
 20
788.1
 30
0.0
 11
1081.9
 21
788.1
 31
0.0
  0
LINE
  8
0
  6
CONTINUOUS
 62
     1
 10
1171.0
 20
810.1
 30
0.0
 11
1171.0
 21
870.6
 31
0.0
  0
LINE
  8
0
  6
CONTINUOUS
 62
     2
 10
1186.0
 20
760.6
 30
0.0
 11
1198.074072829
 21
757.364761936
 31
0.0
  0
LINE
  8
0
  6
CONTINUOUS
 62
     2
 10
1186.0
 20
760.6
 30
0.0
 11
1198.074072829
 21
763.835238064
 31
0.0
  0
LINE
  8
0
  6
CONTINUOUS
 62
     2
 10
1186.0
 20
760.6
 30
0.0
 11
1221.0
 21
760.6
 31
0.0
  0
LINE
  8
0
  6
CONTINUOUS
 62
     2
 10
1221.0
 20
760.6
 30
0.0
 11
1208.925927171
 21
763.835238064
 31
0.0
  0
LINE
  8
0
  6
CONTINUOUS
 62
     2
 10
1221.0
 20
760.6
 30
0.0
 11
1208.925927171
 21
757.364761936
 31
0.0
  0
LINE
  8
0
  6
CONTINUOUS
 62
     2
 10
1186.0
 20
760.6
 30
0.0
 11
1198.074072829
 21
757.364761936
 31
0.0
  0
LINE
  8
0
  6
CONTINUOUS
 62
     2
 10
1186.0
 20
760.6
 30
0.0
 11
1198.074072829
 21
763.835238064
 31
0.0
  0
LINE
  8
0
  6
CONTINUOUS
 62
     2
 10
1204.75
 20
760.6
 30
0.0
 11
1123.75
 21
760.6
 31
0.0
  0
LINE
  8
0
  6
CONTINUOUS
 62
     2
 10
1171.0
 20
760.6
 30
0.0
 11
1158.925927171
 21
763.835238064
 31
0.0
  0
LINE
  8
0
  6
CONTINUOUS
 62
     2
 10
1171.0
 20
760.6
 30
0.0
 11
1158.925927171
 21
757.364761936
 31
0.0
  0
LINE
  8
0
  6
CONTINUOUS
 62
     2
 10
1221.0
 20
795.5
 30
0.0
 11
1221.0
 21
753.1
 31
0.0
  0
LINE
  8
0
  6
CONTINUOUS
 62
     2
 10
1186.0
 20
828.0
 30
0.0
 11
1186.0
 21
753.1
 31
0.0
  0
LINE
  8
0
  6
CONTINUOUS
 62
     2
 10
1171.0
 20
804.0
 30
0.0
 11
1171.0
 21
753.1
 31
0.0
  0
TEXT
  8
0
  6
CONTINUOUS
 62
     2
 10
1296.6
 20
642.75
 30
0.0
 40
18.0
  1
５０
 50
90.0
 41
0.9
 51
0.0
  7
KANJI22
  0
TEXT
  8
0
  6
CONTINUOUS
 62
     2
 10
942.1
 20
798.3
 30
0.0
 40
18.0
  1
給脂口
 50
0.0
 41
0.9
 51
0.0
  7
KANJI22
  0
TEXT
  8
0
  6
CONTINUOUS
 62
     2
 10
1265.0
 20
733.6
 30
0.0
 40
18.0
  1
φ２５Ｈ１０
 50
0.0
 41
0.9
 51
0.0
  7
KANJI22
  0
TEXT
  8
0
  6
CONTINUOUS
 62
     2
 10
1309.5
 20
709.1
 30
0.0
 40
18.0
  1
ｄ９
 50
0.0
 41
0.9
 51
0.0
  7
KANJI22
  0
TEXT
  8
0
  6
CONTINUOUS
 62
     2
 10
868.75
 20
412.3625
 30
0.0
 40
18.0
  1
ｍｉｎ．Ｌ
 50
0.0
 41
0.9
 51
0.0
  7
KANJI22
  0
TEXT
  8
0
  6
CONTINUOUS
 62
     2
 10
1181.75
 20
455.7
 30
0.0
 40
18.0
  1
５０
 50
0.0
 41
0.9
 51
0.0
  7
KANJI22
  0
TEXT
  8
0
  6
CONTINUOUS
 62
     2
 10
1100.75
 20
425.7
 30
0.0
 40
18.0
  1
ｍｉｎ．Ｐ
 50
0.0
 41
0.9
 51
0.0
  7
KANJI22
  0
TEXT
  8
2
  6
CONTINUOUS
 62
     2
 10
878.7
 20
963.0
 30
0.0
 40
18.0
  1
ブレーキ解放装置
 50
0.0
 41
0.9
 51
0.0
  7
KANJI22
  0
TEXT
  8
0
  6
CONTINUOUS
 62
     2
 10
1318.5
 20
828.85
 30
0.0
 40
18.0
  1
５５
 50
90.0
 41
0.9
 51
0.0
  7
KANJI22
  0
TEXT
  8
0
  6
CONTINUOUS
 62
     2
 10
1290.0
 20
874.35
 30
0.0
 40
18.0
  1
２５
 50
90.0
 41
0.9
 51
0.0
  7
KANJI22
  0
TEXT
  8
0
  6
CONTINUOUS
 62
     2
 10
1084.4
 20
814.6
 30
0.0
 40
18.0
  1
φ１１０
 50
90.0
 41
0.9
 51
0.0
  7
KANJI22
  0
TEXT
  8
0
  6
CONTINUOUS
 62
     2
 10
1189.25
 20
765.6
 30
0.0
 40
18.0
  1
３５
 50
0.0
 41
0.9
 51
0.0
  7
KANJI22
  0
TEXT
  8
0
  6
CONTINUOUS
 62
     2
 10
1124.75
 20
763.6
 30
0.0
 40
18.0
  1
１５
 50
0.0
 41
0.9
 51
0.0
  7
KANJI22
  0
LINE
  8
2
  6
CONTINUOUS
 62
     2
 10
1221.0
 20
760.6
 30
0.0
 11
1221.0
 21
754.6
 31
0.0
  0
LINE
  8
2
  6
CONTINUOUS
 62
     2
 10
1221.0
 20
760.6
 30
0.0
 11
1206.511112606
 21
764.482285677
 31
0.0
  0
LINE
  8
2
  6
CONTINUOUS
 62
     2
 10
1221.0
 20
760.6
 30
0.0
 11
1206.511112606
 21
756.717714323
 31
0.0
  0
LINE
  8
2
  6
CONTINUOUS
 62
     2
 10
1198.5
 20
760.6
 30
0.0
 11
1221.0
 21
760.6
 31
0.0
  0
LINE
  8
2
  6
CONTINUOUS
 62
     2
 10
1221.0
 20
760.6
 30
0.0
 11
1246.0
 21
760.6
 31
0.0
  0
LINE
  8
2
  6
CONTINUOUS
 62
     2
 10
1246.0
 20
760.6
 30
0.0
 11
1300.9
 21
760.6
 31
0.0
  0
LINE
  8
2
  6
CONTINUOUS
 62
     2
 10
1246.0
 20
760.6
 30
0.0
 11
1260.488887394
 21
756.717714323
 31
0.0
  0
LINE
  8
2
  6
CONTINUOUS
 62
     2
 10
1246.0
 20
760.6
 30
0.0
 11
1260.488887394
 21
764.482285677
 31
0.0
  0
LINE
  8
2
  6
CONTINUOUS
 62
     2
 10
1246.0
 20
809.6
 30
0.0
 11
1246.0
 21
754.6
 31
0.0
  0
TEXT
  8
2
  6
CONTINUOUS
 62
     3
 10
1268.5
 20
766.6
 30
0.0
 40
18.0
  1
２５
 50
0.0
 41
0.9
 51
0.0
  7
KANJI22
  0
LINE
  8
0
  6
CONTINUOUS
 62
     2
 10
942.1
 20
793.3
 30
0.0
 11
992.0
 21
793.3
 31
0.0
  0
LINE
  8
0
  6
CONTINUOUS
 62
     2
 10
1171.0
 20
620.0
 30
0.0
 11
1171.0
 21
443.2
 31
0.0
  0
LINE
  8
0
  6
CONTINUOUS
 62
     1
 10
1171.0
 20
624.5
 30
0.0
 11
1171.0
 21
690.5
 31
0.0
  0
LINE
  8
0
  6
CONTINUOUS
 62
     1
 10
1171.0
 20
624.5
 30
0.0
 11
1156.0
 21
624.5
 31
0.0
  0
LINE
  8
0
  6
CONTINUOUS
 62
     2
 10
1230.333333
 20
993.833317
 30
0.0
 11
1218.259260171
 21
997.068555064
 31
0.0
  0
LINE
  8
0
  6
CONTINUOUS
 62
     2
 10
1230.333333
 20
993.833317
 30
0.0
 11
1218.259260171
 21
990.598078936
 31
0.0
  0
LINE
  8
0
  6
CONTINUOUS
 62
     2
 10
1230.333333
 20
993.833317
 30
0.0
 11
1189.333333
 21
993.833317
 31
0.0
  0
TEXT
  8
0
  6
CONTINUOUS
 62
     3
 10
1196.333333
 20
1003.833317
 30
0.0
 40
20.0
  1
前進
 50
0.0
 41
0.925
 51
0.0
  7
KANJI30
  0
ARC
  8
0
  6
CONTINUOUS
 62
     1
 10
1407.0
 20
586.0
 30
0.0
 40
6.0
 50
180.0
 51
270.0
  0
ARC
  8
0
  6
CONTINUOUS
 62
     1
 10
1549.0
 20
586.0
 30
0.0
 40
6.0
 50
270.0
 51
0.0
  0
LINE
  8
0
  6
CONTINUOUS
 62
     1
 10
1558.0
 20
636.5
 30
0.0
 11
1558.0
 21
678.5
 31
0.0
  0
ARC
  8
0
  6
CONTINUOUS
 62
     1
 10
1430.0
 20
595.0
 30
0.0
 40
3.0
 50
90.0
 51
180.0
  0
LINE
  8
0
  6
CONTINUOUS
 62
     1
 10
1427.0
 20
548.5
 30
0.0
 11
1427.0
 21
595.0
 31
0.0
  0
ARC
  8
0
  6
CONTINUOUS
 62
     1
 10
1428.0
 20
548.5
 30
0.0
 40
1.0
 50
180.0
 51
270.0
  0
ARC
  8
0
  6
CONTINUOUS
 62
     1
 10
1431.0
 20
547.5
 30
0.0
 40
1.0
 50
180.0
 51
270.0
  0
ARC
  8
0
  6
CONTINUOUS
 62
     1
 10
1526.0
 20
595.0
 30
0.0
 40
3.0
 50
0.0
 51
90.0
  0
LINE
  8
0
  6
CONTINUOUS
 62
     1
 10
1529.0
 20
548.5
 30
0.0
 11
1529.0
 21
595.0
 31
0.0
  0
ARC
  8
0
  6
CONTINUOUS
 62
     1
 10
1528.0
 20
548.5
 30
0.0
 40
1.0
 50
270.0
 51
0.0
  0
ARC
  8
0
  6
CONTINUOUS
 62
     1
 10
1525.0
 20
547.5
 30
0.0
 40
1.0
 50
270.0
 51
0.0
  0
LINE
  8
0
  6
CONTINUOUS
 62
     1
 10
1529.0
 20
553.5
 30
0.0
 11
1427.0
 21
553.5
 31
0.0
  0
LINE
  8
0
  6
CONTINUOUS
 62
     1
 10
1529.0
 20
555.0
 30
0.0
 11
1427.0
 21
555.0
 31
0.0
  0
LINE
  8
0
  6
CONTINUOUS
 62
     1
 10
1430.0
 20
598.0
 30
0.0
 11
1526.0
 21
598.0
 31
0.0
  0
LINE
  8
0
  6
CONTINUOUS
 62
     1
 10
1525.0
 20
546.5
 30
0.0
 11
1431.0
 21
546.5
 31
0.0
  0
LINE
  8
0
  6
CONTINUOUS
 62
     1
 10
1528.0
 20
547.5
 30
0.0
 11
1428.0
 21
547.5
 31
0.0
  0
LINE
  8
0
  6
CONTINUOUS
 62
     1
 10
1433.0
 20
599.5
 30
0.0
 11
1523.0
 21
599.5
 31
0.0
  0
ARC
  8
0
  6
CONTINUOUS
 62
     1
 10
1424.0
 20
711.5
 30
0.0
 40
5.0
 50
90.0
 51
180.0
  0
ARC
  8
0
  6
CONTINUOUS
 62
     1
 10
1532.0
 20
711.5
 30
0.0
 40
5.0
 50
0.0
 51
90.0
  0
CIRCLE
  8
0
  6
CONTINUOUS
 62
     1
 10
1525.0
 20
704.5
 30
0.0
 40
9.0
  0
ARC
  8
0
  6
CONTINUOUS
 62
     1
 10
1532.0
 20
603.5
 30
0.0
 40
5.0
 50
270.0
 51
360.0
  0
ARC
  8
0
  6
CONTINUOUS
 62
     1
 10
1424.0
 20
603.5
 30
0.0
 40
5.0
 50
180.0
 51
270.0
  0
LINE
  8
0
  6
CONTINUOUS
 62
     1
 10
1537.0
 20
681.025046491
 30
0.0
 11
1537.0
 21
711.5
 31
0.0
  0
LINE
  8
0
  6
CONTINUOUS
 62
     1
 10
1537.0
 20
633.974953509
 30
0.0
 11
1537.0
 21
603.5
 31
0.0
  0
LINE
  8
0
  6
CONTINUOUS
 62
     1
 10
1523.0
 20
598.5
 30
0.0
 11
1532.0
 21
598.5
 31
0.0
  0
LINE
  8
0
  6
CONTINUOUS
 62
     1
 10
1433.0
 20
598.5
 30
0.0
 11
1424.0
 21
598.5
 31
0.0
  0
ARC
  8
0
  6
CONTINUOUS
 62
     1
 10
1431.0
 20
610.5
 30
0.0
 40
9.0
 50
77.327684064
 51
282.116861929
  0
ARC
  8
0
  6
CONTINUOUS
 62
     1
 10
1525.0
 20
610.5
 30
0.0
 40
9.0
 50
257.883138071
 51
102.672315936
  0
LINE
  8
0
  6
CONTINUOUS
 62
     1
 10
1505.5
 20
682.5
 30
0.0
 11
1490.5
 21
682.5
 31
0.0
  0
LINE
  8
0
  6
CONTINUOUS
 62
     1
 10
1510.0
 20
635.5
 30
0.0
 11
1510.0
 21
679.5
 31
0.0
  0
LINE
  8
0
  6
CONTINUOUS
 62
     1
 10
1516.0
 20
645.0
 30
0.0
 11
1516.0
 21
670.0
 31
0.0
  0
LINE
  8
0
  6
CONTINUOUS
 62
     1
 10
1516.0
 20
670.0
 30
0.0
 11
1510.0
 21
670.0
 31
0.0
  0
LINE
  8
0
  6
CONTINUOUS
 62
     1
 10
1516.0
 20
645.0
 30
0.0
 11
1510.0
 21
645.0
 31
0.0
  0
LINE
  8
0
  6
CONTINUOUS
 62
     1
 10
1510.0
 20
679.5
 30
0.0
 11
1505.5
 21
679.5
 31
0.0
  0
LINE
  8
0
  6
CONTINUOUS
 62
     1
 10
1510.0
 20
635.5
 30
0.0
 11
1505.5
 21
635.5
 31
0.0
  0
CIRCLE
  8
0
  6
CONTINUOUS
 62
     1
 10
1512.0
 20
657.5
 30
0.0
 40
2.0
  0
LINE
  8
0
  6
CONTINUOUS
 62
     1
 10
1446.0
 20
635.5
 30
0.0
 11
1446.0
 21
679.5
 31
0.0
  0
LINE
  8
0
  6
CONTINUOUS
 62
     1
 10
1440.0
 20
645.0
 30
0.0
 11
1440.0
 21
670.0
 31
0.0
  0
LINE
  8
0
  6
CONTINUOUS
 62
     1
 10
1440.0
 20
670.0
 30
0.0
 11
1446.0
 21
670.0
 31
0.0
  0
LINE
  8
0
  6
CONTINUOUS
 62
     1
 10
1440.0
 20
645.0
 30
0.0
 11
1446.0
 21
645.0
 31
0.0
  0
LINE
  8
0
  6
CONTINUOUS
 62
     1
 10
1446.0
 20
679.5
 30
0.0
 11
1450.5
 21
679.5
 31
0.0
  0
LINE
  8
0
  6
CONTINUOUS
 62
     1
 10
1446.0
 20
635.5
 30
0.0
 11
1450.5
 21
635.5
 31
0.0
  0
CIRCLE
  8
0
  6
CONTINUOUS
 62
     1
 10
1444.0
 20
657.5
 30
0.0
 40
2.0
  0
LINE
  8
0
  6
CONTINUOUS
 62
     1
 10
1490.5
 20
645.0
 30
0.0
 11
1465.5
 21
645.0
 31
0.0
  0
LINE
  8
0
  6
CONTINUOUS
 62
     1
 10
1490.5
 20
670.0
 30
0.0
 11
1465.5
 21
670.0
 31
0.0
  0
LINE
  8
0
  6
CONTINUOUS
 62
     1
 10
1465.5
 20
645.0
 30
0.0
 11
1490.5
 21
645.0
 31
0.0
  0
LINE
  8
0
  6
CONTINUOUS
 62
     1
 10
1465.5
 20
670.0
 30
0.0
 11
1490.5
 21
670.0
 31
0.0
  0
LINE
  8
0
  6
CONTINUOUS
 62
     1
 10
1450.5
 20
682.5
 30
0.0
 11
1490.5
 21
682.5
 31
0.0
  0
LINE
  8
0
  6
CONTINUOUS
 62
     1
 10
1505.5
 20
632.5
 30
0.0
 11
1505.5
 21
682.5
 31
0.0
  0
LINE
  8
0
  6
CONTINUOUS
 62
     1
 10
1450.5
 20
632.5
 30
0.0
 11
1505.5
 21
632.5
 31
0.0
  0
LINE
  8
0
  6
CONTINUOUS
 62
     1
 10
1490.5
 20
632.5
 30
0.0
 11
1490.5
 21
682.5
 31
0.0
  0
LINE
  8
0
  6
CONTINUOUS
 62
     1
 10
1465.5
 20
632.5
 30
0.0
 11
1465.5
 21
682.5
 31
0.0
  0
LINE
  8
0
  6
CONTINUOUS
 62
     1
 10
1450.5
 20
632.5
 30
0.0
 11
1450.5
 21
682.5
 31
0.0
  0
LINE
  8
0
  6
CONTINUOUS
 62
     1
 10
1529.0
 20
580.0
 30
0.0
 11
1549.0
 21
580.0
 31
0.0
  0
LINE
  8
0
  6
CONTINUOUS
 62
     1
 10
1407.0
 20
580.0
 30
0.0
 11
1427.0
 21
580.0
 31
0.0
  0
LINE
  8
0
  6
CONTINUOUS
 62
     1
 10
1555.0
 20
586.0
 30
0.0
 11
1555.0
 21
636.139279073
 31
0.0
  0
LINE
  8
0
  6
CONTINUOUS
 62
     1
 10
1401.0
 20
586.0
 30
0.0
 11
1401.0
 21
636.139279073
 31
0.0
  0
LINE
  8
0
  6
LTYPE1
 62
     2
 10
1423.0
 20
647.5
 30
0.0
 11
1423.0
 21
667.5
 31
0.0
  0
LINE
  8
0
  6
LTYPE1
 62
     2
 10
1423.0
 20
667.5
 30
0.0
 11
1398.0
 21
667.5
 31
0.0
  0
LINE
  8
0
  6
LTYPE1
 62
     2
 10
1423.0
 20
647.5
 30
0.0
 11
1398.0
 21
647.5
 31
0.0
  0
LINE
  8
0
  6
LTYPE1
 62
     2
 10
1533.0
 20
647.5
 30
0.0
 11
1533.0
 21
667.5
 31
0.0
  0
LINE
  8
0
  6
LTYPE1
 62
     2
 10
1533.0
 20
667.5
 30
0.0
 11
1558.0
 21
667.5
 31
0.0
  0
LINE
  8
0
  6
LTYPE1
 62
     2
 10
1533.0
 20
647.5
 30
0.0
 11
1558.0
 21
647.5
 31
0.0
  0
LINE
  8
0
  6
LTYPE2
 62
     2
 10
1523.0
 20
542.8
 30
0.0
 11
1523.0
 21
561.5
 31
0.0
  0
LINE
  8
0
  6
LTYPE2
 62
     2
 10
1433.0
 20
542.8
 30
0.0
 11
1433.0
 21
561.5
 31
0.0
  0
LINE
  8
0
  6
LTYPE2
 62
     2
 10
1443.4
 20
704.5
 30
0.0
 11
1419.6
 21
704.5
 31
0.0
  0
LINE
  8
0
  6
LTYPE2
 62
     2
 10
1431.0
 20
693.165527109
 30
0.0
 11
1431.0
 21
715.265527109
 31
0.0
  0
LINE
  8
0
  6
LTYPE2
 62
     2
 10
1512.6
 20
704.5
 30
0.0
 11
1536.4
 21
704.5
 31
0.0
  0
LINE
  8
0
  6
LTYPE2
 62
     2
 10
1525.0
 20
693.165527109
 30
0.0
 11
1525.0
 21
715.265527109
 31
0.0
  0
LINE
  8
0
  6
LTYPE2
 62
     2
 10
1512.6
 20
610.5
 30
0.0
 11
1536.4
 21
610.5
 31
0.0
  0
LINE
  8
0
  6
LTYPE2
 62
     2
 10
1443.4
 20
610.5
 30
0.0
 11
1419.6
 21
610.5
 31
0.0
  0
LINE
  8
0
  6
LTYPE2
 62
     2
 10
1431.0
 20
600.65
 30
0.0
 11
1431.0
 21
623.75
 31
0.0
  0
LINE
  8
0
  6
LTYPE2
 62
     2
 10
1512.6
 20
610.5
 30
0.0
 11
1536.4
 21
610.5
 31
0.0
  0
LINE
  8
0
  6
LTYPE2
 62
     2
 10
1525.0
 20
600.65
 30
0.0
 11
1525.0
 21
623.75
 31
0.0
  0
LINE
  8
0
  6
LTYPE5
 62
     2
 10
1511.9
 20
653.5
 30
0.0
 11
1511.9
 21
661.7
 31
0.0
  0
LINE
  8
0
  6
LTYPE1
 62
     2
 10
1510.0
 20
670.0
 30
0.0
 11
1490.5
 21
670.0
 31
0.0
  0
LINE
  8
0
  6
LTYPE1
 62
     2
 10
1510.0
 20
645.0
 30
0.0
 11
1490.5
 21
645.0
 31
0.0
  0
LINE
  8
0
  6
LTYPE5
 62
     2
 10
1444.1
 20
653.5
 30
0.0
 11
1444.1
 21
661.7
 31
0.0
  0
LINE
  8
0
  6
LTYPE1
 62
     2
 10
1446.0
 20
670.0
 30
0.0
 11
1465.5
 21
670.0
 31
0.0
  0
LINE
  8
0
  6
LTYPE1
 62
     2
 10
1446.0
 20
645.0
 30
0.0
 11
1465.5
 21
645.0
 31
0.0
  0
LINE
  8
0
  6
CONTINUOUS
 62
     2
 10
1532.5
 20
546.5
 30
0.0
 11
1634.372218677
 21
546.5
 31
0.0
  0
LINE
  8
0
  6
CONTINUOUS
 62
     2
 10
1401.0
 20
578.5
 30
0.0
 11
1401.0
 21
490.8
 31
0.0
  0
LINE
  8
0
  6
CONTINUOUS
 62
     2
 10
1401.0
 20
498.3
 30
0.0
 11
1413.074072829
 21
495.064761936
 31
0.0
  0
LINE
  8
0
  6
CONTINUOUS
 62
     2
 10
1401.0
 20
498.3
 30
0.0
 11
1413.074072829
 21
501.535238064
 31
0.0
  0
LINE
  8
0
  6
CONTINUOUS
 62
     2
 10
1401.0
 20
498.3
 30
0.0
 11
1555.0
 21
498.3
 31
0.0
  0
LINE
  8
0
  6
CONTINUOUS
 62
     2
 10
1555.0
 20
498.3
 30
0.0
 11
1542.925927171
 21
501.535238064
 31
0.0
  0
LINE
  8
0
  6
CONTINUOUS
 62
     2
 10
1555.0
 20
498.3
 30
0.0
 11
1542.925927171
 21
495.064761936
 31
0.0
  0
LINE
  8
0
  6
CONTINUOUS
 62
     2
 10
1555.0
 20
578.5
 30
0.0
 11
1555.0
 21
490.8
 31
0.0
  0
LINE
  8
0
  6
CONTINUOUS
 62
     2
 10
1398.0
 20
457.8375
 30
0.0
 11
1410.074072829
 21
454.602261936
 31
0.0
  0
LINE
  8
0
  6
CONTINUOUS
 62
     2
 10
1398.0
 20
457.8375
 30
0.0
 11
1410.074072829
 21
461.072738064
 31
0.0
  0
LINE
  8
0
  6
CONTINUOUS
 62
     2
 10
1398.0
 20
457.8375
 30
0.0
 11
1558.0
 21
457.8375
 31
0.0
  0
LINE
  8
0
  6
CONTINUOUS
 62
     2
 10
1558.0
 20
457.8375
 30
0.0
 11
1545.925927171
 21
461.072738064
 31
0.0
  0
LINE
  8
0
  6
CONTINUOUS
 62
     2
 10
1558.0
 20
457.8375
 30
0.0
 11
1545.925927171
 21
454.602261936
 31
0.0
  0
LINE
  8
0
  6
CONTINUOUS
 62
     2
 10
1558.0
 20
629.0
 30
0.0
 11
1558.0
 21
450.3375
 31
0.0
  0
LINE
  8
0
  6
LTYPE5
 62
     2
 10
1388.7
 20
657.5
 30
0.0
 11
1516.0
 21
657.5
 31
0.0
  0
LINE
  8
0
  6
LTYPE5
 62
     2
 10
1587.0
 20
657.5
 30
0.0
 11
1440.0
 21
657.5
 31
0.0
  0
CIRCLE
  8
0
  6
CONTINUOUS
 62
     2
 10
1478.0
 20
572.0
 30
0.0
 40
10.4775
  0
CIRCLE
  8
0
  6
CONTINUOUS
 62
     2
 10
1478.0
 20
572.0
 30
0.0
 40
9.3155
  0
LINE
  8
0
  6
LTYPE3
 62
     2
 10
1497.9
 20
572.0
 30
0.0
 11
1457.2
 21
572.0
 31
0.0
  0
LINE
  8
0
  6
CONTINUOUS
 62
     1
 10
1419.0
 20
704.6
 30
0.0
 11
1419.0
 21
711.5
 31
0.0
  0
ARC
  8
0
  6
CONTINUOUS
 62
     1
 10
1431.0
 20
704.5
 30
0.0
 40
9.0
 50
0.0
 51
4.497151615
  0
ARC
  8
0
  6
CONTINUOUS
 62
     1
 10
1478.0
 20
657.5
 30
0.0
 40
55.0
 50
46.933927913
 51
47.005647371
  0
LINE
  8
0
  6
CONTINUOUS
 62
     1
 10
1523.0
 20
598.0
 30
0.0
 11
1523.0
 21
625.877223398
 31
0.0
  0
LINE
  8
0
  6
CONTINUOUS
 62
     1
 10
1558.0
 20
636.5
 30
0.0
 11
1527.0
 21
632.772550418
 31
0.0
  0
LINE
  8
0
  6
CONTINUOUS
 62
     1
 10
1419.0
 20
627.777223398
 30
0.0
 11
1419.0
 21
603.5
 31
0.0
  0
LINE
  8
0
  6
CONTINUOUS
 62
     1
 10
1433.0
 20
598.0
 30
0.0
 11
1433.0
 21
622.377223398
 31
0.0
  0
LINE
  8
0
  6
CONTINUOUS
 62
     2
 10
1565.5
 20
667.5
 30
0.0
 11
1612.0
 21
667.5
 31
0.0
  0
LINE
  8
0
  6
CONTINUOUS
 62
     2
 10
1565.5
 20
647.5
 30
0.0
 11
1612.0
 21
647.5
 31
0.0
  0
ARC
  8
0
  6
CONTINUOUS
 62
     1
 10
1478.0
 20
657.5
 30
0.0
 40
55.0
 50
44.926070003
 51
117.826662939
  0
LINE
  8
0
  6
LTYPE2
 62
     2
 10
1472.4
 20
792.5
 30
0.0
 11
1484.4
 21
792.5
 31
0.0
  0
LINE
  8
0
  6
LTYPE2
 62
     2
 10
1478.0
 20
907.5
 30
0.0
 11
1478.0
 21
838.5
 31
0.0
  0
LINE
  8
0
  6
CONTINUOUS
 62
     1
 10
1508.0
 20
867.5
 30
0.0
 11
1508.0
 21
870.5
 31
0.0
  0
ARC
  8
0
  6
CONTINUOUS
 62
     1
 10
1504.0
 20
864.5
 30
0.0
 40
3.0
 50
90.0
 51
180.0
  0
LINE
  8
0
  6
CONTINUOUS
 62
     1
 10
1501.0
 20
853.653619242
 30
0.0
 11
1501.0
 21
864.5
 31
0.0
  0
ARC
  8
0
  6
CONTINUOUS
 62
     1
 10
1497.0
 20
853.653619242
 30
0.0
 40
4.0
 50
304.936144888
 51
0.0
  0
ARC
  8
0
  6
CONTINUOUS
 62
     1
 10
1452.0
 20
864.5
 30
0.0
 40
3.0
 50
0.0
 51
90.0
  0
LINE
  8
0
  6
CONTINUOUS
 62
     1
 10
1455.0
 20
853.653619242
 30
0.0
 11
1455.0
 21
864.5
 31
0.0
  0
ARC
  8
0
  6
CONTINUOUS
 62
     1
 10
1459.0
 20
853.653619242
 30
0.0
 40
4.0
 50
180.0
 51
235.063855112
  0
CIRCLE
  8
0
  6
CONTINUOUS
 62
     1
 10
1478.0
 20
892.5
 30
0.0
 40
17.0
  0
LINE
  8
0
  6
LTYPE3
 62
     2
 10
1455.0
 20
892.5
 30
0.0
 11
1501.0
 21
892.5
 31
0.0
  0
ARC
  8
0
  6
CONTINUOUS
 62
     1
 10
1436.0
 20
914.520045888
 30
0.0
 40
2.0
 50
90.0
 51
180.0
  0
ARC
  8
0
  6
CONTINUOUS
 62
     1
 10
1444.0
 20
920.5
 30
0.0
 40
2.0
 50
90.0
 51
180.0
  0
LINE
  8
0
  6
CONTINUOUS
 62
     1
 10
1444.0
 20
922.5
 30
0.0
 11
1512.0
 21
922.5
 31
0.0
  0
ARC
  8
0
  6
CONTINUOUS
 62
     1
 10
1512.0
 20
920.5
 30
0.0
 40
2.0
 50
0.0
 51
90.0
  0
LINE
  8
0
  6
CONTINUOUS
 62
     1
 10
1520.0
 20
916.520045888
 30
0.0
 11
1436.0
 21
916.520045888
 31
0.0
  0
ARC
  8
0
  6
CONTINUOUS
 62
     1
 10
1520.0
 20
914.520045888
 30
0.0
 40
2.0
 50
0.0
 51
90.0
  0
ARC
  8
0
  6
CONTINUOUS
 62
     1
 10
1436.0
 20
918.520045888
 30
0.0
 40
2.0
 50
90.0
 51
180.0
  0
ARC
  8
0
  6
CONTINUOUS
 62
     1
 10
1444.0
 20
911.5
 30
0.0
 40
2.0
 50
90.0
 51
180.0
  0
LINE
  8
0
  6
CONTINUOUS
 62
     1
 10
1444.0
 20
913.5
 30
0.0
 11
1512.0
 21
913.5
 31
0.0
  0
ARC
  8
0
  6
CONTINUOUS
 62
     1
 10
1512.0
 20
911.5
 30
0.0
 40
2.0
 50
0.0
 51
90.0
  0
LINE
  8
0
  6
CONTINUOUS
 62
     1
 10
1520.0
 20
920.520045888
 30
0.0
 11
1436.0
 21
920.520045888
 31
0.0
  0
ARC
  8
0
  6
CONTINUOUS
 62
     1
 10
1520.0
 20
918.520045888
 30
0.0
 40
2.0
 50
0.0
 51
90.0
  0
LINE
  8
0
  6
CONTINUOUS
 62
     1
 10
1448.0
 20
867.5
 30
0.0
 11
1508.0
 21
867.5
 31
0.0
  0
LINE
  8
0
  6
CONTINUOUS
 62
     1
 10
1448.0
 20
867.5
 30
0.0
 11
1448.0
 21
870.5
 31
0.0
  0
LINE
  8
0
  6
CONTINUOUS
 62
     1
 10
1514.0
 20
872.5
 30
0.0
 11
1520.0
 21
872.5
 31
0.0
  0
LINE
  8
0
  6
CONTINUOUS
 62
     1
 10
1522.0
 20
874.5
 30
0.0
 11
1522.0
 21
918.520045888
 31
0.0
  0
ARC
  8
0
  6
CONTINUOUS
 62
     1
 10
1520.0
 20
874.5
 30
0.0
 40
2.0
 50
270.0
 51
0.0
  0
LINE
  8
0
  6
CONTINUOUS
 62
     1
 10
1514.0
 20
872.5
 30
0.0
 11
1514.0
 21
911.5
 31
0.0
  0
ARC
  8
0
  6
CONTINUOUS
 62
     1
 10
1512.0
 20
872.5
 30
0.0
 40
2.0
 50
270.0
 51
0.0
  0
LINE
  8
0
  6
CONTINUOUS
 62
     1
 10
1442.0
 20
872.5
 30
0.0
 11
1442.0
 21
911.5
 31
0.0
  0
LINE
  8
0
  6
CONTINUOUS
 62
     1
 10
1444.0
 20
870.5
 30
0.0
 11
1512.0
 21
870.5
 31
0.0
  0
ARC
  8
0
  6
CONTINUOUS
 62
     1
 10
1444.0
 20
872.5
 30
0.0
 40
2.0
 50
180.0
 51
270.0
  0
LINE
  8
0
  6
CONTINUOUS
 62
     1
 10
1442.0
 20
872.5
 30
0.0
 11
1436.0
 21
872.5
 31
0.0
  0
LINE
  8
0
  6
CONTINUOUS
 62
     1
 10
1434.0
 20
874.5
 30
0.0
 11
1434.0
 21
918.520045888
 31
0.0
  0
ARC
  8
0
  6
CONTINUOUS
 62
     1
 10
1436.0
 20
874.5
 30
0.0
 40
2.0
 50
180.0
 51
270.0
  0
CIRCLE
  8
0
  6
CONTINUOUS
 62
     2
 10
1478.0
 20
892.5
 30
0.0
 40
15.0
  0
CIRCLE
  8
0
  6
CONTINUOUS
 62
     1
 10
1478.0
 20
792.5
 30
0.0
 40
63.5
  0
ARC
  8
0
  6
CONTINUOUS
 62
     1
 10
1492.987995196
 20
838.1
 30
0.0
 40
8.0
 50
200.487315115
 51
251.805127661
  0
ARC
  8
0
  6
CONTINUOUS
 62
     1
 10
1463.012004804
 20
838.1
 30
0.0
 40
8.0
 50
288.194872339
 51
339.512684885
  0
ARC
  8
0
  6
CONTINUOUS
 62
     1
 10
1478.0
 20
832.5
 30
0.0
 40
8.0
 50
20.487315115
 51
159.512540111
  0
ARC
  8
0
  6
CONTINUOUS
 62
     1
 10
1492.987995196
 20
746.9
 30
0.0
 40
8.0
 50
108.194872339
 51
159.512684885
  0
ARC
  8
0
  6
CONTINUOUS
 62
     1
 10
1463.012004804
 20
746.9
 30
0.0
 40
8.0
 50
20.487315115
 51
71.805127661
  0
ARC
  8
0
  6
CONTINUOUS
 62
     1
 10
1478.0
 20
752.5
 30
0.0
 40
8.0
 50
200.487459889
 51
339.512684885
  0
ARC
  8
0
  6
CONTINUOUS
 62
     1
 10
1478.0
 20
792.5
 30
0.0
 40
40.0
 50
108.194872339
 51
251.805127661
  0
ARC
  8
0
  6
CONTINUOUS
 62
     1
 10
1524.0
 20
792.5
 30
0.0
 40
9.0
 50
278.674045508
 51
81.325934821
  0
CIRCLE
  8
0
  6
CONTINUOUS
 62
     1
 10
1478.0
 20
792.5
 30
0.0
 40
23.0
  0
ARC
  8
0
  6
CONTINUOUS
 62
     1
 10
1478.0
 20
792.5
 30
0.0
 40
40.0
 50
25.554707728
 51
71.805142343
  0
ARC
  8
0
  6
CONTINUOUS
 62
     1
 10
1478.0
 20
792.5
 30
0.0
 40
40.0
 50
288.194857657
 51
334.445306215
  0
LINE
  8
0
  6
CONTINUOUS
 62
     2
 10
1521.0
 20
809.5
 30
0.0
 11
1521.0
 21
773.5
 31
0.0
  0
LINE
  8
0
  6
CONTINUOUS
 62
     1
 10
1522.0
 20
808.6
 30
0.0
 11
1520.0
 21
808.6
 31
0.0
  0
LINE
  8
0
  6
CONTINUOUS
 62
     1
 10
1520.0
 20
808.6
 30
0.0
 11
1518.0
 21
797.0
 31
0.0
  0
LINE
  8
0
  6
CONTINUOUS
 62
     1
 10
1522.0
 20
808.6
 30
0.0
 11
1524.0
 21
797.0
 31
0.0
  0
LINE
  8
0
  6
CONTINUOUS
 62
     1
 10
1522.0
 20
776.4
 30
0.0
 11
1520.0
 21
776.4
 31
0.0
  0
LINE
  8
0
  6
CONTINUOUS
 62
     1
 10
1520.0
 20
776.4
 30
0.0
 11
1518.0
 21
788.0
 31
0.0
  0
LINE
  8
0
  6
CONTINUOUS
 62
     1
 10
1522.0
 20
776.4
 30
0.0
 11
1524.0
 21
788.0
 31
0.0
  0
ARC
  8
0
  6
CONTINUOUS
 62
     1
 10
1527.619565217
 20
816.2254873
 30
0.0
 40
15.0
 50
205.554693785
 51
235.747997449
  0
ARC
  8
0
  6
CONTINUOUS
 62
     1
 10
1527.619565217
 20
816.2254873
 30
0.0
 40
15.0
 50
252.681090544
 51
261.325827457
  0
ARC
  8
0
  6
CONTINUOUS
 62
     1
 10
1527.619565217
 20
768.7745127
 30
0.0
 40
15.0
 50
124.468179449
 51
154.445306215
  0
ARC
  8
0
  6
CONTINUOUS
 62
     1
 10
1527.619565217
 20
768.7745127
 30
0.0
 40
15.0
 50
98.674172543
 51
107.318909456
  0
CIRCLE
  8
0
  6
CONTINUOUS
 62
     1
 10
1521.0
 20
792.5
 30
0.0
 40
3.0
  0
LINE
  8
0
  6
CONTINUOUS
 62
     1
 10
1518.021304702
 20
797.123567272
 30
0.0
 11
1517.978695298
 21
787.876432728
 31
0.0
  0
LINE
  8
0
  6
CONTINUOUS
 62
     1
 10
1524.021304702
 20
787.876432728
 30
0.0
 11
1523.978695298
 21
797.123567272
 31
0.0
  0
ARC
  8
0
  6
CONTINUOUS
 62
     1
 10
1521.0
 20
792.5
 30
0.0
 40
5.5
 50
304.570397879
 51
57.208673154
  0
ARC
  8
0
  6
CONTINUOUS
 62
     1
 10
1521.0
 20
792.5
 30
0.0
 40
5.5
 50
122.791326846
 51
235.429602121
  0
LINE
  8
0
  6
CONTINUOUS
 62
     1
 10
1480.35
 20
839.570319398
 30
0.0
 11
1475.65
 21
839.570319398
 31
0.0
  0
LINE
  8
0
  6
CONTINUOUS
 62
     1
 10
1475.65
 20
839.570319398
 30
0.0
 11
1473.3
 21
835.5
 31
0.0
  0
LINE
  8
0
  6
CONTINUOUS
 62
     1
 10
1473.3
 20
835.5
 30
0.0
 11
1475.65
 21
831.429680602
 31
0.0
  0
LINE
  8
0
  6
CONTINUOUS
 62
     1
 10
1475.65
 20
831.429680602
 30
0.0
 11
1480.35
 21
831.429680602
 31
0.0
  0
LINE
  8
0
  6
CONTINUOUS
 62
     1
 10
1480.35
 20
831.429680602
 30
0.0
 11
1482.7
 21
835.5
 31
0.0
  0
LINE
  8
0
  6
CONTINUOUS
 62
     1
 10
1482.7
 20
835.5
 30
0.0
 11
1480.35
 21
839.570319398
 31
0.0
  0
LINE
  8
0
  6
CONTINUOUS
 62
     2
 10
1484.0
 20
835.5
 30
0.0
 11
1472.0
 21
835.5
 31
0.0
  0
LINE
  8
0
  6
CONTINUOUS
 62
     1
 10
1480.35
 20
745.429680602
 30
0.0
 11
1475.65
 21
745.429680602
 31
0.0
  0
LINE
  8
0
  6
CONTINUOUS
 62
     1
 10
1475.65
 20
745.429680602
 30
0.0
 11
1473.3
 21
749.5
 31
0.0
  0
LINE
  8
0
  6
CONTINUOUS
 62
     1
 10
1473.3
 20
749.5
 30
0.0
 11
1475.65
 21
753.570319398
 31
0.0
  0
LINE
  8
0
  6
CONTINUOUS
 62
     1
 10
1475.65
 20
753.570319398
 30
0.0
 11
1480.35
 21
753.570319398
 31
0.0
  0
LINE
  8
0
  6
CONTINUOUS
 62
     1
 10
1480.35
 20
753.570319398
 30
0.0
 11
1482.7
 21
749.5
 31
0.0
  0
LINE
  8
0
  6
CONTINUOUS
 62
     1
 10
1482.7
 20
749.5
 30
0.0
 11
1480.35
 21
745.429680602
 31
0.0
  0
LINE
  8
0
  6
CONTINUOUS
 62
     2
 10
1484.0
 20
749.5
 30
0.0
 11
1472.0
 21
749.5
 31
0.0
  0
LINE
  8
0
  6
CONTINUOUS
 62
     1
 10
1473.063655198
 20
795.35
 30
0.0
 11
1473.063655198
 21
789.65
 31
0.0
  0
LINE
  8
0
  6
CONTINUOUS
 62
     1
 10
1473.063655198
 20
789.65
 30
0.0
 11
1478.0
 21
786.8
 31
0.0
  0
LINE
  8
0
  6
CONTINUOUS
 62
     1
 10
1478.0
 20
786.8
 30
0.0
 11
1482.936344802
 21
789.65
 31
0.0
  0
LINE
  8
0
  6
CONTINUOUS
 62
     1
 10
1482.936344802
 20
789.65
 30
0.0
 11
1482.936344802
 21
795.35
 31
0.0
  0
LINE
  8
0
  6
CONTINUOUS
 62
     1
 10
1482.936344802
 20
795.35
 30
0.0
 11
1478.0
 21
798.2
 31
0.0
  0
LINE
  8
0
  6
CONTINUOUS
 62
     1
 10
1478.0
 20
798.2
 30
0.0
 11
1473.063655198
 21
795.35
 31
0.0
  0
CIRCLE
  8
0
  6
CONTINUOUS
 62
     1
 10
1478.0
 20
792.5
 30
0.0
 40
6.5
  0
LINE
  8
0
  6
CONTINUOUS
 62
     1
 10
1435.788059223
 20
844.957131306
 30
0.0
 11
1428.288059223
 21
844.957131306
 31
0.0
  0
LINE
  8
0
  6
CONTINUOUS
 62
     1
 10
1428.288059223
 20
844.957131306
 30
0.0
 11
1424.538059223
 21
838.461940777
 31
0.0
  0
LINE
  8
0
  6
CONTINUOUS
 62
     1
 10
1424.538059223
 20
838.461940777
 30
0.0
 11
1428.288059223
 21
831.966750249
 31
0.0
  0
LINE
  8
0
  6
CONTINUOUS
 62
     1
 10
1437.728418262
 20
841.596330864
 30
0.0
 11
1435.788059223
 21
844.957131306
 31
0.0
  0
LINE
  8
0
  6
LTYPE1
 62
     1
 10
1435.788059223
 20
831.966750249
 30
0.0
 11
1439.538059223
 21
838.461940777
 31
0.0
  0
LINE
  8
0
  6
LTYPE1
 62
     1
 10
1439.538059223
 20
838.461940777
 30
0.0
 11
1437.728418262
 21
841.596330864
 31
0.0
  0
LINE
  8
0
  6
LTYPE1
 62
     1
 10
1428.288059223
 20
831.966750249
 30
0.0
 11
1435.788059223
 21
831.966750249
 31
0.0
  0
ARC
  8
0
  6
LTYPE3
 62
     2
 10
1478.0
 20
792.5
 30
0.0
 40
65.0
 50
125.31362776
 51
144.542425518
  0
LINE
  8
0
  6
LTYPE3
 62
     2
 10
1438.903669136
 20
831.596330864
 30
0.0
 11
1426.0
 21
844.5
 31
0.0
  0
LINE
  8
0
  6
CONTINUOUS
 62
     1
 10
1520.211940777
 20
844.957131306
 30
0.0
 11
1527.711940777
 21
844.957131306
 31
0.0
  0
LINE
  8
0
  6
CONTINUOUS
 62
     1
 10
1527.711940777
 20
844.957131306
 30
0.0
 11
1531.461940777
 21
838.461940777
 31
0.0
  0
LINE
  8
0
  6
CONTINUOUS
 62
     1
 10
1531.461940777
 20
838.461940777
 30
0.0
 11
1527.711940777
 21
831.966750249
 31
0.0
  0
LINE
  8
0
  6
CONTINUOUS
 62
     1
 10
1518.271581738
 20
841.596330864
 30
0.0
 11
1520.211940777
 21
844.957131306
 31
0.0
  0
LINE
  8
0
  6
LTYPE1
 62
     1
 10
1520.211940777
 20
831.966750249
 30
0.0
 11
1516.461940777
 21
838.461940777
 31
0.0
  0
LINE
  8
0
  6
LTYPE1
 62
     1
 10
1516.461940777
 20
838.461940777
 30
0.0
 11
1518.271581738
 21
841.596330864
 31
0.0
  0
LINE
  8
0
  6
LTYPE1
 62
     1
 10
1527.711940777
 20
831.966750249
 30
0.0
 11
1520.211940777
 21
831.966750249
 31
0.0
  0
ARC
  8
0
  6
LTYPE3
 62
     2
 10
1478.0
 20
792.5
 30
0.0
 40
65.0
 50
35.457574482
 51
54.68637224
  0
LINE
  8
0
  6
LTYPE3
 62
     2
 10
1517.096330864
 20
831.596330864
 30
0.0
 11
1530.0
 21
844.5
 31
0.0
  0
LINE
  8
0
  6
CONTINUOUS
 62
     1
 10
1435.788059223
 20
740.042868694
 30
0.0
 11
1428.288059223
 21
740.042868694
 31
0.0
  0
LINE
  8
0
  6
CONTINUOUS
 62
     1
 10
1428.288059223
 20
740.042868694
 30
0.0
 11
1424.538059223
 21
746.538059223
 31
0.0
  0
LINE
  8
0
  6
CONTINUOUS
 62
     1
 10
1424.538059223
 20
746.538059223
 30
0.0
 11
1428.288059223
 21
753.033249751
 31
0.0
  0
LINE
  8
0
  6
CONTINUOUS
 62
     1
 10
1437.728418262
 20
743.403669136
 30
0.0
 11
1435.788059223
 21
740.042868694
 31
0.0
  0
LINE
  8
0
  6
LTYPE1
 62
     1
 10
1435.788059223
 20
753.033249751
 30
0.0
 11
1439.538059223
 21
746.538059223
 31
0.0
  0
LINE
  8
0
  6
LTYPE1
 62
     1
 10
1439.538059223
 20
746.538059223
 30
0.0
 11
1437.728418262
 21
743.403669136
 31
0.0
  0
LINE
  8
0
  6
LTYPE1
 62
     1
 10
1428.288059223
 20
753.033249751
 30
0.0
 11
1435.788059223
 21
753.033249751
 31
0.0
  0
ARC
  8
0
  6
LTYPE3
 62
     2
 10
1478.0
 20
792.5
 30
0.0
 40
65.0
 50
215.457574482
 51
234.68637224
  0
LINE
  8
0
  6
LTYPE3
 62
     2
 10
1438.903669136
 20
753.403669136
 30
0.0
 11
1426.0
 21
740.5
 31
0.0
  0
LINE
  8
0
  6
CONTINUOUS
 62
     1
 10
1520.211940777
 20
740.042868694
 30
0.0
 11
1527.711940777
 21
740.042868694
 31
0.0
  0
LINE
  8
0
  6
CONTINUOUS
 62
     1
 10
1527.711940777
 20
740.042868694
 30
0.0
 11
1531.461940777
 21
746.538059223
 31
0.0
  0
LINE
  8
0
  6
CONTINUOUS
 62
     1
 10
1531.461940777
 20
746.538059223
 30
0.0
 11
1527.711940777
 21
753.033249751
 31
0.0
  0
LINE
  8
0
  6
CONTINUOUS
 62
     1
 10
1518.271581738
 20
743.403669136
 30
0.0
 11
1520.211940777
 21
740.042868694
 31
0.0
  0
LINE
  8
0
  6
LTYPE1
 62
     1
 10
1520.211940777
 20
753.033249751
 30
0.0
 11
1516.461940777
 21
746.538059223
 31
0.0
  0
LINE
  8
0
  6
LTYPE1
 62
     1
 10
1516.461940777
 20
746.538059223
 30
0.0
 11
1518.271581738
 21
743.403669136
 31
0.0
  0
LINE
  8
0
  6
LTYPE1
 62
     1
 10
1527.711940777
 20
753.033249751
 30
0.0
 11
1520.211940777
 21
753.033249751
 31
0.0
  0
ARC
  8
0
  6
LTYPE3
 62
     2
 10
1478.0
 20
792.5
 30
0.0
 40
65.0
 50
305.31362776
 51
324.542425518
  0
LINE
  8
0
  6
LTYPE3
 62
     2
 10
1517.096330864
 20
753.403669136
 30
0.0
 11
1530.0
 21
740.5
 31
0.0
  0
LINE
  8
0
  6
CONTINUOUS
 62
     1
 10
1401.0
 20
709.3
 30
0.0
 11
1401.0
 21
770.797465586
 31
0.0
  0
ARC
  8
0
  6
CONTINUOUS
 62
     1
 10
1478.0
 20
792.5
 30
0.0
 40
80.0
 50
110.364134806
 51
0.0
  0
ARC
  8
0
  6
CONTINUOUS
 62
     1
 10
1478.0
 20
792.5
 30
0.0
 40
80.0
 50
0.0
 51
69.635865194
  0
ARC
  8
0
  6
LTYPE1
 62
     1
 10
1478.0
 20
792.5
 30
0.0
 40
80.0
 50
69.635865194
 51
110.364134806
  0
LINE
  8
0
  6
CONTINUOUS
 62
     1
 10
1453.020008006
 20
716.5
 30
0.0
 11
1424.0
 21
716.5
 31
0.0
  0
LINE
  8
0
  6
CONTINUOUS
 62
     1
 10
1501.020008006
 20
716.5
 30
0.0
 11
1532.0
 21
716.5
 31
0.0
  0
LINE
  8
0
  6
CONTINUOUS
 62
     2
 10
1515.122218677
 20
922.5
 30
0.0
 11
1634.372218677
 21
922.5
 31
0.0
  0
LINE
  8
0
  6
CONTINUOUS
 62
     1
 10
1555.0
 20
678.860720927
 30
0.0
 11
1555.0
 21
770.797465586
 31
0.0
  0
LINE
  8
0
  6
CONTINUOUS
 62
     1
 10
1398.0
 20
636.5
 30
0.0
 11
1398.0
 21
678.5
 31
0.0
  0
LINE
  8
0
  6
CONTINUOUS
 62
     1
 10
1401.0
 20
679.5
 30
0.0
 11
1401.0
 21
770.797465586
 31
0.0
  0
LINE
  8
0
  6
CONTINUOUS
 62
     2
 10
1398.0
 20
633.5
 30
0.0
 11
1398.0
 21
450.3375
 31
0.0
  0
LINE
  8
0
  6
CONTINUOUS
 62
     1
 10
1419.0
 20
681.025046491
 30
0.0
 11
1419.0
 21
704.6
 31
0.0
  0
ARC
  8
0
  6
CONTINUOUS
 62
     1
 10
1478.0
 20
657.5
 30
0.0
 40
55.0
 50
117.826662939
 51
294.694833081
  0
LINE
  8
0
  6
CONTINUOUS
 62
     1
 10
1398.0
 20
678.5
 30
0.0
 11
1428.863835437
 21
682.211077113
 31
0.0
  0
LINE
  8
0
  6
CONTINUOUS
 62
     1
 10
1398.0
 20
636.5
 30
0.0
 11
1428.863835437
 21
632.788922887
 31
0.0
  0
LINE
  8
0
  6
CONTINUOUS
 62
     1
 10
1558.0
 20
678.5
 30
0.0
 11
1527.136164563
 21
682.211077113
 31
0.0
  0
ARC
  8
0
  6
CONTINUOUS
 62
     1
 10
1478.0
 20
657.5
 30
0.0
 40
55.0
 50
294.694833081
 51
44.926070003
  0
CIRCLE
  8
0
  6
CONTINUOUS
 62
     1
 10
1431.000030518
 20
704.5
 30
0.0
 40
9.0
  0
TEXT
  8
0
  6
CONTINUOUS
 62
     2
 10
1456.25
 20
503.3
 30
0.0
 40
18.0
  1
１５４
 50
0.0
 41
0.9
 51
0.0
  7
KANJI22
  0
TEXT
  8
0
  6
CONTINUOUS
 62
     2
 10
1456.25
 20
462.8375
 30
0.0
 40
18.0
  1
１６０
 50
0.0
 41
0.9
 51
0.0
  7
KANJI22
  0
TEXT
  8
0
  6
CONTINUOUS
 62
     2
 10
1599.222218677
 20
673.25
 30
0.0
 40
18.0
  1
φ２０Ｈ１０深さ２５
 50
90.0
 41
0.9
 51
0.0
  7
KANJI22
  0
LINE
  8
0
  6
LTYPE2
 62
     2
 10
1478.0
 20
927.5
 30
0.0
 11
1478.0
 21
531.0
 31
0.0
  0
LINE
  8
0
  6
LTYPE5
 62
     2
 10
1364.324000264
 20
792.5
 30
0.0
 11
1570.0
 21
792.5
 31
0.0
  0
LINE
  8
0
  6
CONTINUOUS
 62
     1
 10
1438.3
 20
546.5
 30
0.0
 11
1427.7
 21
546.5
 31
0.0
  0
ARC
  8
0
  6
CONTINUOUS
 62
     1
 10
1433.4
 20
547.5
 30
0.0
 40
5.0
 50
272.3
 51
348.5
  0
ARC
  8
0
  6
CONTINUOUS
 62
     1
 10
1432.6
 20
547.5
 30
0.0
 40
5.0
 50
191.5
 51
267.7
  0
LINE
  8
0
  6
CONTINUOUS
 62
     1
 10
1433.6
 20
542.5
 30
0.0
 11
1432.4
 21
542.5
 31
0.0
  0
LINE
  8
0
  6
LTYPE4
 62
     2
 10
1433.0
 20
539.1
 30
0.0
 11
1433.0
 21
552.5
 31
0.0
  0
LINE
  8
0
  6
CONTINUOUS
 62
     1
 10
1528.3
 20
546.5
 30
0.0
 11
1517.7
 21
546.5
 31
0.0
  0
ARC
  8
0
  6
CONTINUOUS
 62
     1
 10
1523.4
 20
547.5
 30
0.0
 40
5.0
 50
272.3
 51
348.5
  0
ARC
  8
0
  6
CONTINUOUS
 62
     1
 10
1522.6
 20
547.5
 30
0.0
 40
5.0
 50
191.5
 51
267.7
  0
LINE
  8
0
  6
CONTINUOUS
 62
     1
 10
1523.6
 20
542.5
 30
0.0
 11
1522.4
 21
542.5
 31
0.0
  0
LINE
  8
0
  6
LTYPE4
 62
     2
 10
1523.0
 20
539.1
 30
0.0
 11
1523.0
 21
552.5
 31
0.0
  0
LINE
  8
0
  6
CONTINUOUS
 62
     2
 10
1634.372218677
 20
546.5
 30
0.0
 11
1685.122218677
 21
546.5
 31
0.0
  0
LINE
  8
0
  6
CONTINUOUS
 62
     2
 10
1677.622218677
 20
546.5
 30
0.0
 11
1680.85745674
 21
558.574072829
 31
0.0
  0
LINE
  8
0
  6
CONTINUOUS
 62
     2
 10
1677.622218677
 20
546.5
 30
0.0
 11
1674.386980613
 21
558.574072829
 31
0.0
  0
LINE
  8
0
  6
CONTINUOUS
 62
     2
 10
1604.5
 20
657.5
 30
0.0
 11
1649.372218677
 21
657.5
 31
0.0
  0
LINE
  8
0
  6
CONTINUOUS
 62
     2
 10
1641.872218677
 20
657.5
 30
0.0
 11
1638.636980613
 21
645.425927171
 31
0.0
  0
LINE
  8
0
  6
CONTINUOUS
 62
     2
 10
1641.872218677
 20
657.5
 30
0.0
 11
1645.10745674
 21
645.425927171
 31
0.0
  0
LINE
  8
0
  6
CONTINUOUS
 62
     2
 10
1641.872218677
 20
657.5
 30
0.0
 11
1641.872218677
 21
546.5
 31
0.0
  0
LINE
  8
0
  6
CONTINUOUS
 62
     2
 10
1641.872218677
 20
546.5
 30
0.0
 11
1645.10745674
 21
558.574072829
 31
0.0
  0
LINE
  8
0
  6
CONTINUOUS
 62
     2
 10
1641.872218677
 20
546.5
 30
0.0
 11
1638.636980613
 21
558.574072829
 31
0.0
  0
LINE
  8
0
  6
CONTINUOUS
 62
     2
 10
1641.872218677
 20
657.5
 30
0.0
 11
1645.10745674
 21
669.574072829
 31
0.0
  0
LINE
  8
0
  6
CONTINUOUS
 62
     2
 10
1641.872218677
 20
657.5
 30
0.0
 11
1638.636980613
 21
669.574072829
 31
0.0
  0
LINE
  8
0
  6
CONTINUOUS
 62
     2
 10
1604.5
 20
667.5
 30
0.0
 11
1607.735238064
 21
679.574072829
 31
0.0
  0
LINE
  8
0
  6
CONTINUOUS
 62
     2
 10
1604.5
 20
667.5
 30
0.0
 11
1601.264761936
 21
679.574072829
 31
0.0
  0
LINE
  8
0
  6
CONTINUOUS
 62
     2
 10
1604.5
 20
647.5
 30
0.0
 11
1601.264761936
 21
635.425927171
 31
0.0
  0
LINE
  8
0
  6
CONTINUOUS
 62
     2
 10
1604.5
 20
647.5
 30
0.0
 11
1607.735238064
 21
635.425927171
 31
0.0
  0
LINE
  8
0
  6
CONTINUOUS
 62
     2
 10
1641.872218677
 20
792.5
 30
0.0
 11
1638.636980613
 21
780.425927171
 31
0.0
  0
LINE
  8
0
  6
CONTINUOUS
 62
     2
 10
1641.872218677
 20
792.5
 30
0.0
 11
1645.10745674
 21
780.425927171
 31
0.0
  0
LINE
  8
0
  6
CONTINUOUS
 62
     2
 10
1621.0
 20
792.5
 30
0.0
 11
1649.372218677
 21
792.5
 31
0.0
  0
LINE
  8
0
  6
CONTINUOUS
 62
     2
 10
1641.872218677
 20
792.5
 30
0.0
 11
1645.10745674
 21
804.574072829
 31
0.0
  0
LINE
  8
0
  6
CONTINUOUS
 62
     2
 10
1641.872218677
 20
792.5
 30
0.0
 11
1638.636980613
 21
804.574072829
 31
0.0
  0
LINE
  8
0
  6
LTYPE5
 62
     2
 10
1609.872218677
 20
792.5
 30
0.0
 11
1643.0
 21
792.5
 31
0.0
  0
LINE
  8
0
  6
CONTINUOUS
 62
     2
 10
1641.872218677
 20
657.5
 30
0.0
 11
1641.872218677
 21
792.5
 31
0.0
  0
LINE
  8
0
  6
CONTINUOUS
 62
     2
 10
1677.622218677
 20
922.5
 30
0.0
 11
1674.386980613
 21
910.425927171
 31
0.0
  0
LINE
  8
0
  6
CONTINUOUS
 62
     2
 10
1677.622218677
 20
922.5
 30
0.0
 11
1680.85745674
 21
910.425927171
 31
0.0
  0
LINE
  8
0
  6
CONTINUOUS
 62
     2
 10
1634.372218677
 20
922.5
 30
0.0
 11
1685.122218677
 21
922.5
 31
0.0
  0
LINE
  8
0
  6
CONTINUOUS
 62
     2
 10
1641.872218677
 20
922.5
 30
0.0
 11
1638.636980613
 21
910.425927171
 31
0.0
  0
LINE
  8
0
  6
CONTINUOUS
 62
     2
 10
1641.872218677
 20
922.5
 30
0.0
 11
1645.10745674
 21
910.425927171
 31
0.0
  0
LINE
  8
0
  6
CONTINUOUS
 62
     2
 10
1641.872218677
 20
792.5
 30
0.0
 11
1641.872218677
 21
922.5
 31
0.0
  0
LINE
  8
0
  6
CONTINUOUS
 62
     2
 10
1677.622218677
 20
546.5
 30
0.0
 11
1677.622218677
 21
922.5
 31
0.0
  0
TEXT
  8
0
  6
CONTINUOUS
 62
     2
 10
1636.872218677
 20
580.25
 30
0.0
 40
18.0
  1
１１１
 50
90.0
 41
0.9
 51
0.0
  7
KANJI22
  0
TEXT
  8
0
  6
CONTINUOUS
 62
     2
 10
1636.872218677
 20
713.75
 30
0.0
 40
18.0
  1
１３５
 50
90.0
 41
0.9
 51
0.0
  7
KANJI22
  0
TEXT
  8
0
  6
CONTINUOUS
 62
     2
 10
1636.872218677
 20
838.85
 30
0.0
 40
18.0
  1
１３０
 50
90.0
 41
0.9
 51
0.0
  7
KANJI22
  0
TEXT
  8
0
  6
CONTINUOUS
 62
     2
 10
1672.622218677
 20
725.35
 30
0.0
 40
18.0
  1
３７６
 50
90.0
 41
0.9
 51
0.0
  7
KANJI22
  0
LINE
  8
0
  6
CONTINUOUS
 62
     2
 10
1604.5
 20
832.0
 30
0.0
 11
1604.5
 21
628.75
 31
0.0
  0
TEXT
  8
0
  6
CONTINUOUS
 62
     2
 10
1781.92
 20
686.9
 30
12.0
 40
24.0
  1
特記事項
 50
0.0
 41
0.9
 51
0.0
  7
KANJI31
  0
TEXT
  8
0
  6
CONTINUOUS
 62
     2
 10
1697.92
 20
638.9
 30
6.171428571
 40
21.6
  1
１。運転時は必ずピストンロッドの回転防止を行って下さい。
 50
0.0
 41
0.857142857
 51
0.0
  7
KANJI32
  0
TEXT
  8
0
  6
CONTINUOUS
 62
     2
 10
1697.92
 20
598.1
 30
6.156
 40
21.6
  1
２。モートル：全閉自冷かご形３０分定格
 50
0.0
 41
0.857222222
 51
0.0
  7
KANJI33
  0
TEXT
  8
0
  6
CONTINUOUS
 62
     2
 10
1697.5199098
 20
557.3000036
 30
6.156
 40
21.6
  1
３。呼称ストロークは、機械的ストロークです。
 50
0.0
 41
0.857222222
 51
0.0
  7
KANJI33
  0
TEXT
  8
0
  6
CONTINUOUS
 62
     2
 10
1697.5199098
 20
522.8000036
 30
6.156
 40
21.6
  1
　　必ず、常用はストローク両端に余裕を取って下さい。
 50
0.0
 41
0.857222222
 51
0.0
  7
KANJI33
  0
LINE
  8
0
  6
CONTINUOUS
 62
     2
 10
1765.12
 20
680.3
 30
0.0
 11
1911.52
 21
680.3
 31
0.0
  0
TEXT
  8
0
  6
CONTINUOUS
 62
     2
 10
585.712591263
 20
314.671507451
 30
0.0
 40
20.0
  1
推力リミッタの作動値は、約１２００ｋｇ（設計値）
 50
0.0
 41
0.925
 51
0.0
  7
KANJI30
  0
LINE
  8
0
  6
CONTINUOUS
 62
     2
 10
583.712591263
 20
306.671507451
 30
0.0
 11
1010.92
 21
306.671507451
 31
0.0
  0
TEXT
  8
0
  6
CONTINUOUS
 62
     2
 10
1698.4319098
 20
483.1520036
 30
6.156
 40
21.6
  1
　　前後の推奨余裕寸法は、各々１５ｍｍです。
 50
0.0
 41
0.857222222
 51
0.0
  7
KANJI33
  0
TEXT
  8
0
  6
CONTINUOUS
 62
     3
 10
334.466667
 20
887.766683
 30
1.5
 40
15.0
  1
手動軸□８
 50
0.0
 41
0.9
 51
0.0
  7
KANJI34
  0
LINE
  8
0
  6
CONTINUOUS
 62
     1
 10
1009.12
 20
1502.24
 30
0.0
 11
1786.72
 21
1502.24
 31
0.0
  0
LINE
  8
0
  6
CONTINUOUS
 62
     1
 10
1009.12
 20
1468.64
 30
0.0
 11
1786.72
 21
1468.64
 31
0.0
  0
TEXT
  8
0
  6
CONTINUOUS
 62
     2
 10
1057.12
 20
1478.24
 30
1.536
 40
15.36
  1
形
 50
0.0
 41
0.9
 51
0.0
  7
KANJI35
  0
TEXT
  8
0
  6
CONTINUOUS
 62
     2
 10
1150.72
 20
1478.24
 30
1.536
 40
15.36
  1
式
 50
0.0
 41
0.9
 51
0.0
  7
KANJI35
  0
TEXT
  8
0
  6
CONTINUOUS
 62
     2
 10
1223.2
 20
1477.28
 30
1.44
 40
14.4
  1
ストローク
 50
0.0
 41
0.9
 51
0.0
  7
KANJI36
  0
TEXT
  8
0
  6
CONTINUOUS
 62
     2
 10
1315.36
 20
1476.32
 30
0.0
 40
14.4
  1
ｍｉｎ　
 50
0.0
 41
0.9
 51
0.0
  7
KANJI37
  0
TEXT
  8
0
  6
CONTINUOUS
 62
     2
 10
1411.36
 20
1476.32
 30
0.0
 40
14.4
  1
ｍｉｎ　
 50
0.0
 41
0.9
 51
0.0
  7
KANJI37
  0
TEXT
  8
0
  6
CONTINUOUS
 62
     2
 10
1603.36
 20
1476.32
 30
0.0
 40
14.4
  1
ｍｉｎ　
 50
0.0
 41
0.9
 51
0.0
  7
KANJI37
  0
TEXT
  8
0
  6
CONTINUOUS
 62
     2
 10
1364.32
 20
1477.28
 30
1.68
 40
16.8
  1
ＡＬ
 50
0.0
 41
0.9
 51
0.0
  7
KANJI38
  0
TEXT
  8
0
  6
CONTINUOUS
 62
     2
 10
1460.32
 20
1477.28
 30
1.68
 40
16.8
  1
Ｌ
 50
0.0
 41
0.9
 51
0.0
  7
KANJI38
  0
TEXT
  8
0
  6
CONTINUOUS
 62
     2
 10
1541.92
 20
1477.28
 30
1.68
 40
16.8
  1
Ｃ
 50
0.0
 41
0.9
 51
0.0
  7
KANJI38
  0
TEXT
  8
0
  6
CONTINUOUS
 62
     2
 10
1652.32
 20
1477.28
 30
1.68
 40
16.8
  1
Ｐ
 50
0.0
 41
0.9
 51
0.0
  7
KANJI38
  0
TEXT
  8
0
  6
CONTINUOUS
 62
     2
 10
1751.08
 20
1476.92
 30
0.0
 40
12.96
  1
（ｋｇ）
 50
0.0
 41
0.740740741
 51
0.0
  7
KANJI39
  0
TEXT
  8
0
  6
CONTINUOUS
 62
     2
 10
1693.48
 20
1476.68
 30
1.44
 40
16.8
  1
概算重量
 50
0.0
 41
0.857142857
 51
0.0
  7
KANJI40
  0
TEXT
  8
0
  6
CONTINUOUS
 62
     2
 10
1232.32
 20
1443.08
 30
1.44
 40
14.4
  1
　２００
 50
0.0
 41
0.9
 51
0.0
  7
KANJI36
  0
TEXT
  8
0
  6
CONTINUOUS
 62
     2
 10
1232.32
 20
1409.48
 30
1.44
 40
14.4
  1
　３００
 50
0.0
 41
0.9
 51
0.0
  7
KANJI36
  0
TEXT
  8
0
  6
CONTINUOUS
 62
     2
 10
1232.32
 20
1275.08
 30
1.44
 40
14.4
  1
　７００
 50
0.0
 41
0.9
 51
0.0
  7
KANJI36
  0
TEXT
  8
0
  6
CONTINUOUS
 62
     2
 10
1232.32
 20
1342.28
 30
1.44
 40
14.4
  1
　５００
 50
0.0
 41
0.9
 51
0.0
  7
KANJI36
  0
TEXT
  8
0
  6
CONTINUOUS
 62
     2
 10
1232.32
 20
1375.88
 30
1.44
 40
14.4
  1
　４００
 50
0.0
 41
0.9
 51
0.0
  7
KANJI36
  0
TEXT
  8
0
  6
CONTINUOUS
 62
     2
 10
1232.32
 20
1308.68
 30
1.44
 40
14.4
  1
　６００
 50
0.0
 41
0.9
 51
0.0
  7
KANJI36
  0
TEXT
  8
0
  6
CONTINUOUS
 62
     2
 10
1232.32
 20
1241.48
 30
1.44
 40
14.4
  1
　８００
 50
0.0
 41
0.9
 51
0.0
  7
KANJI36
  0
LINE
  8
0
  6
CONTINUOUS
 62
     1
 10
1009.12
 20
1066.04
 30
0.0
 11
1786.72
 21
1066.04
 31
0.0
  0
LINE
  8
0
  6
CONTINUOUS
 62
     1
 10
1009.12
 20
1502.24
 30
0.0
 11
1009.12
 21
1066.04
 31
0.0
  0
LINE
  8
0
  6
CONTINUOUS
 62
     1
 10
1210.72
 20
1502.24
 30
0.0
 11
1210.72
 21
1066.04
 31
0.0
  0
LINE
  8
0
  6
CONTINUOUS
 62
     2
 10
1306.72
 20
1502.24
 30
0.0
 11
1306.72
 21
1066.04
 31
0.0
  0
LINE
  8
0
  6
CONTINUOUS
 62
     2
 10
1402.72
 20
1502.24
 30
0.0
 11
1402.72
 21
1066.04
 31
0.0
  0
LINE
  8
0
  6
CONTINUOUS
 62
     2
 10
1498.72
 20
1502.24
 30
0.0
 11
1498.72
 21
1066.04
 31
0.0
  0
LINE
  8
0
  6
CONTINUOUS
 62
     2
 10
1594.72
 20
1502.24
 30
0.0
 11
1594.72
 21
1066.04
 31
0.0
  0
LINE
  8
0
  6
CONTINUOUS
 62
     2
 10
1690.72
 20
1502.24
 30
0.0
 11
1690.72
 21
1066.04
 31
0.0
  0
LINE
  8
0
  6
CONTINUOUS
 62
     1
 10
1786.72
 20
1502.24
 30
0.0
 11
1786.72
 21
1066.04
 31
0.0
  0
TEXT
  8
0
  6
CONTINUOUS
 62
     2
 10
1232.32
 20
1174.28
 30
1.44
 40
14.4
  1
１０００
 50
0.0
 41
0.9
 51
0.0
  7
KANJI36
  0
TEXT
  8
0
  6
CONTINUOUS
 62
     2
 10
1232.32
 20
1207.88
 30
1.44
 40
14.4
  1
　９００
 50
0.0
 41
0.9
 51
0.0
  7
KANJI36
  0
TEXT
  8
0
  6
CONTINUOUS
 62
     2
 10
1232.32
 20
1140.88
 30
1.44
 40
14.4
  1
１１００
 50
0.0
 41
0.9
 51
0.0
  7
KANJI36
  0
TEXT
  8
0
  6
CONTINUOUS
 62
     2
 10
1232.32
 20
1107.28
 30
1.44
 40
14.4
  1
１２００
 50
0.0
 41
0.9
 51
0.0
  7
KANJI36
  0
TEXT
  8
0
  6
CONTINUOUS
 62
     2
 10
1520.32
 20
1443.08
 30
1.44
 40
14.4
  1
　４３７
 50
0.0
 41
0.9
 51
0.0
  7
KANJI36
  0
TEXT
  8
0
  6
CONTINUOUS
 62
     2
 10
1520.32
 20
1409.48
 30
1.44
 40
14.4
  1
　５３７
 50
0.0
 41
0.9
 51
0.0
  7
KANJI36
  0
TEXT
  8
0
  6
CONTINUOUS
 62
     2
 10
1520.32
 20
1375.88
 30
1.44
 40
14.4
  1
　６３７
 50
0.0
 41
0.9
 51
0.0
  7
KANJI36
  0
TEXT
  8
0
  6
CONTINUOUS
 62
     2
 10
1520.32
 20
1342.28
 30
1.44
 40
14.4
  1
　７３７
 50
0.0
 41
0.9
 51
0.0
  7
KANJI36
  0
TEXT
  8
0
  6
CONTINUOUS
 62
     2
 10
1520.32
 20
1308.68
 30
1.44
 40
14.4
  1
　８７７
 50
0.0
 41
0.9
 51
0.0
  7
KANJI36
  0
TEXT
  8
0
  6
CONTINUOUS
 62
     2
 10
1520.32
 20
1275.08
 30
1.44
 40
14.4
  1
　９７７
 50
0.0
 41
0.9
 51
0.0
  7
KANJI36
  0
TEXT
  8
0
  6
CONTINUOUS
 62
     2
 10
1520.32
 20
1241.48
 30
1.44
 40
14.4
  1
１０７７
 50
0.0
 41
0.9
 51
0.0
  7
KANJI36
  0
TEXT
  8
0
  6
CONTINUOUS
 62
     2
 10
1520.32
 20
1207.88
 30
1.44
 40
14.4
  1
１１７７
 50
0.0
 41
0.9
 51
0.0
  7
KANJI36
  0
TEXT
  8
0
  6
CONTINUOUS
 62
     2
 10
1520.32
 20
1174.28
 30
1.44
 40
14.4
  1
１２７７
 50
0.0
 41
0.9
 51
0.0
  7
KANJI36
  0
TEXT
  8
0
  6
CONTINUOUS
 62
     2
 10
1520.32
 20
1140.88
 30
1.44
 40
14.4
  1
１３７７
 50
0.0
 41
0.9
 51
0.0
  7
KANJI36
  0
TEXT
  8
0
  6
CONTINUOUS
 62
     2
 10
1520.32
 20
1107.28
 30
1.44
 40
14.4
  1
１４７７
 50
0.0
 41
0.9
 51
0.0
  7
KANJI36
  0
TEXT
  8
0
  6
CONTINUOUS
 62
     2
 10
1424.32
 20
1443.08
 30
1.44
 40
14.4
  1
　５３２
 50
0.0
 41
0.9
 51
0.0
  7
KANJI36
  0
TEXT
  8
0
  6
CONTINUOUS
 62
     2
 10
1424.32
 20
1409.48
 30
1.44
 40
14.4
  1
　６３２
 50
0.0
 41
0.9
 51
0.0
  7
KANJI36
  0
TEXT
  8
0
  6
CONTINUOUS
 62
     2
 10
1712.32
 20
1443.08
 30
1.44
 40
14.4
  1
　５２
 50
0.0
 41
0.9
 51
0.0
  7
KANJI36
  0
TEXT
  8
0
  6
CONTINUOUS
 62
     2
 10
1712.32
 20
1409.48
 30
1.44
 40
14.4
  1
　５５
 50
0.0
 41
0.9
 51
0.0
  7
KANJI36
  0
LINE
  8
0
  6
CONTINUOUS
 62
     2
 10
1009.12
 20
1435.04
 30
0.0
 11
1786.72
 21
1435.04
 31
0.0
  0
LINE
  8
0
  6
CONTINUOUS
 62
     2
 10
1009.12
 20
1401.44
 30
0.0
 11
1786.72
 21
1401.44
 31
0.0
  0
LINE
  8
0
  6
CONTINUOUS
 62
     2
 10
1009.12
 20
1233.44
 30
0.0
 11
1786.72
 21
1233.44
 31
0.0
  0
LINE
  8
0
  6
CONTINUOUS
 62
     2
 10
1009.12
 20
1334.24
 30
0.0
 11
1786.72
 21
1334.24
 31
0.0
  0
LINE
  8
0
  6
CONTINUOUS
 62
     2
 10
1009.12
 20
1367.84
 30
0.0
 11
1786.72
 21
1367.84
 31
0.0
  0
LINE
  8
0
  6
CONTINUOUS
 62
     2
 10
1009.12
 20
1267.04
 30
0.0
 11
1786.72
 21
1267.04
 31
0.0
  0
LINE
  8
0
  6
CONTINUOUS
 62
     2
 10
1009.12
 20
1300.64
 30
0.0
 11
1786.72
 21
1300.64
 31
0.0
  0
TEXT
  8
0
  6
CONTINUOUS
 62
     2
 10
1616.32
 20
1443.08
 30
1.44
 40
14.4
  1
　　４５
 50
0.0
 41
0.9
 51
0.0
  7
KANJI36
  0
TEXT
  8
0
  6
CONTINUOUS
 62
     2
 10
1616.32
 20
1409.48
 30
1.44
 40
14.4
  1
　　４５
 50
0.0
 41
0.9
 51
0.0
  7
KANJI36
  0
TEXT
  8
0
  6
CONTINUOUS
 62
     2
 10
1616.32
 20
1375.88
 30
1.44
 40
14.4
  1
　　８５
 50
0.0
 41
0.9
 51
0.0
  7
KANJI36
  0
TEXT
  8
0
  6
CONTINUOUS
 62
     2
 10
1616.32
 20
1342.28
 30
1.44
 40
14.4
  1
　１１２
 50
0.0
 41
0.9
 51
0.0
  7
KANJI36
  0
TEXT
  8
0
  6
CONTINUOUS
 62
     2
 10
1616.32
 20
1308.68
 30
1.44
 40
14.4
  1
　１２８
 50
0.0
 41
0.9
 51
0.0
  7
KANJI36
  0
TEXT
  8
0
  6
CONTINUOUS
 62
     2
 10
1616.32
 20
1275.08
 30
1.44
 40
14.4
  1
　１４８
 50
0.0
 41
0.9
 51
0.0
  7
KANJI36
  0
TEXT
  8
0
  6
CONTINUOUS
 62
     2
 10
1616.32
 20
1241.48
 30
1.44
 40
14.4
  1
　１６８
 50
0.0
 41
0.9
 51
0.0
  7
KANJI36
  0
LINE
  8
0
  6
CONTINUOUS
 62
     2
 10
1009.12
 20
1199.84
 30
0.0
 11
1786.72
 21
1199.84
 31
0.0
  0
LINE
  8
0
  6
CONTINUOUS
 62
     2
 10
1009.12
 20
1166.24
 30
0.0
 11
1786.72
 21
1166.24
 31
0.0
  0
TEXT
  8
0
  6
CONTINUOUS
 62
     2
 10
1616.32
 20
1207.88
 30
1.44
 40
14.4
  1
　１９８
 50
0.0
 41
0.9
 51
0.0
  7
KANJI36
  0
TEXT
  8
0
  6
CONTINUOUS
 62
     2
 10
1616.32
 20
1174.28
 30
1.44
 40
14.4
  1
　２３１
 50
0.0
 41
0.9
 51
0.0
  7
KANJI36
  0
LINE
  8
0
  6
CONTINUOUS
 62
     2
 10
1009.12
 20
1132.64
 30
0.0
 11
1786.72
 21
1132.64
 31
0.0
  0
LINE
  8
0
  6
CONTINUOUS
 62
     2
 10
1009.12
 20
1099.04
 30
0.0
 11
1786.72
 21
1099.04
 31
0.0
  0
TEXT
  8
0
  6
CONTINUOUS
 62
     2
 10
1616.32
 20
1140.68
 30
1.44
 40
14.4
  1
　２４５
 50
0.0
 41
0.9
 51
0.0
  7
KANJI36
  0
TEXT
  8
0
  6
CONTINUOUS
 62
     2
 10
1616.32
 20
1107.08
 30
1.44
 40
14.4
  1
　２６８
 50
0.0
 41
0.9
 51
0.0
  7
KANJI36
  0
TEXT
  8
0
  6
CONTINUOUS
 62
     2
 10
1024.72
 20
1442.72
 30
0.96
 40
14.4
  1
ＭＣＬＣ１Ｂ－　　２Ｊ
 50
0.0
 41
0.833333333
 51
0.0
  7
KANJI41
  0
TEXT
  8
0
  6
CONTINUOUS
 62
     2
 10
1024.72
 20
1409.12
 30
0.96
 40
14.4
  1
ＭＣＬＣ１Ｂ－　　３Ｊ
 50
0.0
 41
0.833333333
 51
0.0
  7
KANJI41
  0
TEXT
  8
0
  6
CONTINUOUS
 62
     2
 10
1024.72
 20
1375.52
 30
0.96
 40
14.4
  1
ＭＣＬＣ１Ｂ－　　４Ｊ
 50
0.0
 41
0.833333333
 51
0.0
  7
KANJI41
  0
TEXT
  8
0
  6
CONTINUOUS
 62
     2
 10
1024.72
 20
1341.92
 30
0.96
 40
14.4
  1
ＭＣＬＣ１Ｂ－　　５Ｊ
 50
0.0
 41
0.833333333
 51
0.0
  7
KANJI41
  0
TEXT
  8
0
  6
CONTINUOUS
 62
     2
 10
1024.72
 20
1308.32
 30
0.96
 40
14.4
  1
ＭＣＬＣ１Ｂ－　　６Ｊ
 50
0.0
 41
0.833333333
 51
0.0
  7
KANJI41
  0
TEXT
  8
0
  6
CONTINUOUS
 62
     2
 10
1024.72
 20
1274.72
 30
0.96
 40
14.4
  1
ＭＣＬＣ１Ｂ－　　７Ｊ
 50
0.0
 41
0.833333333
 51
0.0
  7
KANJI41
  0
TEXT
  8
0
  6
CONTINUOUS
 62
     2
 10
1024.72
 20
1241.12
 30
0.96
 40
14.4
  1
ＭＣＬＣ１Ｂ－　　８Ｊ
 50
0.0
 41
0.833333333
 51
0.0
  7
KANJI41
  0
TEXT
  8
0
  6
CONTINUOUS
 62
     2
 10
1024.72
 20
1207.52
 30
0.96
 40
14.4
  1
ＭＣＬＣ１Ｂ－　　９Ｊ
 50
0.0
 41
0.833333333
 51
0.0
  7
KANJI41
  0
TEXT
  8
0
  6
CONTINUOUS
 62
     2
 10
1024.72
 20
1173.92
 30
0.96
 40
14.4
  1
ＭＣＬＣ１Ｂー　１０Ｊ
 50
0.0
 41
0.833333333
 51
0.0
  7
KANJI41
  0
TEXT
  8
0
  6
CONTINUOUS
 62
     2
 10
1024.72
 20
1106.92
 30
0.96
 40
14.4
  1
ＭＣＬＣ１Ｂ－　１２Ｊ
 50
0.0
 41
0.833333333
 51
0.0
  7
KANJI41
  0
TEXT
  8
0
  6
CONTINUOUS
 62
     2
 10
1024.72
 20
1073.12
 30
0.96
 40
14.4
  1
ＭＣＬＣ１Ｂ－　　　Ｊ
 50
0.0
 41
0.833333333
 51
0.0
  7
KANJI41
  0
TEXT
  8
0
  6
CONTINUOUS
 62
     2
 10
1024.72
 20
1140.52
 30
0.96
 40
14.4
  1
ＭＣＬＣ１Ｂ－　１１Ｊ
 50
0.0
 41
0.833333333
 51
0.0
  7
KANJI41
  0
TEXT
  8
0
  6
CONTINUOUS
 62
     2
 10
1424.32
 20
1375.88
 30
1.44
 40
14.4
  1
　７７２
 50
0.0
 41
0.9
 51
0.0
  7
KANJI36
  0
TEXT
  8
0
  6
CONTINUOUS
 62
     2
 10
1424.32
 20
1342.28
 30
1.44
 40
14.4
  1
　８９９
 50
0.0
 41
0.9
 51
0.0
  7
KANJI36
  0
TEXT
  8
0
  6
CONTINUOUS
 62
     2
 10
1424.32
 20
1275.08
 30
1.44
 40
14.4
  1
１１７５
 50
0.0
 41
0.9
 51
0.0
  7
KANJI36
  0
TEXT
  8
0
  6
CONTINUOUS
 62
     2
 10
1424.32
 20
1241.48
 30
1.44
 40
14.4
  1
１２９５
 50
0.0
 41
0.9
 51
0.0
  7
KANJI36
  0
TEXT
  8
0
  6
CONTINUOUS
 62
     2
 10
1328.32
 20
1241.48
 30
1.44
 40
14.4
  1
１４４１
 50
0.0
 41
0.9
 51
0.0
  7
KANJI36
  0
TEXT
  8
0
  6
CONTINUOUS
 62
     2
 10
1424.32
 20
1207.88
 30
1.44
 40
14.4
  1
１４２５
 50
0.0
 41
0.9
 51
0.0
  7
KANJI36
  0
TEXT
  8
0
  6
CONTINUOUS
 62
     2
 10
1328.32
 20
1207.88
 30
1.44
 40
14.4
  1
１５７１
 50
0.0
 41
0.9
 51
0.0
  7
KANJI36
  0
TEXT
  8
0
  6
CONTINUOUS
 62
     2
 10
1424.32
 20
1174.28
 30
1.44
 40
14.4
  1
１５５８
 50
0.0
 41
0.9
 51
0.0
  7
KANJI36
  0
TEXT
  8
0
  6
CONTINUOUS
 62
     2
 10
1328.32
 20
1174.28
 30
1.44
 40
14.4
  1
１７０４
 50
0.0
 41
0.9
 51
0.0
  7
KANJI36
  0
TEXT
  8
0
  6
CONTINUOUS
 62
     2
 10
1424.32
 20
1140.88
 30
1.44
 40
14.4
  1
１６７２
 50
0.0
 41
0.9
 51
0.0
  7
KANJI36
  0
TEXT
  8
0
  6
CONTINUOUS
 62
     2
 10
1328.32
 20
1140.88
 30
1.44
 40
14.4
  1
１８１８
 50
0.0
 41
0.9
 51
0.0
  7
KANJI36
  0
TEXT
  8
0
  6
CONTINUOUS
 62
     2
 10
1424.32
 20
1107.28
 30
1.44
 40
14.4
  1
１７９５
 50
0.0
 41
0.9
 51
0.0
  7
KANJI36
  0
TEXT
  8
0
  6
CONTINUOUS
 62
     2
 10
1328.32
 20
1107.28
 30
1.44
 40
14.4
  1
１９４１
 50
0.0
 41
0.9
 51
0.0
  7
KANJI36
  0
TEXT
  8
0
  6
CONTINUOUS
 62
     2
 10
1712.32
 20
1375.88
 30
1.44
 40
14.4
  1
　５７
 50
0.0
 41
0.9
 51
0.0
  7
KANJI36
  0
TEXT
  8
0
  6
CONTINUOUS
 62
     2
 10
1712.32
 20
1342.28
 30
1.44
 40
14.4
  1
　５９
 50
0.0
 41
0.9
 51
0.0
  7
KANJI36
  0
TEXT
  8
0
  6
CONTINUOUS
 62
     2
 10
1712.32
 20
1308.68
 30
1.44
 40
14.4
  1
　６０．５
 50
0.0
 41
0.9
 51
0.0
  7
KANJI36
  0
TEXT
  8
0
  6
CONTINUOUS
 62
     2
 10
1712.32
 20
1275.08
 30
1.44
 40
14.4
  1
　６３
 50
0.0
 41
0.9
 51
0.0
  7
KANJI36
  0
TEXT
  8
0
  6
CONTINUOUS
 62
     2
 10
1712.32
 20
1241.48
 30
1.44
 40
14.4
  1
　６５
 50
0.0
 41
0.9
 51
0.0
  7
KANJI36
  0
TEXT
  8
0
  6
CONTINUOUS
 62
     2
 10
1712.32
 20
1207.88
 30
1.44
 40
14.4
  1
　６７
 50
0.0
 41
0.9
 51
0.0
  7
KANJI36
  0
TEXT
  8
0
  6
CONTINUOUS
 62
     2
 10
1712.32
 20
1174.28
 30
1.44
 40
14.4
  1
　６９
 50
0.0
 41
0.9
 51
0.0
  7
KANJI36
  0
TEXT
  8
0
  6
CONTINUOUS
 62
     2
 10
1712.32
 20
1140.88
 30
1.44
 40
14.4
  1
　７１
 50
0.0
 41
0.9
 51
0.0
  7
KANJI36
  0
TEXT
  8
0
  6
CONTINUOUS
 62
     2
 10
1712.32
 20
1107.28
 30
1.44
 40
14.4
  1
　７３
 50
0.0
 41
0.9
 51
0.0
  7
KANJI36
  0
TEXT
  8
0
  6
CONTINUOUS
 62
     2
 10
1328.32
 20
1443.08
 30
1.44
 40
14.4
  1
　６７８
 50
0.0
 41
0.9
 51
0.0
  7
KANJI36
  0
TEXT
  8
0
  6
CONTINUOUS
 62
     2
 10
1328.32
 20
1409.48
 30
1.44
 40
14.4
  1
　７７８
 50
0.0
 41
0.9
 51
0.0
  7
KANJI36
  0
TEXT
  8
0
  6
CONTINUOUS
 62
     2
 10
1328.32
 20
1375.88
 30
1.44
 40
14.4
  1
　９１８
 50
0.0
 41
0.9
 51
0.0
  7
KANJI36
  0
TEXT
  8
0
  6
CONTINUOUS
 62
     2
 10
1328.32
 20
1342.28
 30
1.44
 40
14.4
  1
１０４５
 50
0.0
 41
0.9
 51
0.0
  7
KANJI36
  0
TEXT
  8
0
  6
CONTINUOUS
 62
     2
 10
1328.32
 20
1308.68
 30
1.44
 40
14.4
  1
１２０１
 50
0.0
 41
0.9
 51
0.0
  7
KANJI36
  0
TEXT
  8
0
  6
CONTINUOUS
 62
     2
 10
1328.32
 20
1275.08
 30
1.44
 40
14.4
  1
１３２１
 50
0.0
 41
0.9
 51
0.0
  7
KANJI36
  0
TEXT
  8
0
  6
CONTINUOUS
 62
     2
 10
1424.32
 20
1308.68
 30
1.44
 40
14.4
  1
１０５５
 50
0.0
 41
0.9
 51
0.0
  7
KANJI36
  0
LINE
  8
0
  6
CONTINUOUS
 62
     2
 10
872.603319123
 20
161.283311846
 30
0.0
 11
872.603319123
 21
105.233311846
 31
0.0
  0
LINE
  8
0
  6
CONTINUOUS
 62
     2
 10
713.403319123
 20
147.233311846
 30
0.0
 11
872.603319123
 21
147.233311846
 31
0.0
  0
LINE
  8
0
  6
CONTINUOUS
 62
     2
 10
872.603319123
 20
147.233311846
 30
0.0
 11
864.875912513
 21
149.303864207
 31
0.0
  0
LINE
  8
0
  6
CONTINUOUS
 62
     2
 10
872.603319123
 20
147.233311846
 30
0.0
 11
864.875912513
 21
145.162759485
 31
0.0
  0
TEXT
  8
0
  6
CONTINUOUS
 62
     3
 10
753.553319123
 20
149.233311846
 30
0.0
 40
15.0
  1
常用ストローク
 50
0.0
 41
0.9
 51
0.0
  7
KANJI29
  0
LINE
  8
0
  6
CONTINUOUS
 62
     1
 10
538.0
 20
872.5
 30
0.0
 11
530.0
 21
872.5
 31
0.0
  0
LINE
  8
0
  6
CONTINUOUS
 62
     1
 10
530.0
 20
580.0
 30
0.0
 11
530.0
 21
872.5
 31
0.0
  0
LINE
  8
0
  6
CONTINUOUS
 62
     1
 10
530.0
 20
580.0
 30
0.0
 11
444.0
 21
580.0
 31
0.0
  0
LINE
  8
0
  6
CONTINUOUS
 62
     2
 10
530.0
 20
876.0
 30
0.0
 11
530.0
 21
1013.3
 31
0.0
  0
LINE
  8
0
  6
CONTINUOUS
 62
     1
 10
496.0
 20
867.5
 30
0.0
 11
530.0
 21
867.5
 31
0.0
  0
LINE
  8
0
  6
CONTINUOUS
 62
     1
 10
493.0
 20
841.5
 30
0.0
 11
493.0
 21
864.5
 31
0.0
  0
ARC
  8
0
  6
CONTINUOUS
 62
     1
 10
496.0
 20
864.5
 30
0.0
 40
3.0
 50
90.0
 51
180.0
  0
LINE
  8
0
  6
CONTINUOUS
 62
     1
 10
506.0
 20
873.5
 30
0.0
 11
515.2
 21
873.5
 31
0.0
  0
CIRCLE
  8
0
  6
CONTINUOUS
 62
     1
 10
506.0
 20
887.5
 30
0.0
 40
12.5
  0
LINE
  8
0
  6
CONTINUOUS
 62
     1
 10
506.0
 20
875.0
 30
0.0
 11
515.2
 21
873.5
 31
0.0
  0
ARC
  8
0
  6
CONTINUOUS
 62
     1
 10
506.0
 20
887.5
 30
0.0
 40
20.5
 50
300.423432294
 51
0.0
  0
ARC
  8
0
  6
CONTINUOUS
 62
     1
 10
516.947984073
 20
868.773488336
 30
0.0
 40
1.2
 50
118.393405187
 51
188.554293104
  0
LINE
  8
0
  6
CONTINUOUS
 62
     1
 10
506.0
 20
873.5
 30
0.0
 11
496.8
 21
873.5
 31
0.0
  0
LINE
  8
0
  6
CONTINUOUS
 62
     1
 10
506.0
 20
875.0
 30
0.0
 11
496.8
 21
873.5
 31
0.0
  0
ARC
  8
0
  6
CONTINUOUS
 62
     1
 10
495.052015927
 20
868.773488336
 30
0.0
 40
1.2
 50
351.445706896
 51
61.606594813
  0
ARC
  8
0
  6
CONTINUOUS
 62
     1
 10
506.0
 20
887.5
 30
0.0
 40
20.5
 50
0.0
 51
239.707348078
  0
LINE
  8
0
  6
CONTINUOUS
 62
     1
 10
496.114285714
 20
867.5
 30
0.0
 11
496.8
 21
873.5
 31
0.0
  0
LINE
  8
0
  6
CONTINUOUS
 62
     1
 10
515.885714286
 20
867.5
 30
0.0
 11
515.2
 21
873.5
 31
0.0
  0
LINE
  8
0
  6
LTYPE2
 62
     2
 10
480.475
 20
887.5
 30
0.0
 11
530.0
 21
887.5
 31
0.0
  0
LINE
  8
0
  6
LTYPE2
 62
     2
 10
506.0
 20
856.9
 30
0.0
 11
506.0
 21
910.9
 31
0.0
  0
LINE
  8
0
  6
CONTINUOUS
 62
     1
 10
518.0
 20
768.5
 30
0.0
 11
518.0
 21
835.5
 31
0.0
  0
LINE
  8
0
  6
CONTINUOUS
 62
     1
 10
515.351653344
 20
835.5
 30
0.0
 11
487.0
 21
835.5
 31
0.0
  0
LINE
  8
0
  6
CONTINUOUS
 62
     1
 10
518.328486975
 20
838.127895796
 30
0.0
 11
522.0
 21
867.5
 31
0.0
  0
ARC
  8
0
  6
CONTINUOUS
 62
     1
 10
515.351653344
 20
838.5
 30
0.0
 40
3.0
 50
270.0
 51
352.874983651
  0
LINE
  8
0
  6
CONTINUOUS
 62
     1
 10
512.00001079
 20
762.5
 30
0.0
 11
459.0
 21
762.5
 31
0.0
  0
ARC
  8
0
  6
CONTINUOUS
 62
     1
 10
512.0
 20
768.5
 30
0.0
 40
6.0
 50
270.000103033
 51
0.0
  0
TEXT
  8
0
  6
CONTINUOUS
 62
     2
 10
1643.5200334
 20
137.899994
 30
1.8
 40
21.0
  1
０７．１０．０４
 50
0.0
 41
0.571428571
 51
0.0
  7
KANJI42
  0
LINE
  8
0
  6
CONTINUOUS
 62
     2
 10
1868.92
 20
907.7
 30
0.0
 11
2393.92
 21
907.7
 31
0.0
  0
LINE
  8
0
  6
CONTINUOUS
 62
     2
 10
1868.92
 20
865.7
 30
0.0
 11
2393.92
 21
865.7
 31
0.0
  0
LINE
  8
0
  6
CONTINUOUS
 62
     2
 10
1916.92
 20
1243.7
 30
0.0
 11
1916.92
 21
907.7
 31
0.0
  0
TEXT
  8
0
  6
CONTINUOUS
 62
     2
 10
1901.92
 20
876.5
 30
79.962857143
 40
22.8
  1
付属品
 50
0.0
 41
0.9
 51
0.0
  7
KANJI43
  0
TEXT
  8
0
  6
CONTINUOUS
 62
     2
 10
1901.92
 20
834.5
 30
180.445714286
 40
22.8
  1
台数
 50
0.0
 41
0.9
 51
0.0
  7
KANJI44
  0
LINE
  8
0
  6
CONTINUOUS
 62
     1
 10
1868.92
 20
1639.7
 30
0.0
 11
2393.92
 21
1639.7
 31
0.0
  0
TEXT
  8
0
  6
CONTINUOUS
 62
     2
 10
1943.92
 20
1595.9
 30
17.09964
 40
27.0
  1
マイティシリンダ仕様
 50
0.0
 41
0.9
 51
0.0
  7
KANJI45
  0
LINE
  8
0
  6
CONTINUOUS
 62
     2
 10
1916.92
 20
949.7
 30
0.0
 11
2393.92
 21
949.7
 31
0.0
  0
LINE
  8
0
  6
CONTINUOUS
 62
     2
 10
1916.92
 20
1075.7
 30
0.0
 11
2393.92
 21
1075.7
 31
0.0
  0
LINE
  8
0
  6
CONTINUOUS
 62
     2
 10
1916.92
 20
1117.7
 30
0.0
 11
2393.92
 21
1117.7
 31
0.0
  0
LINE
  8
0
  6
CONTINUOUS
 62
     2
 10
1868.92
 20
1327.7
 30
0.0
 11
2393.92
 21
1327.7
 31
0.0
  0
LINE
  8
0
  6
CONTINUOUS
 62
     2
 10
1868.92
 20
1285.7
 30
0.0
 11
2393.92
 21
1285.7
 31
0.0
  0
LINE
  8
0
  6
CONTINUOUS
 62
     2
 10
1868.92
 20
1243.7
 30
0.0
 11
2393.92
 21
1243.7
 31
0.0
  0
LINE
  8
0
  6
CONTINUOUS
 62
     2
 10
1916.92
 20
1159.7
 30
0.0
 11
2393.92
 21
1159.7
 31
0.0
  0
LINE
  8
0
  6
CONTINUOUS
 62
     2
 10
1916.92
 20
1201.7
 30
0.0
 11
2393.92
 21
1201.7
 31
0.0
  0
LINE
  8
0
  6
CONTINUOUS
 62
     2
 10
1868.92
 20
1537.7
 30
0.0
 11
2393.92
 21
1537.7
 31
0.0
  0
LINE
  8
0
  6
CONTINUOUS
 62
     2
 10
1868.92
 20
1495.7
 30
0.0
 11
2393.92
 21
1495.7
 31
0.0
  0
LINE
  8
0
  6
CONTINUOUS
 62
     2
 10
1868.92
 20
1453.7
 30
0.0
 11
2393.92
 21
1453.7
 31
0.0
  0
LINE
  8
0
  6
CONTINUOUS
 62
     2
 10
1868.92
 20
1411.7
 30
0.0
 11
2393.92
 21
1411.7
 31
0.0
  0
LINE
  8
0
  6
CONTINUOUS
 62
     2
 10
1868.92
 20
1369.7
 30
0.0
 11
2393.92
 21
1369.7
 31
0.0
  0
LINE
  8
0
  6
CONTINUOUS
 62
     2
 10
1868.92
 20
1579.7
 30
0.0
 11
2393.92
 21
1579.7
 31
0.0
  0
TEXT
  8
0
  6
CONTINUOUS
 62
     2
 10
1943.92
 20
1170.5
 30
33.439782857
 40
22.8
  1
電源電圧
 50
0.0
 41
0.9
 51
0.0
  7
KANJI46
  0
TEXT
  8
0
  6
CONTINUOUS
 62
     2
 10
1943.92
 20
1128.5
 30
60.42
 40
22.8
  1
周波数
 50
0.0
 41
0.9
 51
0.0
  7
KANJI47
  0
TEXT
  8
0
  6
CONTINUOUS
 62
     2
 10
1943.92
 20
1086.5
 30
141.36
 40
22.8
  1
電流
 50
0.0
 41
0.9
 51
0.0
  7
KANJI48
  0
TEXT
  8
0
  6
CONTINUOUS
 62
     2
 10
1943.92
 20
1044.5
 30
60.42
 40
22.8
  1
絶縁級
 50
0.0
 41
0.9
 51
0.0
  7
KANJI47
  0
TEXT
  8
0
  6
CONTINUOUS
 62
     2
 10
1901.92
 20
1548.5
 30
180.445714286
 40
22.8
  1
形式
 50
0.0
 41
0.9
 51
0.0
  7
KANJI44
  0
TEXT
  8
0
  6
CONTINUOUS
 62
     2
 10
1901.92
 20
1506.5
 30
180.445714286
 40
22.8
  1
推力
 50
0.0
 41
0.9
 51
0.0
  7
KANJI44
  0
TEXT
  8
0
  6
CONTINUOUS
 62
     2
 10
1901.92
 20
1464.5
 30
29.721428571
 40
22.8
  1
ストローク
 50
0.0
 41
0.9
 51
0.0
  7
KANJI49
  0
TEXT
  8
0
  6
CONTINUOUS
 62
     2
 10
1901.92
 20
1338.5
 30
180.445714286
 40
22.8
  1
構造
 50
0.0
 41
0.9
 51
0.0
  7
KANJI44
  0
TEXT
  8
0
  6
CONTINUOUS
 62
     2
 10
1901.92
 20
1296.5
 30
12.973851429
 40
22.8
  1
過負荷安全装置
 50
0.0
 41
0.9
 51
0.0
  7
KANJI50
  0
TEXT
  8
0
  6
CONTINUOUS
 62
     2
 10
1901.92
 20
1254.5
 30
79.962857143
 40
22.8
  1
塗装色
 50
0.0
 41
0.9
 51
0.0
  7
KANJI43
  0
TEXT
  8
0
  6
CONTINUOUS
 62
     2
 10
1877.92
 20
1380.5
 30
1.954285714
 40
22.8
  1
ピストンロッド回転トルク
 50
0.0
 41
0.9
 51
0.0
  7
KANJI51
  0
LINE
  8
0
  6
CONTINUOUS
 62
     2
 10
1868.92
 20
1033.7
 30
0.0
 11
2393.92
 21
1033.7
 31
0.0
  0
LINE
  8
0
  6
CONTINUOUS
 62
     2
 10
1916.92
 20
991.7
 30
0.0
 11
2393.92
 21
991.7
 31
0.0
  0
TEXT
  8
0
  6
CONTINUOUS
 62
     2
 10
1893.37
 20
1237.7
 30
13.2
 40
21.0
  1
モ　トル仕様
 50
0.0
 41
0.9
 51
0.0
  7
KANJI52
  0
TEXT
  8
0
  6
CONTINUOUS
 62
     2
 10
1893.37
 20
1015.7
 30
1.2
 40
21.0
  1
ブレ　キ
 50
0.0
 41
0.9
 51
0.0
  7
KANJI53
  0
LINE
  8
0
  6
CONTINUOUS
 62
     2
 10
1891.72
 20
965.9
 30
0.0
 11
1891.72
 21
953.3
 31
0.0
  0
TEXT
  8
0
  6
CONTINUOUS
 62
     2
 10
2203.42
 20
1297.7
 30
9.0
 40
21.0
  1
推力リミッタ
 50
0.0
 41
0.9
 51
0.0
  7
KANJI54
  0
TEXT
  8
0
  6
CONTINUOUS
 62
     2
 10
2260.42
 20
1045.7
 30
1.8
 40
18.0
  1
Ｅ
 50
0.0
 41
0.9
 51
0.0
  7
KANJI55
  0
TEXT
  8
0
  6
CONTINUOUS
 62
     2
 10
2216.92
 20
960.5
 30
12.0
 40
21.0
  1
同時切り
 50
0.0
 41
0.9
 51
0.0
  7
KANJI56
  0
TEXT
  8
0
  6
CONTINUOUS
 62
     2
 10
1943.92
 20
1002.5
 30
141.36
 40
22.8
  1
形式
 50
0.0
 41
0.9
 51
0.0
  7
KANJI48
  0
TEXT
  8
0
  6
CONTINUOUS
 62
     2
 10
1943.92
 20
960.5
 30
33.439782857
 40
22.8
  1
操作方式
 50
0.0
 41
0.9
 51
0.0
  7
KANJI46
  0
LINE
  8
0
  6
CONTINUOUS
 62
     2
 10
1891.72
 20
1201.1
 30
0.0
 11
1891.72
 21
1187.3
 31
0.0
  0
TEXT
  8
0
  6
CONTINUOUS
 62
     2
 10
1943.92
 20
1212.5
 30
3.0
 40
22.8
  1
出力　相数　極数
 50
0.0
 41
0.9
 51
0.0
  7
KANJI57
  0
TEXT
  8
0
  6
CONTINUOUS
 62
     2
 10
1901.92
 20
1422.5
 30
12.0
 40
22.8
  1
公称速度
 50
0.0
 41
0.9
 51
0.0
  7
KANJI58
  0
TEXT
  8
0
  6
CONTINUOUS
 62
     2
 10
2025.82
 20
1421.3
 30
0.0
 40
21.0
  1
（５０／６０Ｈｚ）
 50
0.0
 41
0.628571429
 51
0.0
  7
KANJI59
  0
TEXT
  8
0
  6
CONTINUOUS
 62
     2
 10
2146.42
 20
1002.95
 30
3.3
 40
20.4
  1
スプリング制動式電磁ブレーキ
 50
0.0
 41
0.705882353
 51
0.0
  7
KANJI60
  0
TEXT
  8
0
  6
CONTINUOUS
 62
     2
 10
2365.42
 20
1170.5
 30
0.216
 40
18.0
  1
Ｖ
 50
0.0
 41
0.8
 51
0.0
  7
KANJI61
  0
TEXT
  8
0
  6
CONTINUOUS
 62
     2
 10
2354.62
 20
1128.5
 30
0.216
 40
18.0
  1
Ｈｚ
 50
0.0
 41
0.8
 51
0.0
  7
KANJI61
  0
TEXT
  8
0
  6
CONTINUOUS
 62
     2
 10
2365.42
 20
1086.5
 30
0.216
 40
18.0
  1
Ａ
 50
0.0
 41
0.8
 51
0.0
  7
KANJI61
  0
TEXT
  8
0
  6
CONTINUOUS
 62
     2
 10
2286.52
 20
1213.7
 30
1.8
 40
18.0
  1
３φ
 50
0.0
 41
0.9
 51
0.0
  7
KANJI55
  0
TEXT
  8
0
  6
CONTINUOUS
 62
     2
 10
2346.52
 20
1213.7
 30
1.8
 40
18.0
  1
４Ｐ
 50
0.0
 41
0.9
 51
0.0
  7
KANJI55
  0
TEXT
  8
0
  6
CONTINUOUS
 62
     2
 10
2144.92
 20
1255.7
 30
1.2
 40
19.2
  1
マンセル　７．５ＧＹ　５／４．５
 50
0.0
 41
0.71875
 51
0.0
  7
KANJI62
  0
TEXT
  8
0
  6
CONTINUOUS
 62
     2
 10
2144.92
 20
1171.7
 30
1.8
 40
18.0
  1
　　　　　　　／　　　
 50
0.0
 41
0.9
 51
0.0
  7
KANJI55
  0
TEXT
  8
0
  6
CONTINUOUS
 62
     2
 10
2144.92
 20
1129.7
 30
1.8
 40
18.0
  1
　　　　５０／　６０
 50
0.0
 41
0.9
 51
0.0
  7
KANJI55
  0
TEXT
  8
0
  6
CONTINUOUS
 62
     2
 10
2144.92
 20
1087.7
 30
1.8
 40
18.0
  1
　　　　　　　／　　　
 50
0.0
 41
0.9
 51
0.0
  7
KANJI55
  0
TEXT
  8
0
  6
CONTINUOUS
 62
     2
 10
2349.52
 20
1466.9
 30
0.1536
 40
19.2
  1
ｍｍ
 50
0.0
 41
0.8
 51
0.0
  7
KANJI63
  0
TEXT
  8
0
  6
CONTINUOUS
 62
     2
 10
2310.52
 20
1423.7
 30
0.0
 40
21.0
  1
ｍｍ／ｓｅｃ
 50
0.0
 41
0.571428571
 51
0.0
  7
KANJI64
  0
TEXT
  8
0
  6
CONTINUOUS
 62
     2
 10
2150.92
 20
1213.7
 30
1.8
 40
18.0
  1
　０．６ＫＷ
 50
0.0
 41
0.9
 51
0.0
  7
KANJI55
  0
TEXT
  8
0
  6
CONTINUOUS
 62
     2
 10
2203.42
 20
1339.7
 30
9.0
 40
21.0
  1
全閉屋外形
 50
0.0
 41
0.9
 51
0.0
  7
KANJI54
  0
TEXT
  8
0
  6
CONTINUOUS
 62
     2
 10
2188.72
 20
1507.7
 30
1.8
 40
18.0
  1
９．８ＫＮ（１ｔｏｎ）
 50
0.0
 41
0.9
 51
0.0
  7
KANJI55
  0
TEXT
  8
0
  6
CONTINUOUS
 62
     2
 10
2158.42
 20
1547.6
 30
1.2
 40
18.0
  1
ＭＣＬＣ１Ｂ－　Ｊ
 50
0.0
 41
0.833333333
 51
0.0
  7
KANJI65
  0
TEXT
  8
0
  6
CONTINUOUS
 62
     2
 10
2147.92
 20
1423.7
 30
1.8
 40
18.0
  1
　２３／　２８
 50
0.0
 41
0.9
 51
0.0
  7
KANJI55
  0
LINE
  8
0
  6
CONTINUOUS
 62
     1
 10
1868.92
 20
781.7
 30
0.0
 11
2393.92
 21
781.7
 31
0.0
  0
LINE
  8
0
  6
CONTINUOUS
 62
     2
 10
1868.92
 20
823.7
 30
0.0
 11
2393.92
 21
823.7
 31
0.0
  0
TEXT
  8
0
  6
CONTINUOUS
 62
     2
 10
2338.72
 20
793.88
 30
0.0
 40
21.0
  1
ｋｇ
 50
0.0
 41
0.9
 51
0.0
  7
KANJI66
  0
TEXT
  8
0
  6
CONTINUOUS
 62
     2
 10
1900.72
 20
792.5
 30
6.0
 40
21.0
  1
概算重量（１台当り）
 50
0.0
 41
0.857142857
 51
0.0
  7
KANJI67
  0
TEXT
  8
0
  6
CONTINUOUS
 62
     2
 10
2159.92
 20
1381.7
 30
0.0
 40
18.0
  1
８．８Ｎ・ｍ（０．９ｋｇ・ｍ）
 50
0.0
 41
0.833333333
 51
0.0
  7
KANJI68
  0
LINE
  8
0
  6
CONTINUOUS
 62
     1
 10
1868.92
 20
1639.7
 30
0.0
 11
1868.92
 21
781.7
 31
0.0
  0
LINE
  8
0
  6
CONTINUOUS
 62
     2
 10
2144.92
 20
1579.7
 30
0.0
 11
2144.92
 21
781.7
 31
0.0
  0
LINE
  8
0
  6
CONTINUOUS
 62
     1
 10
2393.92
 20
1639.7
 30
0.0
 11
2393.92
 21
781.7
 31
0.0
  0
LINE
  8
0
  6
CONTINUOUS
 62
     6
 10
351.629425053
 20
1642.447759827
 30
0.0
 11
119.584646507
 21
1642.447759827
 31
0.0
  0
LINE
  8
0
  6
CONTINUOUS
 62
     3
 10
351.629425053
 20
1614.985259827
 30
0.0
 11
119.584646507
 21
1614.985259827
 31
0.0
  0
LINE
  8
0
  6
CONTINUOUS
 62
     6
 10
351.629425053
 20
1614.985259827
 30
0.0
 11
119.584646507
 21
1614.985259827
 31
0.0
  0
TEXT
  8
0
  6
CONTINUOUS
 62
     6
 10
377.212228
 20
1639.900410728
 30
1.232517
 40
13.182
  1
電気定格　　　
 50
0.0
 41
0.85
 51
0.0
  7
KANJI69
  0
TEXT
  8
0
  6
CONTINUOUS
 62
     6
 10
123.493517202
 20
1645.64592676
 30
1.0647
 40
11.661
  1
ＬＳ０１　　　：推力リミッタ（前進時過負荷用）
 50
0.0
 41
0.822608696
 51
0.0
  7
KANJI70
  0
TEXT
  8
0
  6
CONTINUOUS
 62
     6
 10
123.493517202
 20
1618.18342676
 30
1.0647
 40
11.661
  1
ＬＳ０２　　　：推力リミッタ（後進時過負荷用）
 50
0.0
 41
0.822608696
 51
0.0
  7
KANJI70
  0
TEXT
  8
0
  6
CONTINUOUS
 62
     6
 10
390.013715102
 20
1609.326958599
 30
0.0
 40
11.8638
  1
ＤＣ１２５Ｖ　０．６Ａ　，ＤＣ２５０Ｖ　０．３Ａ　
 50
0.0
 41
0.726495726
 51
0.0
  7
KANJI71
  0
LINE
  8
0
  6
LTYPE3
 62
     6
 10
650.02
 20
1669.9
 30
0.0
 11
101.62
 21
1669.9
 31
0.0
  0
TEXT
  8
0
  6
CONTINUOUS
 62
     6
 10
384.757132178
 20
1657.661726126
 30
0.0
 40
45.0
  1
｝
 50
0.0
 41
0.538166667
 51
0.0
  7
KANJI72
  0
TEXT
  8
0
  6
CONTINUOUS
 62
     6
 10
314.632791539
 20
1428.92382165
 30
0.0
 40
17.740702234
  1
端子台　接続図
 50
0.0
 41
0.880962996
 51
0.0
  7
KANJI73
  0
LINE
  8
0
  6
LTYPE3
 62
     6
 10
650.02
 20
1410.9
 30
0.0
 11
650.02
 21
1669.9
 31
0.0
  0
LINE
  8
0
  6
LTYPE3
 62
     6
 10
101.62
 20
1410.9
 30
0.0
 11
650.02
 21
1410.9
 31
0.0
  0
LINE
  8
0
  6
LTYPE3
 62
     6
 10
101.62
 20
1669.9
 30
0.0
 11
101.62
 21
1410.9
 31
0.0
  0
LINE
  8
0
  6
CONTINUOUS
 62
     2
 10
349.597373465
 20
1479.928121884
 30
0.0
 11
349.597373465
 21
1457.149155128
 31
0.0
  0
LINE
  8
0
  6
CONTINUOUS
 62
     2
 10
376.17283468
 20
1479.928121884
 30
0.0
 11
376.17283468
 21
1457.149155128
 31
0.0
  0
LINE
  8
0
  6
CONTINUOUS
 62
     2
 10
402.748295894
 20
1479.928121884
 30
0.0
 11
402.748295894
 21
1457.149155128
 31
0.0
  0
LINE
  8
0
  6
CONTINUOUS
 62
     2
 10
429.323757109
 20
1479.928121884
 30
0.0
 11
429.323757109
 21
1457.149155128
 31
0.0
  0
CIRCLE
  8
0
  6
CONTINUOUS
 62
     6
 10
421.404269667
 20
1503.407921517
 30
0.0
 40
4.100214016
  0
LINE
  8
0
  6
CONTINUOUS
 62
     6
 10
417.304055651
 20
1503.407921517
 30
0.0
 11
416.036026502
 21
1503.407921517
 31
0.0
  0
LINE
  8
0
  6
CONTINUOUS
 62
     6
 10
442.358027433
 20
1517.094562742
 30
0.0
 11
438.443558096
 21
1494.759507138
 31
0.0
  0
LINE
  8
0
  6
CONTINUOUS
 62
     6
 10
437.631699663
 20
1517.882284037
 30
0.0
 11
433.716922494
 21
1495.547279739
 31
0.0
  0
LINE
  8
0
  6
CONTINUOUS
 62
     6
 10
438.443558096
 20
1494.759507138
 30
0.0
 11
433.716922494
 21
1495.547279739
 31
0.0
  0
CIRCLE
  8
0
  6
CONTINUOUS
 62
     6
 10
442.611487717
 20
1493.939464335
 30
0.0
 40
4.100214016
  0
LINE
  8
0
  6
CONTINUOUS
 62
     6
 10
442.611487717
 20
1489.839250319
 30
0.0
 11
442.611487717
 21
1479.928121884
 31
0.0
  0
LINE
  8
0
  6
CONTINUOUS
 62
     6
 10
416.036026502
 20
1503.407921517
 30
0.0
 11
416.036026502
 21
1479.928121884
 31
0.0
  0
LINE
  8
0
  6
CONTINUOUS
 62
     6
 10
389.460565287
 20
1479.928121884
 30
0.0
 11
389.460565287
 21
1533.633332504
 31
0.0
  0
LINE
  8
0
  6
CONTINUOUS
 62
     6
 10
309.987641926
 20
1517.094562742
 30
0.0
 11
313.902111263
 21
1494.759507138
 31
0.0
  0
LINE
  8
0
  6
CONTINUOUS
 62
     6
 10
314.713969696
 20
1517.882284037
 30
0.0
 11
318.628746865
 21
1495.547279739
 31
0.0
  0
LINE
  8
0
  6
CONTINUOUS
 62
     6
 10
313.902111263
 20
1494.759507138
 30
0.0
 11
318.628746865
 21
1495.547279739
 31
0.0
  0
CIRCLE
  8
0
  6
CONTINUOUS
 62
     6
 10
309.734181642
 20
1493.939464335
 30
0.0
 40
4.100214016
  0
CIRCLE
  8
0
  6
CONTINUOUS
 62
     6
 10
330.941399692
 20
1503.407921517
 30
0.0
 40
4.100214016
  0
LINE
  8
0
  6
CONTINUOUS
 62
     6
 10
335.041613708
 20
1503.407921517
 30
0.0
 11
336.309642857
 21
1503.407921517
 31
0.0
  0
LINE
  8
0
  6
CONTINUOUS
 62
     6
 10
309.734181642
 20
1489.839250319
 30
0.0
 11
309.734181642
 21
1479.928121884
 31
0.0
  0
LINE
  8
0
  6
CONTINUOUS
 62
     6
 10
336.309642857
 20
1503.407921517
 30
0.0
 11
336.309642857
 21
1479.928121884
 31
0.0
  0
LINE
  8
0
  6
CONTINUOUS
 62
     6
 10
362.885104072
 20
1479.928121884
 30
0.0
 11
362.885104072
 21
1533.633332504
 31
0.0
  0
LINE
  8
0
  6
CONTINUOUS
 62
     2
 10
455.899218324
 20
1479.928121884
 30
0.0
 11
455.899218324
 21
1457.149155128
 31
0.0
  0
LINE
  8
0
  6
CONTINUOUS
 62
     2
 10
296.446451035
 20
1479.928121884
 30
0.0
 11
296.446451035
 21
1457.149155128
 31
0.0
  0
LINE
  8
0
  6
CONTINUOUS
 62
     2
 10
323.02191225
 20
1479.928121884
 30
0.0
 11
323.02191225
 21
1457.149155128
 31
0.0
  0
LINE
  8
0
  6
CONTINUOUS
 62
     6
 10
442.611487717
 20
1533.633332504
 30
0.0
 11
389.460565287
 21
1533.633332504
 31
0.0
  0
CIRCLE
  8
0
  6
CONTINUOUS
 62
     6
 10
442.611487717
 20
1521.28941042
 30
0.0
 40
4.100214016
  0
LINE
  8
0
  6
CONTINUOUS
 62
     6
 10
442.358027433
 20
1517.094562742
 30
0.0
 11
437.631699663
 21
1517.882284037
 31
0.0
  0
LINE
  8
0
  6
CONTINUOUS
 62
     6
 10
442.611487717
 20
1525.389624436
 30
0.0
 11
442.611487717
 21
1533.633332504
 31
0.0
  0
CIRCLE
  8
0
  6
CONTINUOUS
 62
     6
 10
309.734181642
 20
1521.28941042
 30
0.0
 40
4.100214016
  0
LINE
  8
0
  6
CONTINUOUS
 62
     6
 10
309.987641926
 20
1517.094562742
 30
0.0
 11
314.713969696
 21
1517.882284037
 31
0.0
  0
LINE
  8
0
  6
CONTINUOUS
 62
     6
 10
309.734181642
 20
1525.389624436
 30
0.0
 11
309.734181642
 21
1533.633332504
 31
0.0
  0
LINE
  8
0
  6
CONTINUOUS
 62
     6
 10
362.885104072
 20
1533.633332504
 30
0.0
 11
309.734181642
 21
1533.633332504
 31
0.0
  0
TEXT
  8
0
  6
CONTINUOUS
 62
     6
 10
314.4972152
 20
1538.152473273
 30
0.819
 40
11.7
  1
ＬＳ０１
 50
0.0
 41
0.8
 51
0.0
  7
KANJI74
  0
TEXT
  8
0
  6
CONTINUOUS
 62
     6
 10
397.117398844
 20
1538.152473273
 30
0.819
 40
11.7
  1
ＬＳ０２
 50
0.0
 41
0.8
 51
0.0
  7
KANJI74
  0
TEXT
  8
0
  6
CONTINUOUS
 62
     3
 10
142.308775989
 20
1460.945649587
 30
0.0
 40
15.0
  1
　　　　　　　　　　　　　　　　　　１　　２　　　３　　　４　　　５　　　６
 50
0.0
 41
0.911
 51
0.0
  7
KANJI75
  0
LINE
  8
0
  6
CONTINUOUS
 62
     2
 10
296.446451035
 20
1479.928121884
 30
0.0
 11
455.899218324
 21
1479.928121884
 31
0.0
  0
LINE
  8
0
  6
CONTINUOUS
 62
     2
 10
296.446451035
 20
1457.149155128
 30
0.0
 11
455.899218324
 21
1457.149155128
 31
0.0
  0
TEXT
  8
0
  6
CONTINUOUS
 62
     6
 10
288.132791539
 20
1567.92382165
 30
0.0
 40
17.740702234
  1
推力リミッタ端子台配列
 50
0.0
 41
0.880962996
 51
0.0
  7
KANJI73
  0
TEXT
  8
0
  6
CONTINUOUS
 62
     6
 10
390.013715102
 20
1625.071931782
 30
0.0
 40
11.8638
  1
ＡＣ１００Ｖ　１２５Ｖ　２５０Ｖ　－１０Ａ
 50
0.0
 41
0.726495726
 51
0.0
  7
KANJI71
  0
ENDSEC
  0
EOF
