  0
SECTION
  2
HEADER
  9
$ACADVER
  1
AC1009
  9
$DWGCODEPAGE
  3
dos932
  9
$EXTMIN
 10
0.0
 20
0.0
 30
0.0
  9
$EXTMAX
 10
2520.0
 20
1782.0
 30
0.0
  9
$LIMMIN
 10
0.0
 20
0.0
  9
$LIMMAX
 10
2520.0
 20
1782.0
  9
$LTSCALE
 40
1.0
  9
$PDMODE
 70
     0
  0
ENDSEC
  0
SECTION
  2
TABLES
  0
TABLE
  2
VPORT
 70
     1
  0
VPORT
  2
*ACTIVE
 70
     0
 10
0.0
 20
0.0
 11
1.0
 21
1.0
 12
1260.0
 22
891.0
 13
0.0
 23
0.0
 14
10.0
 24
10.0
 15
10.0
 25
10.0
 16
0.0
 26
0.0
 36
1.0
 17
0.0
 27
0.0
 37
0.0
 40
2520.0
 41
1.414141414
 42
50.0
 43
0.0
 44
0.0
 50
0.0
 51
0.0
 71
     0
 72
  1000
 73
     1
 74
     3
 75
     0
 76
     0
 77
     0
 78
     0
  0
ENDTAB
  0
TABLE
  2
LTYPE
 70
     6
  0
LTYPE
  2
CONTINUOUS
 70
    64
  3
Solid line
 72
    65
 73
     0
 40
0.0
  0
LTYPE
  2
LTYPE1
 70
    64
  3
HIDDEN
 72
    65
 73
     2
 40
18.0
 49
10.8
 49
-7.2
  0
LTYPE
  2
LTYPE2
 70
    64
  3
CENTER
 72
    65
 73
     4
 40
60.0
 49
42.0
 49
-6.0
 49
6.0
 49
-6.0
  0
LTYPE
  2
LTYPE3
 70
    64
  3
CENTER
 72
    65
 73
     4
 40
90.0
 49
63.0
 49
-9.0
 49
9.0
 49
-9.0
  0
LTYPE
  2
LTYPE4
 70
    64
  3
CENTER
 72
    65
 73
     4
 40
120.0
 49
84.0
 49
-12.0
 49
12.0
 49
-12.0
  0
LTYPE
  2
LTYPE5
 70
    64
  3
CENTER
 72
    65
 73
     4
 40
54.0
 49
37.8
 49
-5.4
 49
5.4
 49
-5.4
  0
ENDTAB
  0
TABLE
  2
LAYER
 70
   128
  0
LAYER
  2
0
 70
     0
 62
     7
  6
CONTINUOUS
  0
LAYER
  2
2
 70
     0
 62
     7
  6
CONTINUOUS
  0
LAYER
  2
3
 70
     0
 62
     7
  6
CONTINUOUS
  0
LAYER
  2
4
 70
     0
 62
     7
  6
CONTINUOUS
  0
LAYER
  2
5
 70
     0
 62
     7
  6
CONTINUOUS
  0
LAYER
  2
6
 70
     0
 62
     7
  6
CONTINUOUS
  0
LAYER
  2
7
 70
     0
 62
     7
  6
CONTINUOUS
  0
LAYER
  2
8
 70
     0
 62
     7
  6
CONTINUOUS
  0
LAYER
  2
9
 70
     0
 62
     7
  6
CONTINUOUS
  0
LAYER
  2
10
 70
     0
 62
     7
  6
CONTINUOUS
  0
LAYER
  2
11
 70
     0
 62
     7
  6
CONTINUOUS
  0
LAYER
  2
12
 70
     0
 62
     7
  6
CONTINUOUS
  0
LAYER
  2
13
 70
     0
 62
     7
  6
CONTINUOUS
  0
LAYER
  2
14
 70
     0
 62
     7
  6
CONTINUOUS
  0
LAYER
  2
15
 70
     0
 62
     7
  6
CONTINUOUS
  0
LAYER
  2
16
 70
     0
 62
     7
  6
CONTINUOUS
  0
LAYER
  2
17
 70
     0
 62
     7
  6
CONTINUOUS
  0
LAYER
  2
18
 70
     0
 62
     7
  6
CONTINUOUS
  0
LAYER
  2
19
 70
     0
 62
     7
  6
CONTINUOUS
  0
LAYER
  2
20
 70
     0
 62
     7
  6
CONTINUOUS
  0
LAYER
  2
21
 70
     0
 62
     7
  6
CONTINUOUS
  0
LAYER
  2
22
 70
     0
 62
     7
  6
CONTINUOUS
  0
LAYER
  2
23
 70
     0
 62
     7
  6
CONTINUOUS
  0
LAYER
  2
24
 70
     0
 62
     7
  6
CONTINUOUS
  0
LAYER
  2
25
 70
     0
 62
     7
  6
CONTINUOUS
  0
LAYER
  2
26
 70
     0
 62
     7
  6
CONTINUOUS
  0
LAYER
  2
27
 70
     0
 62
     7
  6
CONTINUOUS
  0
LAYER
  2
28
 70
     0
 62
     7
  6
CONTINUOUS
  0
LAYER
  2
29
 70
     0
 62
     7
  6
CONTINUOUS
  0
LAYER
  2
30
 70
     0
 62
     7
  6
CONTINUOUS
  0
LAYER
  2
31
 70
     0
 62
     7
  6
CONTINUOUS
  0
LAYER
  2
32
 70
     0
 62
     7
  6
CONTINUOUS
  0
LAYER
  2
33
 70
     0
 62
     7
  6
CONTINUOUS
  0
LAYER
  2
34
 70
     0
 62
     7
  6
CONTINUOUS
  0
LAYER
  2
35
 70
     0
 62
     7
  6
CONTINUOUS
  0
LAYER
  2
36
 70
     0
 62
     7
  6
CONTINUOUS
  0
LAYER
  2
37
 70
     0
 62
     7
  6
CONTINUOUS
  0
LAYER
  2
38
 70
     0
 62
     7
  6
CONTINUOUS
  0
LAYER
  2
39
 70
     0
 62
     7
  6
CONTINUOUS
  0
LAYER
  2
40
 70
     0
 62
     7
  6
CONTINUOUS
  0
LAYER
  2
41
 70
     0
 62
     7
  6
CONTINUOUS
  0
LAYER
  2
42
 70
     0
 62
     7
  6
CONTINUOUS
  0
LAYER
  2
43
 70
     0
 62
     7
  6
CONTINUOUS
  0
LAYER
  2
44
 70
     0
 62
     7
  6
CONTINUOUS
  0
LAYER
  2
45
 70
     0
 62
     7
  6
CONTINUOUS
  0
LAYER
  2
46
 70
     0
 62
     7
  6
CONTINUOUS
  0
LAYER
  2
47
 70
     0
 62
     7
  6
CONTINUOUS
  0
LAYER
  2
48
 70
     0
 62
     7
  6
CONTINUOUS
  0
LAYER
  2
49
 70
     0
 62
     7
  6
CONTINUOUS
  0
LAYER
  2
50
 70
     0
 62
     7
  6
CONTINUOUS
  0
LAYER
  2
51
 70
     0
 62
     7
  6
CONTINUOUS
  0
LAYER
  2
52
 70
     0
 62
     7
  6
CONTINUOUS
  0
LAYER
  2
53
 70
     0
 62
     7
  6
CONTINUOUS
  0
LAYER
  2
54
 70
     0
 62
     7
  6
CONTINUOUS
  0
LAYER
  2
55
 70
     0
 62
     7
  6
CONTINUOUS
  0
LAYER
  2
56
 70
     0
 62
     7
  6
CONTINUOUS
  0
LAYER
  2
57
 70
     0
 62
     7
  6
CONTINUOUS
  0
LAYER
  2
58
 70
     0
 62
     7
  6
CONTINUOUS
  0
LAYER
  2
59
 70
     0
 62
     7
  6
CONTINUOUS
  0
LAYER
  2
60
 70
     0
 62
     7
  6
CONTINUOUS
  0
LAYER
  2
61
 70
     0
 62
     7
  6
CONTINUOUS
  0
LAYER
  2
62
 70
     0
 62
     7
  6
CONTINUOUS
  0
LAYER
  2
63
 70
     0
 62
     7
  6
CONTINUOUS
  0
LAYER
  2
64
 70
     0
 62
     7
  6
CONTINUOUS
  0
LAYER
  2
65
 70
     0
 62
     7
  6
CONTINUOUS
  0
LAYER
  2
66
 70
     0
 62
     7
  6
CONTINUOUS
  0
LAYER
  2
67
 70
     0
 62
     7
  6
CONTINUOUS
  0
LAYER
  2
68
 70
     0
 62
     7
  6
CONTINUOUS
  0
LAYER
  2
69
 70
     0
 62
     7
  6
CONTINUOUS
  0
LAYER
  2
70
 70
     0
 62
     7
  6
CONTINUOUS
  0
LAYER
  2
71
 70
     0
 62
     7
  6
CONTINUOUS
  0
LAYER
  2
72
 70
     0
 62
     7
  6
CONTINUOUS
  0
LAYER
  2
73
 70
     0
 62
     7
  6
CONTINUOUS
  0
LAYER
  2
74
 70
     0
 62
     7
  6
CONTINUOUS
  0
LAYER
  2
75
 70
     0
 62
     7
  6
CONTINUOUS
  0
LAYER
  2
76
 70
     0
 62
     7
  6
CONTINUOUS
  0
LAYER
  2
77
 70
     0
 62
     7
  6
CONTINUOUS
  0
LAYER
  2
78
 70
     0
 62
     7
  6
CONTINUOUS
  0
LAYER
  2
79
 70
     0
 62
     7
  6
CONTINUOUS
  0
LAYER
  2
80
 70
     0
 62
     7
  6
CONTINUOUS
  0
LAYER
  2
81
 70
     0
 62
     7
  6
CONTINUOUS
  0
LAYER
  2
82
 70
     0
 62
     7
  6
CONTINUOUS
  0
LAYER
  2
83
 70
     0
 62
     7
  6
CONTINUOUS
  0
LAYER
  2
84
 70
     0
 62
     7
  6
CONTINUOUS
  0
LAYER
  2
85
 70
     0
 62
     7
  6
CONTINUOUS
  0
LAYER
  2
86
 70
     0
 62
     7
  6
CONTINUOUS
  0
LAYER
  2
87
 70
     0
 62
     7
  6
CONTINUOUS
  0
LAYER
  2
88
 70
     0
 62
     7
  6
CONTINUOUS
  0
LAYER
  2
89
 70
     0
 62
     7
  6
CONTINUOUS
  0
LAYER
  2
90
 70
     0
 62
     7
  6
CONTINUOUS
  0
LAYER
  2
91
 70
     0
 62
     7
  6
CONTINUOUS
  0
LAYER
  2
92
 70
     0
 62
     7
  6
CONTINUOUS
  0
LAYER
  2
93
 70
     0
 62
     7
  6
CONTINUOUS
  0
LAYER
  2
94
 70
     0
 62
     7
  6
CONTINUOUS
  0
LAYER
  2
95
 70
     0
 62
     7
  6
CONTINUOUS
  0
LAYER
  2
96
 70
     0
 62
     7
  6
CONTINUOUS
  0
LAYER
  2
97
 70
     0
 62
     7
  6
CONTINUOUS
  0
LAYER
  2
98
 70
     0
 62
     7
  6
CONTINUOUS
  0
LAYER
  2
99
 70
     0
 62
     7
  6
CONTINUOUS
  0
LAYER
  2
100
 70
     0
 62
     7
  6
CONTINUOUS
  0
LAYER
  2
101
 70
     0
 62
     7
  6
CONTINUOUS
  0
LAYER
  2
102
 70
     0
 62
     7
  6
CONTINUOUS
  0
LAYER
  2
103
 70
     0
 62
     7
  6
CONTINUOUS
  0
LAYER
  2
104
 70
     0
 62
     7
  6
CONTINUOUS
  0
LAYER
  2
105
 70
     0
 62
     7
  6
CONTINUOUS
  0
LAYER
  2
106
 70
     0
 62
     7
  6
CONTINUOUS
  0
LAYER
  2
107
 70
     0
 62
     7
  6
CONTINUOUS
  0
LAYER
  2
108
 70
     0
 62
     7
  6
CONTINUOUS
  0
LAYER
  2
109
 70
     0
 62
     7
  6
CONTINUOUS
  0
LAYER
  2
110
 70
     0
 62
     7
  6
CONTINUOUS
  0
LAYER
  2
111
 70
     0
 62
     7
  6
CONTINUOUS
  0
LAYER
  2
112
 70
     0
 62
     7
  6
CONTINUOUS
  0
LAYER
  2
113
 70
     0
 62
     7
  6
CONTINUOUS
  0
LAYER
  2
114
 70
     0
 62
     7
  6
CONTINUOUS
  0
LAYER
  2
115
 70
     0
 62
     7
  6
CONTINUOUS
  0
LAYER
  2
116
 70
     0
 62
     7
  6
CONTINUOUS
  0
LAYER
  2
117
 70
     0
 62
     7
  6
CONTINUOUS
  0
LAYER
  2
118
 70
     0
 62
     7
  6
CONTINUOUS
  0
LAYER
  2
119
 70
     0
 62
     7
  6
CONTINUOUS
  0
LAYER
  2
120
 70
     0
 62
     7
  6
CONTINUOUS
  0
LAYER
  2
121
 70
     0
 62
     7
  6
CONTINUOUS
  0
LAYER
  2
122
 70
     0
 62
     7
  6
CONTINUOUS
  0
LAYER
  2
123
 70
     0
 62
     7
  6
CONTINUOUS
  0
LAYER
  2
124
 70
     0
 62
     7
  6
CONTINUOUS
  0
LAYER
  2
125
 70
     0
 62
     7
  6
CONTINUOUS
  0
LAYER
  2
126
 70
     0
 62
     7
  6
CONTINUOUS
  0
LAYER
  2
127
 70
     0
 62
     7
  6
CONTINUOUS
  0
LAYER
  2
128
 70
     0
 62
     7
  6
CONTINUOUS
  0
ENDTAB
  0
TABLE
  2
STYLE
 70
    77
  0
STYLE
  2
STANDARD
 70
     0
 40
0.0
 41
1.0
 50
0.0
 71
     0
 42
0.2
  3
txt.shx
  4
extfont.shx
  0
STYLE
  2
KANJI0
 70
     0
 40
15.5999988
 41
0.75
 50
0.0
 71
     0
 42
15.5999988
  3
txt.shx
  4
extfont.shx
  0
STYLE
  2
KANJI1
 70
     0
 40
11.999997477
 41
0.6
 50
0.0
 71
     0
 42
11.999997477
  3
txt.shx
  4
extfont.shx
  0
STYLE
  2
KANJI2
 70
     0
 40
14.399996972
 41
0.9
 50
0.0
 71
     0
 42
14.399996972
  3
txt.shx
  4
extfont.shx
  0
STYLE
  2
KANJI3
 70
     0
 40
17.999996215
 41
0.9
 50
0.0
 71
     0
 42
17.999996215
  3
txt.shx
  4
extfont.shx
  0
STYLE
  2
KANJI4
 70
     0
 40
10.3999992
 41
0.6
 50
0.0
 71
     0
 42
10.3999992
  3
txt.shx
  4
extfont.shx
  0
STYLE
  2
KANJI5
 70
     0
 40
12.47999904
 41
0.6
 50
0.0
 71
     0
 42
12.47999904
  3
txt.shx
  4
extfont.shx
  0
STYLE
  2
KANJI6
 70
     0
 40
18.1999986
 41
0.42031746
 50
0.0
 71
     0
 42
18.1999986
  3
txt.shx
  4
extfont.shx
  0
STYLE
  2
KANJI7
 70
     0
 40
31.1999976
 41
0.9
 50
0.0
 71
     0
 42
31.1999976
  3
txt.shx
  4
extfont.shx
  0
STYLE
  2
KANJI8
 70
     0
 40
21.6
 41
1.111111111
 50
0.0
 71
     0
 42
21.6
  3
txt.shx
  4
extfont.shx
  0
STYLE
  2
KANJI9
 70
     0
 40
10.3999992
 41
0.8
 50
0.0
 71
     0
 42
10.3999992
  3
txt.shx
  4
extfont.shx
  0
STYLE
  2
KANJI10
 70
     0
 40
12.47999904
 41
0.8
 50
0.0
 71
     0
 42
12.47999904
  3
txt.shx
  4
extfont.shx
  0
STYLE
  2
KANJI11
 70
     0
 40
30.0
 41
1.0
 50
0.0
 71
     0
 42
30.0
  3
txt.shx
  4
extfont.shx
  0
STYLE
  2
KANJI12
 70
     0
 40
30.0
 41
1.0
 50
0.0
 71
     0
 42
30.0
  3
txt.shx
  4
extfont.shx
  0
STYLE
  2
KANJI13
 70
     0
 40
30.0
 41
0.8
 50
0.0
 71
     0
 42
30.0
  3
txt.shx
  4
extfont.shx
  0
STYLE
  2
KANJI14
 70
     0
 40
24.0
 41
1.0
 50
0.0
 71
     0
 42
24.0
  3
txt.shx
  4
extfont.shx
  0
STYLE
  2
KANJI15
 70
     0
 40
21.0
 41
0.857142857
 50
0.0
 71
     0
 42
21.0
  3
txt.shx
  4
extfont.shx
  0
STYLE
  2
KANJI16
 70
     0
 40
15.36
 41
0.9
 50
0.0
 71
     0
 42
15.36
  3
txt.shx
  4
extfont.shx
  0
STYLE
  2
KANJI17
 70
     0
 40
14.4
 41
0.9
 50
0.0
 71
     0
 42
14.4
  3
txt.shx
  4
extfont.shx
  0
STYLE
  2
KANJI18
 70
     0
 40
14.4
 41
0.9
 50
0.0
 71
     0
 42
14.4
  3
txt.shx
  4
extfont.shx
  0
STYLE
  2
KANJI19
 70
     0
 40
16.8
 41
0.9
 50
0.0
 71
     0
 42
16.8
  3
txt.shx
  4
extfont.shx
  0
STYLE
  2
KANJI20
 70
     0
 40
12.96
 41
0.740740741
 50
0.0
 71
     0
 42
12.96
  3
txt.shx
  4
extfont.shx
  0
STYLE
  2
KANJI21
 70
     0
 40
16.8
 41
0.857142857
 50
0.0
 71
     0
 42
16.8
  3
txt.shx
  4
extfont.shx
  0
STYLE
  2
KANJI22
 70
     0
 40
27.0
 41
0.666666667
 50
0.0
 71
     0
 42
27.0
  3
txt.shx
  4
extfont.shx
  0
STYLE
  2
KANJI23
 70
     0
 40
13.86
 41
0.9
 50
0.0
 71
     0
 42
13.86
  3
txt.shx
  4
extfont.shx
  0
STYLE
  2
KANJI24
 70
     0
 40
21.0
 41
0.793650794
 50
0.0
 71
     0
 42
21.0
  3
txt.shx
  4
extfont.shx
  0
STYLE
  2
KANJI25
 70
     0
 40
30.0
 41
0.8
 50
0.0
 71
     0
 42
30.0
  3
txt.shx
  4
extfont.shx
  0
STYLE
  2
KANJI26
 70
     0
 40
18.0
 41
0.9
 50
0.0
 71
     0
 42
18.0
  3
txt.shx
  4
extfont.shx
  0
STYLE
  2
KANJI27
 70
     0
 40
16.17
 41
0.9
 50
0.0
 71
     0
 42
16.17
  3
txt.shx
  4
extfont.shx
  0
STYLE
  2
KANJI28
 70
     0
 40
18.0
 41
0.9
 50
0.0
 71
     0
 42
18.0
  3
txt.shx
  4
extfont.shx
  0
STYLE
  2
KANJI29
 70
     0
 40
10.933904043
 41
0.9
 50
0.0
 71
     0
 42
10.933904043
  3
txt.shx
  4
extfont.shx
  0
STYLE
  2
KANJI30
 70
     0
 40
15.185977837
 41
0.66671875
 50
0.0
 71
     0
 42
15.185977837
  3
txt.shx
  4
extfont.shx
  0
STYLE
  2
KANJI31
 70
     0
 40
18.223173404
 41
0.9
 50
0.0
 71
     0
 42
18.223173404
  3
txt.shx
  4
extfont.shx
  0
STYLE
  2
KANJI32
 70
     0
 40
14.578538724
 41
0.9
 50
0.0
 71
     0
 42
14.578538724
  3
txt.shx
  4
extfont.shx
  0
STYLE
  2
KANJI33
 70
     0
 40
15.6
 41
0.925
 50
0.0
 71
     0
 42
15.6
  3
txt.shx
  4
extfont.shx
  0
STYLE
  2
KANJI34
 70
     0
 40
15.0
 41
0.9
 50
0.0
 71
     0
 42
15.0
  3
txt.shx
  4
extfont.shx
  0
STYLE
  2
KANJI35
 70
     0
 40
20.0
 41
0.925
 50
0.0
 71
     0
 42
20.0
  3
txt.shx
  4
extfont.shx
  0
STYLE
  2
KANJI36
 70
     0
 40
24.0
 41
0.9
 50
0.0
 71
     0
 42
24.0
  3
txt.shx
  4
extfont.shx
  0
STYLE
  2
KANJI37
 70
     0
 40
21.6
 41
0.857142857
 50
0.0
 71
     0
 42
21.6
  3
txt.shx
  4
extfont.shx
  0
STYLE
  2
KANJI38
 70
     0
 40
21.6
 41
0.857222222
 50
0.0
 71
     0
 42
21.6
  3
txt.shx
  4
extfont.shx
  0
STYLE
  2
KANJI39
 70
     0
 40
13.182
 41
0.85
 50
0.0
 71
     0
 42
13.182
  3
txt.shx
  4
extfont.shx
  0
STYLE
  2
KANJI40
 70
     0
 40
11.661
 41
0.822608696
 50
0.0
 71
     0
 42
11.661
  3
txt.shx
  4
extfont.shx
  0
STYLE
  2
KANJI41
 70
     0
 40
11.8638
 41
0.726495726
 50
0.0
 71
     0
 42
11.8638
  3
txt.shx
  4
extfont.shx
  0
STYLE
  2
KANJI42
 70
     4
 40
45.0
 41
0.538166667
 50
0.0
 71
     0
 42
45.0
  3
txt.shx
  4
extfont.shx
  0
STYLE
  2
KANJI43
 70
     0
 40
17.740702234
 41
0.880962996
 50
0.0
 71
     0
 42
17.740702234
  3
txt.shx
  4
extfont.shx
  0
STYLE
  2
KANJI44
 70
     0
 40
11.7
 41
0.8
 50
0.0
 71
     0
 42
11.7
  3
txt.shx
  4
extfont.shx
  0
STYLE
  2
KANJI45
 70
     0
 40
15.0
 41
0.911
 50
0.0
 71
     0
 42
15.0
  3
txt.shx
  4
extfont.shx
  0
STYLE
  2
KANJI46
 70
     0
 40
20.0
 41
0.925
 50
0.0
 71
     0
 42
20.0
  3
txt.shx
  4
extfont.shx
  0
STYLE
  2
KANJI47
 70
     0
 40
15.0
 41
0.9
 50
0.0
 71
     0
 42
15.0
  3
txt.shx
  4
extfont.shx
  0
STYLE
  2
KANJI48
 70
     0
 40
14.4
 41
0.833333333
 50
0.0
 71
     0
 42
14.4
  3
txt.shx
  4
extfont.shx
  0
STYLE
  2
KANJI49
 70
     0
 40
21.0
 41
0.571428571
 50
0.0
 71
     0
 42
21.0
  3
txt.shx
  4
extfont.shx
  0
STYLE
  2
KANJI50
 70
     0
 40
22.8
 41
0.9
 50
0.0
 71
     0
 42
22.8
  3
txt.shx
  4
extfont.shx
  0
STYLE
  2
KANJI51
 70
     0
 40
22.8
 41
0.9
 50
0.0
 71
     0
 42
22.8
  3
txt.shx
  4
extfont.shx
  0
STYLE
  2
KANJI52
 70
     0
 40
27.0
 41
0.9
 50
0.0
 71
     0
 42
27.0
  3
txt.shx
  4
extfont.shx
  0
STYLE
  2
KANJI53
 70
     0
 40
22.8
 41
0.9
 50
0.0
 71
     0
 42
22.8
  3
txt.shx
  4
extfont.shx
  0
STYLE
  2
KANJI54
 70
     0
 40
22.8
 41
0.9
 50
0.0
 71
     0
 42
22.8
  3
txt.shx
  4
extfont.shx
  0
STYLE
  2
KANJI55
 70
     0
 40
22.8
 41
0.9
 50
0.0
 71
     0
 42
22.8
  3
txt.shx
  4
extfont.shx
  0
STYLE
  2
KANJI56
 70
     0
 40
22.8
 41
0.9
 50
0.0
 71
     0
 42
22.8
  3
txt.shx
  4
extfont.shx
  0
STYLE
  2
KANJI57
 70
     0
 40
22.8
 41
0.9
 50
0.0
 71
     0
 42
22.8
  3
txt.shx
  4
extfont.shx
  0
STYLE
  2
KANJI58
 70
     0
 40
22.8
 41
0.9
 50
0.0
 71
     0
 42
22.8
  3
txt.shx
  4
extfont.shx
  0
STYLE
  2
KANJI59
 70
     4
 40
21.0
 41
0.9
 50
0.0
 71
     0
 42
21.0
  3
txt.shx
  4
extfont.shx
  0
STYLE
  2
KANJI60
 70
     4
 40
21.0
 41
0.9
 50
0.0
 71
     0
 42
21.0
  3
txt.shx
  4
extfont.shx
  0
STYLE
  2
KANJI61
 70
     0
 40
21.0
 41
0.9
 50
0.0
 71
     0
 42
21.0
  3
txt.shx
  4
extfont.shx
  0
STYLE
  2
KANJI62
 70
     0
 40
18.0
 41
0.9
 50
0.0
 71
     0
 42
18.0
  3
txt.shx
  4
extfont.shx
  0
STYLE
  2
KANJI63
 70
     0
 40
21.0
 41
0.9
 50
0.0
 71
     0
 42
21.0
  3
txt.shx
  4
extfont.shx
  0
STYLE
  2
KANJI64
 70
     0
 40
22.8
 41
0.9
 50
0.0
 71
     0
 42
22.8
  3
txt.shx
  4
extfont.shx
  0
STYLE
  2
KANJI65
 70
     0
 40
22.8
 41
0.9
 50
0.0
 71
     0
 42
22.8
  3
txt.shx
  4
extfont.shx
  0
STYLE
  2
KANJI66
 70
     0
 40
21.0
 41
0.628571429
 50
0.0
 71
     0
 42
21.0
  3
txt.shx
  4
extfont.shx
  0
STYLE
  2
KANJI67
 70
     0
 40
20.4
 41
0.705882353
 50
0.0
 71
     0
 42
20.4
  3
txt.shx
  4
extfont.shx
  0
STYLE
  2
KANJI68
 70
     0
 40
18.0
 41
0.8
 50
0.0
 71
     0
 42
18.0
  3
txt.shx
  4
extfont.shx
  0
STYLE
  2
KANJI69
 70
     0
 40
19.2
 41
0.71875
 50
0.0
 71
     0
 42
19.2
  3
txt.shx
  4
extfont.shx
  0
STYLE
  2
KANJI70
 70
     0
 40
19.2
 41
0.8
 50
0.0
 71
     0
 42
19.2
  3
txt.shx
  4
extfont.shx
  0
STYLE
  2
KANJI71
 70
     0
 40
21.0
 41
0.571428571
 50
0.0
 71
     0
 42
21.0
  3
txt.shx
  4
extfont.shx
  0
STYLE
  2
KANJI72
 70
     0
 40
18.0
 41
0.833333333
 50
0.0
 71
     0
 42
18.0
  3
txt.shx
  4
extfont.shx
  0
STYLE
  2
KANJI73
 70
     0
 40
21.0
 41
0.9
 50
0.0
 71
     0
 42
21.0
  3
txt.shx
  4
extfont.shx
  0
STYLE
  2
KANJI74
 70
     0
 40
21.0
 41
0.857142857
 50
0.0
 71
     0
 42
21.0
  3
txt.shx
  4
extfont.shx
  0
STYLE
  2
KANJI75
 70
     0
 40
18.0
 41
0.833333333
 50
0.0
 71
     0
 42
18.0
  3
txt.shx
  4
extfont.shx
  0
ENDTAB
  0
TABLE
  2
VIEW
 70
     0
  0
ENDTAB
  0
ENDSEC
  0
SECTION
  2
BLOCKS
  0
ENDSEC
  0
SECTION
  2
ENTITIES
  0
POLYLINE
  8
0
  6
CONTINUOUS
 62
     6
 66
     1
  0
VERTEX
  8
0
  6
CONTINUOUS
 62
     6
 10
82.92
 20
71.7
 30
0.0
  0
VERTEX
  8
0
  6
CONTINUOUS
 62
     6
 10
82.92
 20
1685.7
 30
0.0
  0
VERTEX
  8
0
  6
CONTINUOUS
 62
     6
 10
2404.92
 20
1685.7
 30
0.0
  0
SEQEND
  0
LINE
  8
0
  6
CONTINUOUS
 62
     6
 10
88.919998738
 20
161.699981077
 30
0.0
 11
478.919916738
 21
161.699981077
 31
0.0
  0
LINE
  8
0
  6
CONTINUOUS
 62
     6
 10
88.919998738
 20
77.699998738
 30
0.0
 11
478.919916738
 21
77.699998738
 31
0.0
  0
LINE
  8
0
  6
CONTINUOUS
 62
     6
 10
88.919998738
 20
77.699998738
 30
0.0
 11
88.919998738
 21
161.699981077
 31
0.0
  0
LINE
  8
0
  6
CONTINUOUS
 62
     6
 10
88.919998738
 20
119.699989908
 30
0.0
 11
478.919916738
 21
119.699989908
 31
0.0
  0
LINE
  8
0
  6
CONTINUOUS
 62
     4
 10
14.6199996
 20
76.8999996
 30
0.0
 11
77.0199948
 21
76.8999996
 31
0.0
  0
LINE
  8
0
  6
CONTINUOUS
 62
     4
 10
14.6199996
 20
108.0999972
 30
0.0
 11
77.0199948
 21
108.0999972
 31
0.0
  0
LINE
  8
0
  6
CONTINUOUS
 62
     4
 10
14.6199996
 20
139.2999948
 30
0.0
 11
77.0199948
 21
139.2999948
 31
0.0
  0
LINE
  8
0
  6
CONTINUOUS
 62
     4
 10
14.6199996
 20
170.4999924
 30
0.0
 11
77.0199948
 21
170.4999924
 31
0.0
  0
LINE
  8
0
  6
CONTINUOUS
 62
     4
 10
14.6199996
 20
201.69999
 30
0.0
 11
77.0199948
 21
201.69999
 31
0.0
  0
LINE
  8
0
  6
CONTINUOUS
 62
     4
 10
14.6199996
 20
232.8999876
 30
0.0
 11
77.0199948
 21
232.8999876
 31
0.0
  0
LINE
  8
0
  6
CONTINUOUS
 62
     4
 10
14.6199996
 20
264.0999852
 30
0.0
 11
77.0199948
 21
264.0999852
 31
0.0
  0
LINE
  8
0
  6
CONTINUOUS
 62
     4
 10
14.6199996
 20
295.2999828
 30
0.0
 11
77.0199948
 21
295.2999828
 31
0.0
  0
LINE
  8
0
  6
CONTINUOUS
 62
     4
 10
14.6199996
 20
326.4999804
 30
0.0
 11
77.0199948
 21
326.4999804
 31
0.0
  0
LINE
  8
0
  6
CONTINUOUS
 62
     4
 10
14.6199996
 20
357.699978
 30
0.0
 11
77.0199948
 21
357.699978
 31
0.0
  0
LINE
  8
0
  6
CONTINUOUS
 62
     4
 10
77.0199948
 20
76.8999996
 30
0.0
 11
77.0199948
 21
357.699978
 31
0.0
  0
LINE
  8
0
  6
CONTINUOUS
 62
     4
 10
45.8199972
 20
76.8999996
 30
0.0
 11
45.8199972
 21
326.4999804
 31
0.0
  0
TEXT
  8
0
  6
CONTINUOUS
 62
     4
 10
25.27999878
 20
85.9999989
 30
1.55999988
 40
15.5999988
  1
計
 50
0.0
 41
0.75
 51
0.0
  7
KANJI0
  0
TEXT
  8
0
  6
CONTINUOUS
 62
     4
 10
25.27999878
 20
148.91999406
 30
1.55999988
 40
15.5999988
  1
設
 50
0.0
 41
0.75
 51
0.0
  7
KANJI0
  0
TEXT
  8
0
  6
CONTINUOUS
 62
     4
 10
25.27999878
 20
179.5999917
 30
1.55999988
 40
15.5999988
  1
管
 50
0.0
 41
0.75
 51
0.0
  7
KANJI0
  0
TEXT
  8
0
  6
CONTINUOUS
 62
     4
 10
25.27999878
 20
210.7999893
 30
1.55999988
 40
15.5999988
  1
製
 50
0.0
 41
0.75
 51
0.0
  7
KANJI0
  0
TEXT
  8
0
  6
CONTINUOUS
 62
     4
 10
25.27999878
 20
241.9999869
 30
1.55999988
 40
15.5999988
  1
資
 50
0.0
 41
0.75
 51
0.0
  7
KANJI0
  0
TEXT
  8
0
  6
CONTINUOUS
 62
     4
 10
25.27999878
 20
273.1999845
 30
1.55999988
 40
15.5999988
  1
営
 50
0.0
 41
0.75
 51
0.0
  7
KANJI0
  0
TEXT
  8
0
  6
CONTINUOUS
 62
     4
 10
25.27999878
 20
304.3999821
 30
1.55999988
 40
15.5999988
  1
客
 50
0.0
 41
0.75
 51
0.0
  7
KANJI0
  0
TEXT
  8
0
  6
CONTINUOUS
 62
     4
 10
25.0199988
 20
336.8999796
 30
1.55999988
 40
15.5999988
  1
出　図
 50
0.0
 41
0.75
 51
0.0
  7
KANJI0
  0
LINE
  8
0
  6
CONTINUOUS
 62
     4
 10
14.6199996
 20
76.8999996
 30
0.0
 11
14.6199996
 21
357.699978
 31
0.0
  0
LINE
  8
0
  6
CONTINUOUS
 62
     6
 10
2404.92
 20
71.7
 30
0.0
 11
82.92
 21
71.7
 31
0.0
  0
TEXT
  8
0
  6
CONTINUOUS
 62
     4
 10
100.919996215
 20
101.699993692
 30
1.199999748
 40
11.999997477
  1
ＰＡＲＴＳ　ＬＩＳＴ
 50
0.0
 41
0.6
 51
0.0
  7
KANJI1
  0
TEXT
  8
0
  6
CONTINUOUS
 62
     4
 10
100.919996215
 20
83.699997477
 30
1.439999697
 40
14.399996972
  1
部品表
 50
0.0
 41
0.9
 51
0.0
  7
KANJI2
  0
TEXT
  8
0
  6
CONTINUOUS
 62
     3
 10
100.919996215
 20
131.699987385
 30
1.799999622
 40
17.999996215
  1
ＰＬ
 50
0.0
 41
0.9
 51
0.0
  7
KANJI3
  0
TEXT
  8
0
  6
CONTINUOUS
 62
     4
 10
370.919939446
 20
101.699993692
 30
1.199999748
 40
11.999997477
  1
Ｎ０．
 50
0.0
 41
0.6
 51
0.0
  7
KANJI1
  0
TEXT
  8
0
  6
CONTINUOUS
 62
     4
 10
370.919939446
 20
83.699997477
 30
1.439999697
 40
14.399996972
  1
項番
 50
0.0
 41
0.9
 51
0.0
  7
KANJI2
  0
LINE
  8
0
  6
CONTINUOUS
 62
     6
 10
478.919916738
 20
77.699998738
 30
0.0
 11
478.919916738
 21
161.699981077
 31
0.0
  0
LINE
  8
0
  6
CONTINUOUS
 62
     6
 10
358.919941969
 20
77.699998738
 30
0.0
 11
358.919941969
 21
161.699981077
 31
0.0
  0
LINE
  8
0
  6
CONTINUOUS
 62
     6
 10
2404.92
 20
1685.7
 30
0.0
 11
2404.92
 21
71.7
 31
0.0
  0
LINE
  8
0
  6
CONTINUOUS
 62
     6
 10
1598.920062
 20
76.8999996
 30
0.0
 11
1598.920062
 21
409.699974
 31
0.0
  0
LINE
  8
0
  6
CONTINUOUS
 62
     6
 10
2399.7200004
 20
76.8999996
 30
0.0
 11
2399.7200004
 21
409.699974
 31
0.0
  0
LINE
  8
0
  6
CONTINUOUS
 62
     4
 10
1788.7200474
 20
76.8999996
 30
0.0
 11
1788.7200474
 21
409.699974
 31
0.0
  0
LINE
  8
0
  6
CONTINUOUS
 62
     4
 10
1598.920062
 20
118.4999964
 30
0.0
 11
1788.7200474
 21
118.4999964
 31
0.0
  0
TEXT
  8
0
  6
CONTINUOUS
 62
     4
 10
1609.3200612
 20
100.2999978
 30
1.03999992
 40
10.3999992
  1
ＳＣＡＬＥ
 50
0.0
 41
0.6
 51
0.0
  7
KANJI4
  0
TEXT
  8
0
  6
CONTINUOUS
 62
     4
 10
1609.3200612
 20
84.699999
 30
1.247999904
 40
12.47999904
  1
尺度
 50
0.0
 41
0.6
 51
0.0
  7
KANJI5
  0
LINE
  8
0
  6
CONTINUOUS
 62
     6
 10
1188.1200936
 20
118.4999964
 30
0.0
 11
1598.920062
 21
118.4999964
 31
0.0
  0
LINE
  8
0
  6
CONTINUOUS
 62
     6
 10
1188.1200936
 20
76.8999996
 30
0.0
 11
2399.7200004
 21
76.8999996
 31
0.0
  0
TEXT
  8
0
  6
CONTINUOUS
 62
     6
 10
1793.920047
 20
100.2999978
 30
0.0
 40
18.1999986
  1
ＵＮＩＴＥＣ　ＩＮＤＵＳＴＲＹ　ＣＯ．，ＬＴＤ．
 50
0.0
 41
0.42031746
 51
0.0
  7
KANJI6
  0
TEXT
  8
0
  6
CONTINUOUS
 62
     6
 10
2049.175027365
 20
93.53999832
 30
3.11999976
 40
31.1999976
  1
ユニテック工業株式会社
 50
0.0
 41
0.9
 51
0.0
  7
KANJI7
  0
LINE
  8
0
  6
CONTINUOUS
 62
     6
 10
2007.575030565
 20
104.45999748
 30
0.0
 11
1993.847031621
 21
104.45999748
 31
0.0
  0
LINE
  8
0
  6
CONTINUOUS
 62
     6
 10
2007.575030565
 20
106.955997288
 30
0.0
 11
1993.847031621
 21
106.955997288
 31
0.0
  0
LINE
  8
0
  6
CONTINUOUS
 62
     6
 10
2007.575030565
 20
104.45999748
 30
0.0
 11
2021.303029509
 21
104.45999748
 31
0.0
  0
LINE
  8
0
  6
CONTINUOUS
 62
     6
 10
2007.575030565
 20
106.955997288
 30
0.0
 11
2021.303029509
 21
106.955997288
 31
0.0
  0
LINE
  8
0
  6
CONTINUOUS
 62
     6
 10
2021.303029509
 20
106.955997288
 30
0.0
 11
2021.303029509
 21
104.45999748
 31
0.0
  0
ARC
  8
0
  6
CONTINUOUS
 62
     6
 10
2024.423029269
 20
105.707997384
 30
0.0
 40
12.47999904
 50
185.739170477
 51
90.0
  0
ARC
  8
0
  6
CONTINUOUS
 62
     6
 10
2024.423029269
 20
105.707997384
 30
0.0
 40
14.975998848
 50
184.780191847
 51
90.0
  0
LINE
  8
0
  6
CONTINUOUS
 62
     6
 10
1993.847031621
 20
104.45999748
 30
0.0
 11
1993.847031621
 21
106.955997288
 31
0.0
  0
ARC
  8
0
  6
CONTINUOUS
 62
     6
 10
1990.727031861
 20
105.707997384
 30
0.0
 40
12.47999904
 50
90.0
 51
354.260829523
  0
ARC
  8
0
  6
CONTINUOUS
 62
     6
 10
1990.727031861
 20
105.707997384
 30
0.0
 40
14.975998848
 50
90.0
 51
355.219808153
  0
LINE
  8
0
  6
CONTINUOUS
 62
     6
 10
2005.703030709
 20
120.683996232
 30
0.0
 11
2005.703030709
 21
118.187996424
 31
0.0
  0
LINE
  8
0
  6
CONTINUOUS
 62
     6
 10
1990.727031861
 20
118.187996424
 30
0.0
 11
2005.703030709
 21
118.187996424
 31
0.0
  0
LINE
  8
0
  6
CONTINUOUS
 62
     6
 10
2009.447030421
 20
120.683996232
 30
0.0
 11
2009.447030421
 21
118.187996424
 31
0.0
  0
LINE
  8
0
  6
CONTINUOUS
 62
     6
 10
2024.423029269
 20
118.187996424
 30
0.0
 11
2009.447030421
 21
118.187996424
 31
0.0
  0
TEXT
  8
0
  6
CONTINUOUS
 62
     4
 10
1320.7200834
 20
100.2999978
 30
1.03999992
 40
10.3999992
  1
ＢＹ
 50
0.0
 41
0.6
 51
0.0
  7
KANJI4
  0
TEXT
  8
0
  6
CONTINUOUS
 62
     4
 10
1435.1200746
 20
100.2999978
 30
1.03999992
 40
10.3999992
  1
ＤＥＳＣＲＩＰＴＩＯＮ
 50
0.0
 41
0.6
 51
0.0
  7
KANJI4
  0
TEXT
  8
0
  6
CONTINUOUS
 62
     4
 10
1320.7200834
 20
84.699999
 30
1.247999904
 40
12.47999904
  1
担当
 50
0.0
 41
0.6
 51
0.0
  7
KANJI5
  0
TEXT
  8
0
  6
CONTINUOUS
 62
     4
 10
1450.7200734
 20
84.699999
 30
1.247999904
 40
12.47999904
  1
記　　　　事
 50
0.0
 41
0.6
 51
0.0
  7
KANJI5
  0
LINE
  8
0
  6
CONTINUOUS
 62
     4
 10
1210.2200919
 20
110.699997
 30
0.0
 11
1193.3200932
 21
84.699999
 31
0.0
  0
TEXT
  8
0
  6
CONTINUOUS
 62
     4
 10
1253.1200886
 20
100.2999978
 30
1.03999992
 40
10.3999992
  1
ＤＡＴＥ
 50
0.0
 41
0.6
 51
0.0
  7
KANJI4
  0
TEXT
  8
0
  6
CONTINUOUS
 62
     4
 10
1260.920088
 20
84.699999
 30
1.247999904
 40
12.47999904
  1
日付
 50
0.0
 41
0.6
 51
0.0
  7
KANJI5
  0
LINE
  8
0
  6
CONTINUOUS
 62
     4
 10
1193.3200932
 20
84.699999
 30
0.0
 11
1227.1200906
 21
84.699999
 31
0.0
  0
LINE
  8
0
  6
CONTINUOUS
 62
     4
 10
1210.2200919
 20
110.699997
 30
0.0
 11
1227.1200906
 21
84.699999
 31
0.0
  0
LINE
  8
0
  6
CONTINUOUS
 62
     6
 10
1188.1200936
 20
76.8999996
 30
0.0
 11
1188.1200936
 21
118.4999964
 31
0.0
  0
LINE
  8
0
  6
CONTINUOUS
 62
     4
 10
1232.3200902
 20
76.8999996
 30
0.0
 11
1232.3200902
 21
118.4999964
 31
0.0
  0
LINE
  8
0
  6
CONTINUOUS
 62
     4
 10
1305.1200846
 20
76.8999996
 30
0.0
 11
1305.1200846
 21
118.4999964
 31
0.0
  0
LINE
  8
0
  6
CONTINUOUS
 62
     4
 10
1351.920081
 20
76.8999996
 30
0.0
 11
1351.920081
 21
118.4999964
 31
0.0
  0
TEXT
  8
0
  6
CONTINUOUS
 62
     4
 10
1609.3200612
 20
308.2999818
 30
1.03999992
 40
10.3999992
  1
ＣＯＤＥ
 50
0.0
 41
0.6
 51
0.0
  7
KANJI4
  0
LINE
  8
0
  6
CONTINUOUS
 62
     4
 10
1598.920062
 20
326.4999804
 30
0.0
 11
2399.7200004
 21
326.4999804
 31
0.0
  0
TEXT
  8
0
  6
CONTINUOUS
 62
     4
 10
1609.3200612
 20
292.699983
 30
1.247999904
 40
12.47999904
  1
分類
 50
0.0
 41
0.6
 51
0.0
  7
KANJI5
  0
TEXT
  8
0
  6
CONTINUOUS
 62
     4
 10
1617.42
 20
332.7
 30
6.0
 40
21.6
  1
ご注文主
 50
0.0
 41
1.111111111
 51
0.0
  7
KANJI8
  0
TEXT
  8
0
  6
CONTINUOUS
 62
     4
 10
1609.3200612
 20
183.4999914
 30
1.03999992
 40
10.3999992
  1
ＤＲＡＷＮ
 50
0.0
 41
0.6
 51
0.0
  7
KANJI4
  0
TEXT
  8
0
  6
CONTINUOUS
 62
     4
 10
1609.3200612
 20
225.0999882
 30
1.03999992
 40
10.3999992
  1
ＤＥＳＩＧＮ
 50
0.0
 41
0.6
 51
0.0
  7
KANJI4
  0
TEXT
  8
0
  6
CONTINUOUS
 62
     4
 10
1609.3200612
 20
266.699985
 30
1.03999992
 40
10.3999992
  1
ＣＨＥＣＫ
 50
0.0
 41
0.6
 51
0.0
  7
KANJI4
  0
LINE
  8
0
  6
CONTINUOUS
 62
     4
 10
1598.920062
 20
243.2999868
 30
0.0
 11
1788.7200474
 21
243.2999868
 31
0.0
  0
LINE
  8
0
  6
CONTINUOUS
 62
     4
 10
1598.920062
 20
201.69999
 30
0.0
 11
1788.7200474
 21
201.69999
 31
0.0
  0
LINE
  8
0
  6
CONTINUOUS
 62
     4
 10
1598.920062
 20
284.8999836
 30
0.0
 11
1788.7200474
 21
284.8999836
 31
0.0
  0
TEXT
  8
0
  6
CONTINUOUS
 62
     4
 10
1609.3200612
 20
209.4999894
 30
1.247999904
 40
12.47999904
  1
設計
 50
0.0
 41
0.6
 51
0.0
  7
KANJI5
  0
TEXT
  8
0
  6
CONTINUOUS
 62
     4
 10
1609.3200612
 20
251.0999862
 30
1.247999904
 40
12.47999904
  1
検図
 50
0.0
 41
0.6
 51
0.0
  7
KANJI5
  0
LINE
  8
0
  6
CONTINUOUS
 62
     4
 10
1804.06004622
 20
284.8999836
 30
0.0
 11
2399.7200004
 21
284.8999836
 31
0.0
  0
LINE
  8
0
  6
CONTINUOUS
 62
     4
 10
1788.7200474
 20
201.69999
 30
0.0
 11
2399.7200004
 21
201.69999
 31
0.0
  0
TEXT
  8
0
  6
CONTINUOUS
 62
     4
 10
1799.1200466
 20
183.4999914
 30
1.03999992
 40
10.3999992
  1
ＤＲＡＷＩＮＧ　ＮＯ．
 50
0.0
 41
0.8
 51
0.0
  7
KANJI9
  0
TEXT
  8
0
  6
CONTINUOUS
 62
     4
 10
1799.1200466
 20
225.0999882
 30
1.03999992
 40
10.3999992
  1
ＭＦＧ　ＮＯ．
 50
0.0
 41
0.8
 51
0.0
  7
KANJI9
  0
TEXT
  8
0
  6
CONTINUOUS
 62
     4
 10
1799.1200466
 20
266.699985
 30
1.03999992
 40
10.3999992
  1
ＴＹＰＥ
 50
0.0
 41
0.8
 51
0.0
  7
KANJI9
  0
LINE
  8
0
  6
CONTINUOUS
 62
     4
 10
1804.3200462
 20
243.2999868
 30
0.0
 11
2043.5200278
 21
243.2999868
 31
0.0
  0
TEXT
  8
0
  6
CONTINUOUS
 62
     4
 10
1799.1200466
 20
165.2999928
 30
1.247999904
 40
12.47999904
  1
図　面　番　号
 50
0.0
 41
0.8
 51
0.0
  7
KANJI10
  0
TEXT
  8
0
  6
CONTINUOUS
 62
     4
 10
1799.1200466
 20
206.8999896
 30
1.247999904
 40
12.47999904
  1
製番
 50
0.0
 41
0.8
 51
0.0
  7
KANJI10
  0
TEXT
  8
0
  6
CONTINUOUS
 62
     4
 10
1799.1200466
 20
248.4999864
 30
1.247999904
 40
12.47999904
  1
機種
 50
0.0
 41
0.8
 51
0.0
  7
KANJI10
  0
LINE
  8
0
  6
CONTINUOUS
 62
     4
 10
1598.920062
 20
160.0999932
 30
0.0
 11
1788.7200474
 21
160.0999932
 31
0.0
  0
TEXT
  8
0
  6
CONTINUOUS
 62
     4
 10
1609.3200612
 20
141.8999946
 30
1.03999992
 40
10.3999992
  1
ＤＡＴＥ
 50
0.0
 41
0.6
 51
0.0
  7
KANJI4
  0
TEXT
  8
0
  6
CONTINUOUS
 62
     4
 10
1609.3200612
 20
126.2999958
 30
1.247999904
 40
12.47999904
  1
日付
 50
0.0
 41
0.6
 51
0.0
  7
KANJI5
  0
TEXT
  8
0
  6
CONTINUOUS
 62
     4
 10
1609.3200612
 20
167.8999926
 30
1.247999904
 40
12.47999904
  1
作図
 50
0.0
 41
0.6
 51
0.0
  7
KANJI5
  0
LINE
  8
0
  6
CONTINUOUS
 62
     4
 10
1788.7200474
 20
141.8999946
 30
0.0
 11
2399.7200004
 21
141.8999946
 31
0.0
  0
LINE
  8
0
  6
LTYPE1
 62
     4
 10
2225.5200138
 20
149.699994
 30
0.0
 11
2225.5200138
 21
191.2999908
 31
0.0
  0
LINE
  8
0
  6
LTYPE1
 62
     4
 10
2189.1200166
 20
149.699994
 30
0.0
 11
2189.1200166
 21
191.2999908
 31
0.0
  0
LINE
  8
0
  6
LTYPE1
 62
     4
 10
2152.7200194
 20
149.699994
 30
0.0
 11
2152.7200194
 21
191.2999908
 31
0.0
  0
LINE
  8
0
  6
LTYPE1
 62
     4
 10
2116.3200222
 20
149.699994
 30
0.0
 11
2116.3200222
 21
191.2999908
 31
0.0
  0
LINE
  8
0
  6
LTYPE1
 62
     4
 10
2079.920025
 20
149.699994
 30
0.0
 11
2079.920025
 21
191.2999908
 31
0.0
  0
LINE
  8
0
  6
LTYPE1
 62
     4
 10
2043.5200278
 20
149.699994
 30
0.0
 11
2043.5200278
 21
191.2999908
 31
0.0
  0
LINE
  8
0
  6
LTYPE1
 62
     4
 10
2007.1200306
 20
149.699994
 30
0.0
 11
2007.1200306
 21
191.2999908
 31
0.0
  0
LINE
  8
0
  6
LTYPE1
 62
     4
 10
1970.7200334
 20
149.699994
 30
0.0
 11
1970.7200334
 21
191.2999908
 31
0.0
  0
LINE
  8
0
  6
LTYPE1
 62
     4
 10
1970.7200334
 20
191.2999908
 30
0.0
 11
2225.5200138
 21
191.2999908
 31
0.0
  0
LINE
  8
0
  6
LTYPE1
 62
     4
 10
1970.7200334
 20
149.699994
 30
0.0
 11
2225.5200138
 21
149.699994
 31
0.0
  0
LINE
  8
0
  6
CONTINUOUS
 62
     4
 10
2246.3200122
 20
171.7999923
 30
0.0
 11
2256.7200114
 21
171.7999923
 31
0.0
  0
LINE
  8
0
  6
CONTINUOUS
 62
     4
 10
2311.3200072
 20
156.1999935
 30
0.0
 11
2274.92001
 21
156.1999935
 31
0.0
  0
LINE
  8
0
  6
CONTINUOUS
 62
     4
 10
2274.92001
 20
156.1999935
 30
0.0
 11
2293.1200086
 21
187.3999911
 31
0.0
  0
LINE
  8
0
  6
CONTINUOUS
 62
     4
 10
2293.1200086
 20
187.3999911
 30
0.0
 11
2311.3200072
 21
156.1999935
 31
0.0
  0
TEXT
  8
0
  6
CONTINUOUS
 62
     4
 10
2059.1200266
 20
266.699985
 30
1.03999992
 40
10.3999992
  1
ＴＩＴＬＥ
 50
0.0
 41
0.8
 51
0.0
  7
KANJI9
  0
TEXT
  8
0
  6
CONTINUOUS
 62
     4
 10
2059.1200266
 20
248.4999864
 30
1.247999904
 40
12.47999904
  1
名称
 50
0.0
 41
0.8
 51
0.0
  7
KANJI10
  0
TEXT
  8
0
  6
CONTINUOUS
 62
     2
 10
2143.92
 20
209.7
 30
15.0
 40
30.0
  1
外形寸法図
 50
0.0
 41
1.0
 51
0.0
  7
KANJI11
  0
TEXT
  8
0
  6
CONTINUOUS
 62
     2
 10
2107.92
 20
245.7
 30
4.285714286
 40
30.0
  1
マイティシリンダ
 50
0.0
 41
1.0
 51
0.0
  7
KANJI12
  0
TEXT
  8
0
  6
CONTINUOUS
 62
     2
 10
1939.2200334
 20
155.699994
 30
1.8
 40
30.0
  1
Ａ
 50
0.0
 41
0.8
 51
0.0
  7
KANJI13
  0
CIRCLE
  8
0
  6
CONTINUOUS
 62
     2
 10
1900.2200334
 20
220.199994
 30
0.0
 40
15.0
  0
TEXT
  8
0
  6
CONTINUOUS
 62
     2
 10
1888.9700334
 20
208.949994
 30
1.8
 40
24.0
  1
Ｓ
 50
0.0
 41
1.0
 51
0.0
  7
KANJI14
  0
LINE
  8
0
  6
CONTINUOUS
 62
     6
 10
2005.703030709
 20
120.683996232
 30
0.0
 11
1990.727031861
 21
120.683996232
 31
0.0
  0
LINE
  8
0
  6
CONTINUOUS
 62
     6
 10
2009.447030421
 20
120.683996232
 30
0.0
 11
2024.423029269
 21
120.683996232
 31
0.0
  0
TEXT
  8
0
  6
CONTINUOUS
 62
     2
 10
1665.9200334
 20
170.699994
 30
6.0
 40
21.0
  1
岡田
 50
0.0
 41
0.857142857
 51
0.0
  7
KANJI15
  0
LINE
  8
0
  6
CONTINUOUS
 62
     4
 10
2399.7200004
 20
368.0999772
 30
0.0
 11
2399.7200004
 21
409.699974
 31
0.0
  0
LINE
  8
0
  6
CONTINUOUS
 62
     6
 10
1599.670062
 20
368.0999772
 30
0.0
 11
2400.4700004
 21
368.0999772
 31
0.0
  0
LINE
  8
0
  6
CONTINUOUS
 62
     6
 10
1598.920062
 20
409.699974
 30
0.0
 11
2399.7200004
 21
409.699974
 31
0.0
  0
TEXT
  8
0
  6
CONTINUOUS
 62
     4
 10
1617.42
 20
374.2999968
 30
6.0
 40
21.6
  1
ご用途
 50
0.0
 41
1.111111111
 51
0.0
  7
KANJI8
  0
LINE
  8
0
  6
CONTINUOUS
 62
     1
 10
1014.12
 20
1491.24
 30
0.0
 11
1791.72
 21
1491.24
 31
0.0
  0
LINE
  8
0
  6
CONTINUOUS
 62
     1
 10
1014.12
 20
1457.64
 30
0.0
 11
1791.72
 21
1457.64
 31
0.0
  0
TEXT
  8
0
  6
CONTINUOUS
 62
     2
 10
1062.12
 20
1467.24
 30
1.536
 40
15.36
  1
形
 50
0.0
 41
0.9
 51
0.0
  7
KANJI16
  0
TEXT
  8
0
  6
CONTINUOUS
 62
     2
 10
1155.72
 20
1467.24
 30
1.536
 40
15.36
  1
式
 50
0.0
 41
0.9
 51
0.0
  7
KANJI16
  0
TEXT
  8
0
  6
CONTINUOUS
 62
     2
 10
1228.2
 20
1466.28
 30
1.44
 40
14.4
  1
ストローク
 50
0.0
 41
0.9
 51
0.0
  7
KANJI17
  0
TEXT
  8
0
  6
CONTINUOUS
 62
     2
 10
1320.36
 20
1465.32
 30
0.0
 40
14.4
  1
ｍｉｎ　
 50
0.0
 41
0.9
 51
0.0
  7
KANJI18
  0
TEXT
  8
0
  6
CONTINUOUS
 62
     2
 10
1416.36
 20
1465.32
 30
0.0
 40
14.4
  1
ｍｉｎ　
 50
0.0
 41
0.9
 51
0.0
  7
KANJI18
  0
TEXT
  8
0
  6
CONTINUOUS
 62
     2
 10
1608.36
 20
1465.32
 30
0.0
 40
14.4
  1
ｍｉｎ　
 50
0.0
 41
0.9
 51
0.0
  7
KANJI18
  0
TEXT
  8
0
  6
CONTINUOUS
 62
     2
 10
1369.32
 20
1466.28
 30
1.68
 40
16.8
  1
ＡＬ
 50
0.0
 41
0.9
 51
0.0
  7
KANJI19
  0
TEXT
  8
0
  6
CONTINUOUS
 62
     2
 10
1465.32
 20
1466.28
 30
1.68
 40
16.8
  1
Ｌ
 50
0.0
 41
0.9
 51
0.0
  7
KANJI19
  0
TEXT
  8
0
  6
CONTINUOUS
 62
     2
 10
1546.92
 20
1466.28
 30
1.68
 40
16.8
  1
Ｃ
 50
0.0
 41
0.9
 51
0.0
  7
KANJI19
  0
TEXT
  8
0
  6
CONTINUOUS
 62
     2
 10
1657.32
 20
1466.28
 30
1.68
 40
16.8
  1
Ｐ
 50
0.0
 41
0.9
 51
0.0
  7
KANJI19
  0
TEXT
  8
0
  6
CONTINUOUS
 62
     2
 10
1756.08
 20
1465.92
 30
0.0
 40
12.96
  1
（ｋｇ）
 50
0.0
 41
0.740740741
 51
0.0
  7
KANJI20
  0
TEXT
  8
0
  6
CONTINUOUS
 62
     2
 10
1698.48
 20
1465.68
 30
1.44
 40
16.8
  1
概算重量
 50
0.0
 41
0.857142857
 51
0.0
  7
KANJI21
  0
TEXT
  8
0
  6
CONTINUOUS
 62
     2
 10
1708.92
 20
83.7
 30
1.8
 40
27.0
  1
１／６
 50
0.0
 41
0.666666667
 51
0.0
  7
KANJI22
  0
LINE
  8
0
  6
CONTINUOUS
 62
     1
 10
1523.37
 20
1674.9
 30
0.0
 11
1523.37
 21
1554.78
 31
0.0
  0
LINE
  8
0
  6
CONTINUOUS
 62
     2
 10
1454.07
 20
1674.9
 30
0.0
 11
1454.07
 21
1554.78
 31
0.0
  0
LINE
  8
0
  6
CONTINUOUS
 62
     2
 10
1384.77
 20
1674.9
 30
0.0
 11
1384.77
 21
1554.78
 31
0.0
  0
LINE
  8
0
  6
CONTINUOUS
 62
     1
 10
1292.37
 20
1674.9
 30
0.0
 11
1292.37
 21
1554.78
 31
0.0
  0
LINE
  8
0
  6
CONTINUOUS
 62
     1
 10
1292.37
 20
1674.9
 30
0.0
 11
1523.37
 21
1674.9
 31
0.0
  0
LINE
  8
0
  6
CONTINUOUS
 62
     1
 10
1292.37
 20
1637.94
 30
0.0
 11
1523.37
 21
1637.94
 31
0.0
  0
LINE
  8
0
  6
CONTINUOUS
 62
     2
 10
1292.37
 20
1610.22
 30
0.0
 11
1523.37
 21
1610.22
 31
0.0
  0
LINE
  8
0
  6
CONTINUOUS
 62
     2
 10
1292.37
 20
1582.5
 30
0.0
 11
1523.37
 21
1582.5
 31
0.0
  0
LINE
  8
0
  6
CONTINUOUS
 62
     1
 10
1292.37
 20
1554.78
 30
0.0
 11
1523.37
 21
1554.78
 31
0.0
  0
TEXT
  8
0
  6
CONTINUOUS
 62
     2
 10
1463.31
 20
1658.73
 30
1.386
 40
13.86
  1
起動電流
 50
0.0
 41
0.9
 51
0.0
  7
KANJI23
  0
TEXT
  8
0
  6
CONTINUOUS
 62
     2
 10
1463.31
 20
1642.56
 30
1.386
 40
13.86
  1
　　　Ａ
 50
0.0
 41
0.9
 51
0.0
  7
KANJI23
  0
TEXT
  8
0
  6
CONTINUOUS
 62
     2
 10
1394.01
 20
1658.73
 30
1.386
 40
13.86
  1
定格電流
 50
0.0
 41
0.9
 51
0.0
  7
KANJI23
  0
TEXT
  8
0
  6
CONTINUOUS
 62
     2
 10
1394.01
 20
1642.56
 30
1.386
 40
13.86
  1
　　　Ａ
 50
0.0
 41
0.9
 51
0.0
  7
KANJI23
  0
TEXT
  8
0
  6
CONTINUOUS
 62
     2
 10
1300.224
 20
1589.43
 30
1.386
 40
13.86
  1
２００／６０
 50
0.0
 41
0.9
 51
0.0
  7
KANJI23
  0
TEXT
  8
0
  6
CONTINUOUS
 62
     2
 10
1300.224
 20
1658.73
 30
1.386
 40
13.86
  1
電圧／周波数
 50
0.0
 41
0.9
 51
0.0
  7
KANJI23
  0
TEXT
  8
0
  6
CONTINUOUS
 62
     2
 10
1300.224
 20
1642.56
 30
1.386
 40
13.86
  1
　Ｖ／Ｈｚ
 50
0.0
 41
0.9
 51
0.0
  7
KANJI23
  0
TEXT
  8
0
  6
CONTINUOUS
 62
     2
 10
1300.224
 20
1617.15
 30
1.386
 40
13.86
  1
２００／５０
 50
0.0
 41
0.9
 51
0.0
  7
KANJI23
  0
TEXT
  8
0
  6
CONTINUOUS
 62
     2
 10
1300.224
 20
1561.71
 30
1.386
 40
13.86
  1
２２０／６０
 50
0.0
 41
0.9
 51
0.0
  7
KANJI23
  0
LINE
  8
0
  6
CONTINUOUS
 62
     1
 10
1246.17
 20
1674.9
 30
0.0
 11
1246.17
 21
1554.78
 31
0.0
  0
LINE
  8
0
  6
CONTINUOUS
 62
     2
 10
1176.87
 20
1674.9
 30
0.0
 11
1176.87
 21
1554.78
 31
0.0
  0
LINE
  8
0
  6
CONTINUOUS
 62
     2
 10
1107.57
 20
1674.9
 30
0.0
 11
1107.57
 21
1554.78
 31
0.0
  0
LINE
  8
0
  6
CONTINUOUS
 62
     1
 10
1015.17
 20
1674.9
 30
0.0
 11
1015.17
 21
1554.78
 31
0.0
  0
LINE
  8
0
  6
CONTINUOUS
 62
     1
 10
1015.17
 20
1674.9
 30
0.0
 11
1246.17
 21
1674.9
 31
0.0
  0
LINE
  8
0
  6
CONTINUOUS
 62
     1
 10
1015.17
 20
1637.94
 30
0.0
 11
1246.17
 21
1637.94
 31
0.0
  0
LINE
  8
0
  6
CONTINUOUS
 62
     2
 10
1015.17
 20
1610.22
 30
0.0
 11
1246.17
 21
1610.22
 31
0.0
  0
LINE
  8
0
  6
CONTINUOUS
 62
     2
 10
1015.17
 20
1582.5
 30
0.0
 11
1246.17
 21
1582.5
 31
0.0
  0
LINE
  8
0
  6
CONTINUOUS
 62
     1
 10
1015.17
 20
1554.78
 30
0.0
 11
1246.17
 21
1554.78
 31
0.0
  0
TEXT
  8
0
  6
CONTINUOUS
 62
     2
 10
1186.11
 20
1658.73
 30
1.386
 40
13.86
  1
起動電流
 50
0.0
 41
0.9
 51
0.0
  7
KANJI23
  0
TEXT
  8
0
  6
CONTINUOUS
 62
     2
 10
1186.11
 20
1642.56
 30
1.386
 40
13.86
  1
　　　Ａ
 50
0.0
 41
0.9
 51
0.0
  7
KANJI23
  0
TEXT
  8
0
  6
CONTINUOUS
 62
     2
 10
1116.81
 20
1658.73
 30
1.386
 40
13.86
  1
定格電流
 50
0.0
 41
0.9
 51
0.0
  7
KANJI23
  0
TEXT
  8
0
  6
CONTINUOUS
 62
     2
 10
1116.81
 20
1642.56
 30
1.386
 40
13.86
  1
　　　Ａ
 50
0.0
 41
0.9
 51
0.0
  7
KANJI23
  0
TEXT
  8
0
  6
CONTINUOUS
 62
     2
 10
1023.024
 20
1658.73
 30
1.386
 40
13.86
  1
電圧／周波数
 50
0.0
 41
0.9
 51
0.0
  7
KANJI23
  0
TEXT
  8
0
  6
CONTINUOUS
 62
     2
 10
1023.024
 20
1642.56
 30
1.386
 40
13.86
  1
　Ｖ／Ｈｚ
 50
0.0
 41
0.9
 51
0.0
  7
KANJI23
  0
TEXT
  8
0
  6
CONTINUOUS
 62
     2
 10
1023.024
 20
1617.15
 30
1.386
 40
13.86
  1
４００／５０
 50
0.0
 41
0.9
 51
0.0
  7
KANJI23
  0
TEXT
  8
0
  6
CONTINUOUS
 62
     2
 10
1023.024
 20
1589.43
 30
1.386
 40
13.86
  1
４００／６０
 50
0.0
 41
0.9
 51
0.0
  7
KANJI23
  0
TEXT
  8
0
  6
CONTINUOUS
 62
     2
 10
1023.024
 20
1561.71
 30
1.386
 40
13.86
  1
４４０／６０
 50
0.0
 41
0.9
 51
0.0
  7
KANJI23
  0
TEXT
  8
0
  6
CONTINUOUS
 62
     2
 10
1116.81
 20
1617.15
 30
1.386
 40
13.86
  1
　２．０
 50
0.0
 41
0.9
 51
0.0
  7
KANJI23
  0
TEXT
  8
0
  6
CONTINUOUS
 62
     2
 10
1116.81
 20
1561.71
 30
1.386
 40
13.86
  1
　１．７
 50
0.0
 41
0.9
 51
0.0
  7
KANJI23
  0
TEXT
  8
0
  6
CONTINUOUS
 62
     2
 10
1116.81
 20
1589.43
 30
1.386
 40
13.86
  1
　１．８
 50
0.0
 41
0.9
 51
0.0
  7
KANJI23
  0
TEXT
  8
0
  6
CONTINUOUS
 62
     2
 10
1394.01
 20
1617.15
 30
1.386
 40
13.86
  1
　４．０
 50
0.0
 41
0.9
 51
0.0
  7
KANJI23
  0
TEXT
  8
0
  6
CONTINUOUS
 62
     2
 10
1394.01
 20
1589.43
 30
1.386
 40
13.86
  1
　３．２
 50
0.0
 41
0.9
 51
0.0
  7
KANJI23
  0
TEXT
  8
0
  6
CONTINUOUS
 62
     2
 10
1394.01
 20
1561.71
 30
1.386
 40
13.86
  1
　３．４
 50
0.0
 41
0.9
 51
0.0
  7
KANJI23
  0
TEXT
  8
0
  6
CONTINUOUS
 62
     2
 10
1186.11
 20
1617.15
 30
1.386
 40
13.86
  1
　６．６
 50
0.0
 41
0.9
 51
0.0
  7
KANJI23
  0
TEXT
  8
0
  6
CONTINUOUS
 62
     2
 10
1186.11
 20
1589.43
 30
1.386
 40
13.86
  1
　５．８
 50
0.0
 41
0.9
 51
0.0
  7
KANJI23
  0
TEXT
  8
0
  6
CONTINUOUS
 62
     2
 10
1186.11
 20
1561.71
 30
1.386
 40
13.86
  1
　６．４
 50
0.0
 41
0.9
 51
0.0
  7
KANJI23
  0
TEXT
  8
0
  6
CONTINUOUS
 62
     2
 10
1463.31
 20
1617.15
 30
1.386
 40
13.86
  1
１３．３
 50
0.0
 41
0.9
 51
0.0
  7
KANJI23
  0
TEXT
  8
0
  6
CONTINUOUS
 62
     2
 10
1463.31
 20
1589.43
 30
1.386
 40
13.86
  1
１１．６
 50
0.0
 41
0.9
 51
0.0
  7
KANJI23
  0
TEXT
  8
0
  6
CONTINUOUS
 62
     2
 10
1463.31
 20
1561.71
 30
1.386
 40
13.86
  1
１２．７
 50
0.0
 41
0.9
 51
0.0
  7
KANJI23
  0
TEXT
  8
0
  6
CONTINUOUS
 62
     2
 10
1861.92
 20
251.7
 30
0.0
 40
21.0
  1
ＭＣＬＣ１－
 50
0.0
 41
0.793650794
 51
0.0
  7
KANJI24
  0
TEXT
  8
0
  6
CONTINUOUS
 62
     2
 10
1976.7200334
 20
155.699994
 30
13.0
 40
30.0
  1
３００２４３４
 50
0.0
 41
0.8
 51
0.0
  7
KANJI25
  0
TEXT
  8
0
  6
CONTINUOUS
 62
     2
 10
176.25
 20
37.06
 30
0.0
 40
18.0
  1
ＦＤ　Ｎｏ．ＭＣ１９１
 50
0.0
 41
0.9
 51
0.0
  7
KANJI26
  0
TEXT
  8
0
  6
CONTINUOUS
 62
     2
 10
1055.133
 20
1533.99
 30
1.617
 40
16.17
  1
注意：サーマルリレー等の選定は、上記の値で選定して下さい。
 50
0.0
 41
0.9
 51
0.0
  7
KANJI27
  0
LINE
  8
0
  6
CONTINUOUS
 62
     1
 10
521.0
 20
575.0
 30
0.0
 11
435.0
 21
575.0
 31
0.0
  0
LINE
  8
0
  6
CONTINUOUS
 62
     1
 10
435.0
 20
588.5
 30
0.0
 11
435.0
 21
577.55046
 31
0.0
  0
LINE
  8
0
  6
CONTINUOUS
 62
     1
 10
435.0
 20
588.5
 30
0.0
 11
435.0
 21
599.44954
 31
0.0
  0
LINE
  8
0
  6
CONTINUOUS
 62
     1
 10
426.9789
 20
580.23198
 30
0.0
 11
428.527076294
 21
577.55046
 31
0.0
  0
LINE
  8
0
  6
CONTINUOUS
 62
     1
 10
426.9789
 20
588.5
 30
0.0
 11
426.9789
 21
580.23198
 31
0.0
  0
LINE
  8
0
  6
CONTINUOUS
 62
     1
 10
426.9789
 20
596.76802
 30
0.0
 11
428.527076294
 21
599.44954
 31
0.0
  0
LINE
  8
0
  6
CONTINUOUS
 62
     1
 10
426.9789
 20
588.5
 30
0.0
 11
426.9789
 21
596.76802
 31
0.0
  0
ARC
  8
0
  6
CONTINUOUS
 62
     1
 10
437.433121693
 20
588.5
 30
0.0
 40
10.454221693
 50
148.419912243
 51
211.580087757
  0
ARC
  8
0
  6
CONTINUOUS
 62
     1
 10
430.172013606
 20
580.287845
 30
0.0
 40
3.193602261
 50
121.002313915
 51
182.989498403
  0
LINE
  8
0
  6
CONTINUOUS
 62
     1
 10
426.9789
 20
596.76802
 30
0.0
 11
428.527076294
 21
599.44954
 31
0.0
  0
ARC
  8
0
  6
CONTINUOUS
 62
     1
 10
430.172013606
 20
596.712155
 30
0.0
 40
3.193602261
 50
177.010501597
 51
238.997686085
  0
LINE
  8
0
  6
CONTINUOUS
 62
     1
 10
435.0
 20
577.55046
 30
0.0
 11
428.527076294
 21
577.55046
 31
0.0
  0
LINE
  8
0
  6
CONTINUOUS
 62
     1
 10
435.0
 20
583.02523
 30
0.0
 11
428.527076294
 21
583.02523
 31
0.0
  0
LINE
  8
0
  6
CONTINUOUS
 62
     1
 10
435.0
 20
593.97477
 30
0.0
 11
428.527076294
 21
593.97477
 31
0.0
  0
LINE
  8
0
  6
CONTINUOUS
 62
     1
 10
435.0
 20
599.44954
 30
0.0
 11
428.527076294
 21
599.44954
 31
0.0
  0
LINE
  8
0
  6
CONTINUOUS
 62
     1
 10
435.0
 20
716.5
 30
0.0
 11
435.0
 21
705.55046
 31
0.0
  0
LINE
  8
0
  6
CONTINUOUS
 62
     1
 10
435.0
 20
716.5
 30
0.0
 11
435.0
 21
727.44954
 31
0.0
  0
LINE
  8
0
  6
CONTINUOUS
 62
     1
 10
426.9789
 20
708.23198
 30
0.0
 11
428.527076294
 21
705.55046
 31
0.0
  0
LINE
  8
0
  6
CONTINUOUS
 62
     1
 10
426.9789
 20
716.5
 30
0.0
 11
426.9789
 21
708.23198
 31
0.0
  0
LINE
  8
0
  6
CONTINUOUS
 62
     1
 10
426.9789
 20
724.76802
 30
0.0
 11
428.527076294
 21
727.44954
 31
0.0
  0
LINE
  8
0
  6
CONTINUOUS
 62
     1
 10
426.9789
 20
716.5
 30
0.0
 11
426.9789
 21
724.76802
 31
0.0
  0
ARC
  8
0
  6
CONTINUOUS
 62
     1
 10
437.433121693
 20
716.5
 30
0.0
 40
10.454221693
 50
148.419912243
 51
211.580087757
  0
ARC
  8
0
  6
CONTINUOUS
 62
     1
 10
430.172013606
 20
708.287845
 30
0.0
 40
3.193602261
 50
121.002313915
 51
182.989498403
  0
LINE
  8
0
  6
CONTINUOUS
 62
     1
 10
426.9789
 20
724.76802
 30
0.0
 11
428.527076294
 21
727.44954
 31
0.0
  0
ARC
  8
0
  6
CONTINUOUS
 62
     1
 10
430.172013606
 20
724.712155
 30
0.0
 40
3.193602261
 50
177.010501597
 51
238.997686085
  0
LINE
  8
0
  6
CONTINUOUS
 62
     1
 10
435.0
 20
705.55046
 30
0.0
 11
428.527076294
 21
705.55046
 31
0.0
  0
LINE
  8
0
  6
CONTINUOUS
 62
     1
 10
435.0
 20
711.02523
 30
0.0
 11
428.527076294
 21
711.02523
 31
0.0
  0
LINE
  8
0
  6
CONTINUOUS
 62
     1
 10
435.0
 20
721.97477
 30
0.0
 11
428.527076294
 21
721.97477
 31
0.0
  0
LINE
  8
0
  6
CONTINUOUS
 62
     1
 10
435.0
 20
727.44954
 30
0.0
 11
428.527076294
 21
727.44954
 31
0.0
  0
LINE
  8
0
  6
CONTINUOUS
 62
     1
 10
629.0
 20
594.5
 30
0.0
 11
703.0
 21
594.5
 31
0.0
  0
LINE
  8
0
  6
CONTINUOUS
 62
     1
 10
703.0
 20
594.5
 30
0.0
 11
703.0
 21
705.5
 31
0.0
  0
LINE
  8
0
  6
CONTINUOUS
 62
     1
 10
536.0
 20
595.5
 30
0.0
 11
536.0
 21
709.5
 31
0.0
  0
CIRCLE
  8
0
  6
CONTINUOUS
 62
     1
 10
581.0
 20
652.5
 30
0.0
 40
10.0
  0
CIRCLE
  8
0
  6
CONTINUOUS
 62
     1
 10
581.0
 20
652.5
 30
0.0
 40
21.0
  0
CIRCLE
  8
0
  6
CONTINUOUS
 62
     1
 10
581.0
 20
652.5
 30
0.0
 40
25.0
  0
LINE
  8
0
  6
CONTINUOUS
 62
     1
 10
521.0
 20
709.5
 30
0.0
 11
536.0
 21
709.5
 31
0.0
  0
LINE
  8
0
  6
CONTINUOUS
 62
     1
 10
549.9
 20
705.5
 30
0.0
 11
703.0
 21
705.5
 31
0.0
  0
LINE
  8
0
  6
CONTINUOUS
 62
     1
 10
629.0
 20
594.5
 30
0.0
 11
629.0
 21
646.9
 31
0.0
  0
LINE
  8
0
  6
CONTINUOUS
 62
     1
 10
549.9
 20
599.5
 30
0.0
 11
626.5
 21
599.5
 31
0.0
  0
LINE
  8
0
  6
CONTINUOUS
 62
     1
 10
711.0
 20
593.0
 30
0.0
 11
711.0
 21
592.0
 31
0.0
  0
ARC
  8
0
  6
CONTINUOUS
 62
     1
 10
624.0
 20
590.0
 30
0.0
 40
3.0
 50
90.0
 51
180.0
  0
LINE
  8
0
  6
CONTINUOUS
 62
     1
 10
750.0
 20
550.0
 30
0.0
 11
621.0
 21
550.0
 31
0.0
  0
LINE
  8
0
  6
CONTINUOUS
 62
     1
 10
711.0
 20
592.0
 30
0.0
 11
747.0
 21
592.0
 31
0.0
  0
ARC
  8
0
  6
CONTINUOUS
 62
     1
 10
747.0
 20
589.0
 30
0.0
 40
3.0
 50
0.0
 51
90.0
  0
LINE
  8
0
  6
CONTINUOUS
 62
     1
 10
750.0
 20
548.5
 30
0.0
 11
621.0
 21
548.5
 31
0.0
  0
LINE
  8
0
  6
CONTINUOUS
 62
     1
 10
750.0
 20
543.5
 30
0.0
 11
750.0
 21
589.0
 31
0.0
  0
ARC
  8
0
  6
CONTINUOUS
 62
     1
 10
749.0
 20
543.5
 30
0.0
 40
1.0
 50
270.0
 51
0.0
  0
LINE
  8
0
  6
CONTINUOUS
 62
     1
 10
747.0
 20
542.5
 30
0.0
 11
747.0
 21
542.5
 31
0.0
  0
ARC
  8
0
  6
CONTINUOUS
 62
     1
 10
746.0
 20
542.5
 30
0.0
 40
1.0
 50
270.0
 51
0.0
  0
LINE
  8
0
  6
CONTINUOUS
 62
     1
 10
621.0
 20
543.5
 30
0.0
 11
621.0
 21
590.0
 31
0.0
  0
LINE
  8
0
  6
CONTINUOUS
 62
     1
 10
749.0
 20
542.5
 30
0.0
 11
622.0
 21
542.5
 31
0.0
  0
ARC
  8
0
  6
CONTINUOUS
 62
     1
 10
622.0
 20
543.5
 30
0.0
 40
1.0
 50
180.0
 51
270.0
  0
ARC
  8
0
  6
CONTINUOUS
 62
     1
 10
625.0
 20
542.5
 30
0.0
 40
1.0
 50
180.0
 51
270.0
  0
LINE
  8
0
  6
CONTINUOUS
 62
     1
 10
746.0
 20
541.5
 30
0.0
 11
625.1
 21
541.5
 31
0.0
  0
LINE
  8
0
  6
CONTINUOUS
 62
     1
 10
624.0
 20
593.0
 30
0.0
 11
711.0
 21
593.0
 31
0.0
  0
LINE
  8
0
  6
CONTINUOUS
 62
     1
 10
624.0
 20
594.5
 30
0.0
 11
711.0
 21
594.5
 31
0.0
  0
LINE
  8
0
  6
CONTINUOUS
 62
     1
 10
539.0
 20
697.5
 30
0.0
 11
539.0
 21
708.44954
 31
0.0
  0
LINE
  8
0
  6
CONTINUOUS
 62
     1
 10
539.0
 20
697.5
 30
0.0
 11
539.0
 21
686.55046
 31
0.0
  0
LINE
  8
0
  6
CONTINUOUS
 62
     1
 10
536.0
 20
708.25
 30
0.0
 11
539.0
 21
708.25
 31
0.0
  0
LINE
  8
0
  6
CONTINUOUS
 62
     1
 10
536.0
 20
697.5
 30
0.0
 11
539.000254073
 21
700.500254073
 31
0.0
  0
LINE
  8
0
  6
CONTINUOUS
 62
     1
 10
539.000254073
 20
697.5
 30
0.0
 11
536.0
 21
694.499745927
 31
0.0
  0
LINE
  8
0
  6
CONTINUOUS
 62
     1
 10
536.0
 20
686.75
 30
0.0
 11
539.0
 21
686.75
 31
0.0
  0
LINE
  8
0
  6
CONTINUOUS
 62
     1
 10
539.0
 20
708.25
 30
0.0
 11
550.3
 21
708.25
 31
0.0
  0
LINE
  8
0
  6
CONTINUOUS
 62
     1
 10
550.3
 20
697.5
 30
0.0
 11
550.3
 21
708.25
 31
0.0
  0
LINE
  8
0
  6
CONTINUOUS
 62
     1
 10
550.3
 20
708.25
 30
0.0
 11
551.0
 21
707.037564435
 31
0.0
  0
LINE
  8
0
  6
CONTINUOUS
 62
     1
 10
551.0
 20
697.5
 30
0.0
 11
551.0
 21
707.037564435
 31
0.0
  0
LINE
  8
0
  6
CONTINUOUS
 62
     1
 10
539.0
 20
686.75
 30
0.0
 11
550.3
 21
686.75
 31
0.0
  0
LINE
  8
0
  6
CONTINUOUS
 62
     1
 10
550.3
 20
697.5
 30
0.0
 11
550.3
 21
686.75
 31
0.0
  0
LINE
  8
0
  6
CONTINUOUS
 62
     1
 10
550.3
 20
686.75
 30
0.0
 11
551.0
 21
687.962435565
 31
0.0
  0
LINE
  8
0
  6
CONTINUOUS
 62
     1
 10
551.0
 20
697.5
 30
0.0
 11
551.0
 21
687.962435565
 31
0.0
  0
LINE
  8
0
  6
CONTINUOUS
 62
     1
 10
539.0
 20
607.5
 30
0.0
 11
539.0
 21
596.55046
 31
0.0
  0
LINE
  8
0
  6
CONTINUOUS
 62
     1
 10
539.0
 20
607.5
 30
0.0
 11
539.0
 21
618.44954
 31
0.0
  0
LINE
  8
0
  6
CONTINUOUS
 62
     1
 10
536.0
 20
596.75
 30
0.0
 11
539.0
 21
596.75
 31
0.0
  0
LINE
  8
0
  6
CONTINUOUS
 62
     1
 10
536.0
 20
607.5
 30
0.0
 11
539.000254073
 21
604.499745927
 31
0.0
  0
LINE
  8
0
  6
CONTINUOUS
 62
     1
 10
539.000254073
 20
607.5
 30
0.0
 11
536.0
 21
610.500254073
 31
0.0
  0
LINE
  8
0
  6
CONTINUOUS
 62
     1
 10
536.0
 20
618.25
 30
0.0
 11
539.0
 21
618.25
 31
0.0
  0
LINE
  8
0
  6
CONTINUOUS
 62
     1
 10
539.0
 20
596.75
 30
0.0
 11
550.3
 21
596.75
 31
0.0
  0
LINE
  8
0
  6
CONTINUOUS
 62
     1
 10
550.3
 20
607.5
 30
0.0
 11
550.3
 21
596.75
 31
0.0
  0
LINE
  8
0
  6
CONTINUOUS
 62
     1
 10
550.3
 20
596.75
 30
0.0
 11
551.0
 21
597.962435565
 31
0.0
  0
LINE
  8
0
  6
CONTINUOUS
 62
     1
 10
551.0
 20
607.5
 30
0.0
 11
551.0
 21
597.962435565
 31
0.0
  0
LINE
  8
0
  6
CONTINUOUS
 62
     1
 10
539.0
 20
618.25
 30
0.0
 11
550.3
 21
618.25
 31
0.0
  0
LINE
  8
0
  6
CONTINUOUS
 62
     1
 10
550.3
 20
607.5
 30
0.0
 11
550.3
 21
618.25
 31
0.0
  0
LINE
  8
0
  6
CONTINUOUS
 62
     1
 10
550.3
 20
618.25
 30
0.0
 11
551.0
 21
617.037564435
 31
0.0
  0
LINE
  8
0
  6
CONTINUOUS
 62
     1
 10
551.0
 20
607.5
 30
0.0
 11
551.0
 21
617.037564435
 31
0.0
  0
LINE
  8
0
  6
CONTINUOUS
 62
     1
 10
521.0
 20
595.5
 30
0.0
 11
536.0
 21
595.5
 31
0.0
  0
POINT
  8
0
  6
CONTINUOUS
 62
     1
 10
521.0
 20
595.5
 30
0.0
  0
LINE
  8
0
  6
CONTINUOUS
 62
     1
 10
521.0
 20
595.5
 30
0.0
 11
521.0
 21
709.5
 31
0.0
  0
LINE
  8
0
  6
CONTINUOUS
 62
     1
 10
712.0
 20
601.5
 30
0.0
 11
712.0
 21
703.5
 31
0.0
  0
LINE
  8
0
  6
CONTINUOUS
 62
     1
 10
712.0
 20
703.5
 30
0.0
 11
703.0
 21
703.5
 31
0.0
  0
LINE
  8
0
  6
CONTINUOUS
 62
     1
 10
712.0
 20
601.5
 30
0.0
 11
703.0
 21
601.5
 31
0.0
  0
LINE
  8
0
  6
CONTINUOUS
 62
     1
 10
712.0
 20
700.0
 30
0.0
 11
703.0
 21
700.0
 31
0.0
  0
LINE
  8
0
  6
CONTINUOUS
 62
     1
 10
712.0
 20
605.0
 30
0.0
 11
703.0
 21
605.0
 31
0.0
  0
LINE
  8
0
  6
CONTINUOUS
 62
     1
 10
712.0
 20
648.5
 30
0.0
 11
703.0
 21
648.5
 31
0.0
  0
LINE
  8
0
  6
CONTINUOUS
 62
     1
 10
712.0
 20
656.5
 30
0.0
 11
703.0
 21
656.5
 31
0.0
  0
CIRCLE
  8
0
  6
CONTINUOUS
 62
     1
 10
877.0
 20
652.5
 30
0.0
 40
19.5
  0
LINE
  8
0
  6
CONTINUOUS
 62
     1
 10
857.0
 20
672.5
 30
0.0
 11
897.0
 21
672.5
 31
0.0
  0
LINE
  8
0
  6
CONTINUOUS
 62
     1
 10
897.0
 20
632.5
 30
0.0
 11
897.0
 21
672.5
 31
0.0
  0
LINE
  8
0
  6
CONTINUOUS
 62
     1
 10
857.0
 20
632.5
 30
0.0
 11
897.0
 21
632.5
 31
0.0
  0
LINE
  8
0
  6
CONTINUOUS
 62
     1
 10
857.0
 20
632.5
 30
0.0
 11
857.0
 21
672.5
 31
0.0
  0
LINE
  8
0
  6
LTYPE2
 62
     2
 10
460.1
 20
588.5
 30
0.0
 11
425.9
 21
588.5
 31
0.0
  0
LINE
  8
0
  6
LTYPE2
 62
     2
 10
461.1
 20
716.5
 30
0.0
 11
425.9
 21
716.5
 31
0.0
  0
LINE
  8
0
  6
LTYPE2
 62
     2
 10
500.0
 20
697.5
 30
0.0
 11
553.0
 21
697.5
 31
0.0
  0
LINE
  8
0
  6
LTYPE2
 62
     2
 10
581.0
 20
621.0
 30
0.0
 11
581.0
 21
684.0
 31
0.0
  0
LINE
  8
0
  6
LTYPE2
 62
     2
 10
500.0
 20
607.5
 30
0.0
 11
553.0
 21
607.5
 31
0.0
  0
LINE
  8
0
  6
LTYPE2
 62
     2
 10
877.0
 20
627.4
 30
0.0
 11
877.0
 21
677.3
 31
0.0
  0
LINE
  8
0
  6
LTYPE1
 62
     2
 10
750.0
 20
576.3
 30
0.0
 11
740.0
 21
576.3
 31
0.0
  0
LINE
  8
0
  6
LTYPE1
 62
     2
 10
750.0
 20
577.5
 30
0.0
 11
740.0
 21
577.5
 31
0.0
  0
LINE
  8
0
  6
LTYPE1
 62
     2
 10
750.0
 20
557.7
 30
0.0
 11
740.0
 21
557.7
 31
0.0
  0
LINE
  8
0
  6
LTYPE1
 62
     2
 10
750.0
 20
556.5
 30
0.0
 11
740.0
 21
556.5
 31
0.0
  0
LINE
  8
0
  6
LTYPE3
 62
     2
 10
756.2
 20
567.0
 30
0.0
 11
736.5
 21
567.0
 31
0.0
  0
LINE
  8
0
  6
LTYPE3
 62
     2
 10
665.0
 20
581.3
 30
0.0
 11
665.0
 21
596.15
 31
0.0
  0
LINE
  8
0
  6
CONTINUOUS
 62
     2
 10
809.5
 20
617.5
 30
0.0
 11
812.735238064
 21
629.574072829
 31
0.0
  0
LINE
  8
0
  6
CONTINUOUS
 62
     2
 10
809.5
 20
617.5
 30
0.0
 11
806.264761936
 21
629.574072829
 31
0.0
  0
LINE
  8
0
  6
CONTINUOUS
 62
     2
 10
809.5
 20
617.5
 30
0.0
 11
809.5
 21
687.5
 31
0.0
  0
LINE
  8
0
  6
CONTINUOUS
 62
     2
 10
809.5
 20
687.5
 30
0.0
 11
806.264761936
 21
675.425927171
 31
0.0
  0
LINE
  8
0
  6
CONTINUOUS
 62
     2
 10
809.5
 20
687.5
 30
0.0
 11
812.735238064
 21
675.425927171
 31
0.0
  0
LINE
  8
0
  6
CONTINUOUS
 62
     2
 10
750.0
 20
567.0
 30
0.0
 11
752.506004628
 21
554.753778509
 31
0.0
  0
LINE
  8
0
  6
CONTINUOUS
 62
     2
 10
750.0
 20
567.0
 30
0.0
 11
758.293374416
 21
557.647463403
 31
0.0
  0
LINE
  8
0
  6
CONTINUOUS
 62
     2
 10
750.0
 20
567.0
 30
0.0
 11
775.0
 21
517.0
 31
0.0
  0
LINE
  8
0
  6
CONTINUOUS
 62
     2
 10
775.0
 20
517.0
 30
0.0
 11
842.5
 21
517.0
 31
0.0
  0
LINE
  8
0
  6
CONTINUOUS
 62
     2
 10
647.8
 20
543.7
 30
0.0
 11
650.449054108
 21
531.483924021
 31
0.0
  0
LINE
  8
0
  6
CONTINUOUS
 62
     2
 10
647.8
 20
543.7
 30
0.0
 11
656.202186143
 21
534.445094921
 31
0.0
  0
LINE
  8
0
  6
CONTINUOUS
 62
     2
 10
883.1
 20
663.3
 30
0.0
 11
890.588041206
 21
673.308957933
 31
0.0
  0
LINE
  8
0
  6
CONTINUOUS
 62
     2
 10
883.1
 20
663.3
 30
0.0
 11
884.580354942
 21
675.712032438
 31
0.0
  0
LINE
  8
0
  6
CONTINUOUS
 62
     2
 10
883.1
 20
663.3
 30
0.0
 11
933.1
 21
788.3
 31
0.0
  0
LINE
  8
0
  6
CONTINUOUS
 62
     2
 10
1219.5
 20
661.6
 30
0.0
 11
1256.0
 21
723.6
 31
0.0
  0
LINE
  8
0
  6
CONTINUOUS
 62
     2
 10
1256.0
 20
723.6
 30
0.0
 11
1344.5
 21
723.6
 31
0.0
  0
LINE
  8
0
  6
CONTINUOUS
 62
     2
 10
435.0
 20
402.3625
 30
0.0
 11
447.074072829
 21
399.127261936
 31
0.0
  0
LINE
  8
0
  6
CONTINUOUS
 62
     2
 10
435.0
 20
402.3625
 30
0.0
 11
447.074072829
 21
405.597738064
 31
0.0
  0
LINE
  8
0
  6
CONTINUOUS
 62
     2
 10
435.0
 20
402.3625
 30
0.0
 11
521.0
 21
402.3625
 31
0.0
  0
LINE
  8
0
  6
CONTINUOUS
 62
     2
 10
521.0
 20
402.3625
 30
0.0
 11
508.925927171
 21
405.597738064
 31
0.0
  0
LINE
  8
0
  6
CONTINUOUS
 62
     2
 10
521.0
 20
402.3625
 30
0.0
 11
508.925927171
 21
399.127261936
 31
0.0
  0
LINE
  8
0
  6
CONTINUOUS
 62
     2
 10
521.0
 20
402.3625
 30
0.0
 11
533.074072829
 21
399.127261936
 31
0.0
  0
LINE
  8
0
  6
CONTINUOUS
 62
     2
 10
521.0
 20
402.3625
 30
0.0
 11
533.074072829
 21
405.597738064
 31
0.0
  0
LINE
  8
0
  6
CONTINUOUS
 62
     2
 10
521.0
 20
402.3625
 30
0.0
 11
581.0
 21
402.3625
 31
0.0
  0
LINE
  8
0
  6
CONTINUOUS
 62
     2
 10
581.0
 20
402.3625
 30
0.0
 11
568.925927171
 21
405.597738064
 31
0.0
  0
LINE
  8
0
  6
CONTINUOUS
 62
     2
 10
581.0
 20
402.3625
 30
0.0
 11
568.925927171
 21
399.127261936
 31
0.0
  0
LINE
  8
0
  6
CONTINUOUS
 62
     2
 10
581.0
 20
402.3625
 30
0.0
 11
593.074072829
 21
399.127261936
 31
0.0
  0
LINE
  8
0
  6
CONTINUOUS
 62
     2
 10
581.0
 20
402.3625
 30
0.0
 11
593.074072829
 21
405.597738064
 31
0.0
  0
LINE
  8
0
  6
CONTINUOUS
 62
     2
 10
581.0
 20
402.3625
 30
0.0
 11
1212.0
 21
402.3625
 31
0.0
  0
LINE
  8
0
  6
CONTINUOUS
 62
     2
 10
1212.0
 20
402.3625
 30
0.0
 11
1199.925927171
 21
405.597738064
 31
0.0
  0
LINE
  8
0
  6
CONTINUOUS
 62
     2
 10
1212.0
 20
402.3625
 30
0.0
 11
1199.925927171
 21
399.127261936
 31
0.0
  0
LINE
  8
0
  6
CONTINUOUS
 62
     2
 10
581.0
 20
445.7
 30
0.0
 11
593.074072829
 21
442.464761936
 31
0.0
  0
LINE
  8
0
  6
CONTINUOUS
 62
     2
 10
581.0
 20
445.7
 30
0.0
 11
593.074072829
 21
448.935238064
 31
0.0
  0
LINE
  8
0
  6
CONTINUOUS
 62
     2
 10
581.0
 20
445.7
 30
0.0
 11
1107.0
 21
445.7
 31
0.0
  0
LINE
  8
0
  6
CONTINUOUS
 62
     2
 10
1107.0
 20
445.7
 30
0.0
 11
1094.925927171
 21
448.935238064
 31
0.0
  0
LINE
  8
0
  6
CONTINUOUS
 62
     2
 10
1107.0
 20
445.7
 30
0.0
 11
1094.925927171
 21
442.464761936
 31
0.0
  0
LINE
  8
0
  6
CONTINUOUS
 62
     2
 10
1107.0
 20
445.7
 30
0.0
 11
1119.074072829
 21
442.464761936
 31
0.0
  0
LINE
  8
0
  6
CONTINUOUS
 62
     2
 10
1107.0
 20
445.7
 30
0.0
 11
1119.074072829
 21
448.935238064
 31
0.0
  0
LINE
  8
0
  6
CONTINUOUS
 62
     2
 10
1107.0
 20
445.7
 30
0.0
 11
1162.0
 21
445.7
 31
0.0
  0
LINE
  8
0
  6
CONTINUOUS
 62
     2
 10
1162.0
 20
445.7
 30
0.0
 11
1149.925927171
 21
448.935238064
 31
0.0
  0
LINE
  8
0
  6
CONTINUOUS
 62
     2
 10
1162.0
 20
445.7
 30
0.0
 11
1149.925927171
 21
442.464761936
 31
0.0
  0
LINE
  8
0
  6
CONTINUOUS
 62
     2
 10
1162.0
 20
445.7
 30
0.0
 11
1174.074072829
 21
442.464761936
 31
0.0
  0
LINE
  8
0
  6
CONTINUOUS
 62
     2
 10
1162.0
 20
445.7
 30
0.0
 11
1174.074072829
 21
448.935238064
 31
0.0
  0
LINE
  8
0
  6
CONTINUOUS
 62
     2
 10
1162.0
 20
445.7
 30
0.0
 11
1212.0
 21
445.7
 31
0.0
  0
LINE
  8
0
  6
CONTINUOUS
 62
     2
 10
1212.0
 20
445.7
 30
0.0
 11
1199.925927171
 21
448.935238064
 31
0.0
  0
LINE
  8
0
  6
CONTINUOUS
 62
     2
 10
1212.0
 20
445.7
 30
0.0
 11
1199.925927171
 21
442.464761936
 31
0.0
  0
LINE
  8
0
  6
CONTINUOUS
 62
     2
 10
435.0
 20
394.8625
 30
0.0
 11
435.0
 21
350.5
 31
0.0
  0
LINE
  8
0
  6
CONTINUOUS
 62
     2
 10
435.0
 20
358.0
 30
0.0
 11
447.074072829
 21
354.764761936
 31
0.0
  0
LINE
  8
0
  6
CONTINUOUS
 62
     2
 10
435.0
 20
358.0
 30
0.0
 11
447.074072829
 21
361.235238064
 31
0.0
  0
LINE
  8
0
  6
CONTINUOUS
 62
     2
 10
435.0
 20
358.0
 30
0.0
 11
1212.0
 21
358.0
 31
0.0
  0
LINE
  8
0
  6
CONTINUOUS
 62
     2
 10
1212.0
 20
358.0
 30
0.0
 11
1199.925927171
 21
361.235238064
 31
0.0
  0
LINE
  8
0
  6
CONTINUOUS
 62
     2
 10
1212.0
 20
358.0
 30
0.0
 11
1199.925927171
 21
354.764761936
 31
0.0
  0
LINE
  8
0
  6
CONTINUOUS
 62
     2
 10
1212.0
 20
394.8625
 30
0.0
 11
1212.0
 21
350.5
 31
0.0
  0
LINE
  8
0
  6
CONTINUOUS
 62
     1
 10
1107.0
 20
617.5
 30
0.0
 11
1024.182501379
 21
617.5
 31
0.0
  0
LINE
  8
0
  6
CONTINUOUS
 62
     2
 10
1212.0
 20
626.375
 30
0.0
 11
1212.0
 21
394.8625
 31
0.0
  0
LINE
  8
0
  6
CONTINUOUS
 62
     2
 10
1107.0
 20
614.875
 30
0.0
 11
1107.0
 21
438.2
 31
0.0
  0
LINE
  8
0
  6
CONTINUOUS
 62
     2
 10
435.0
 20
566.875
 30
0.0
 11
435.0
 21
394.8625
 31
0.0
  0
LINE
  8
0
  6
CONTINUOUS
 62
     2
 10
521.0
 20
570.875
 30
0.0
 11
521.0
 21
394.8625
 31
0.0
  0
LINE
  8
0
  6
CONTINUOUS
 62
     2
 10
581.0
 20
624.375
 30
0.0
 11
581.0
 21
394.8625
 31
0.0
  0
LINE
  8
0
  6
CONTINUOUS
 62
     2
 10
647.8
 20
543.7
 30
0.0
 11
691.292647059
 21
459.2
 31
0.0
  0
ARC
  8
0
  6
CONTINUOUS
 62
     1
 10
533.0
 20
722.0
 30
0.0
 40
2.0
 50
90.0
 51
180.0
  0
ARC
  8
0
  6
CONTINUOUS
 62
     1
 10
533.0
 20
853.0
 30
0.0
 40
2.0
 50
180.0
 51
270.0
  0
LINE
  8
0
  6
CONTINUOUS
 62
     1
 10
568.0
 20
851.0
 30
0.0
 11
568.0
 21
724.0
 31
0.0
  0
LINE
  8
0
  6
CONTINUOUS
 62
     1
 10
757.810381815
 20
829.327582684
 30
0.0
 11
775.189618185
 21
827.672417316
 31
0.0
  0
ARC
  8
0
  6
CONTINUOUS
 62
     1
 10
758.0
 20
831.318573629
 30
0.0
 40
2.0
 50
180.0
 51
264.559667969
  0
LINE
  8
0
  6
CONTINUOUS
 62
     1
 10
757.810381815
 20
839.327582684
 30
0.0
 11
775.189618185
 21
837.672417316
 31
0.0
  0
ARC
  8
0
  6
CONTINUOUS
 62
     1
 10
758.0
 20
841.318573629
 30
0.0
 40
2.0
 50
180.0
 51
264.559667969
  0
LINE
  8
0
  6
CONTINUOUS
 62
     1
 10
757.810381815
 20
745.672417316
 30
0.0
 11
775.189618185
 21
747.327582684
 31
0.0
  0
ARC
  8
0
  6
CONTINUOUS
 62
     1
 10
758.0
 20
743.681426371
 30
0.0
 40
2.0
 50
95.440332031
 51
180.0
  0
ARC
  8
0
  6
CONTINUOUS
 62
     1
 10
779.0
 20
812.5
 30
0.0
 40
2.0
 50
180.0
 51
270.0
  0
LINE
  8
0
  6
CONTINUOUS
 62
     1
 10
788.0
 20
810.5
 30
0.0
 11
779.0
 21
810.5
 31
0.0
  0
ARC
  8
0
  6
CONTINUOUS
 62
     1
 10
788.0
 20
808.5
 30
0.0
 40
2.0
 50
0.0
 51
90.0
  0
LINE
  8
0
  6
CONTINUOUS
 62
     1
 10
790.0
 20
808.5
 30
0.0
 11
790.0
 21
766.5
 31
0.0
  0
ARC
  8
0
  6
CONTINUOUS
 62
     1
 10
788.0
 20
766.5
 30
0.0
 40
2.0
 50
270.0
 51
0.0
  0
ARC
  8
0
  6
CONTINUOUS
 62
     1
 10
779.0
 20
762.5
 30
0.0
 40
2.0
 50
90.0
 51
180.0
  0
LINE
  8
0
  6
CONTINUOUS
 62
     1
 10
788.0
 20
764.5
 30
0.0
 11
779.0
 21
764.5
 31
0.0
  0
LINE
  8
0
  6
CONTINUOUS
 62
     1
 10
793.0
 20
799.0
 30
0.0
 11
790.0
 21
799.0
 31
0.0
  0
LINE
  8
0
  6
CONTINUOUS
 62
     1
 10
793.0
 20
776.0
 30
0.0
 11
790.0
 21
776.0
 31
0.0
  0
LINE
  8
0
  6
CONTINUOUS
 62
     1
 10
793.0
 20
799.0
 30
0.0
 11
793.0
 21
776.0
 31
0.0
  0
ARC
  8
0
  6
CONTINUOUS
 62
     1
 10
754.0
 20
726.0
 30
0.0
 40
2.0
 50
270.0
 51
0.0
  0
ARC
  8
0
  6
CONTINUOUS
 62
     1
 10
754.0
 20
849.0
 30
0.0
 40
2.0
 50
0.0
 51
90.0
  0
LINE
  8
0
  6
CONTINUOUS
 62
     1
 10
748.0
 20
851.0
 30
0.0
 11
748.0
 21
724.0
 31
0.0
  0
LINE
  8
0
  6
CONTINUOUS
 62
     1
 10
754.000005395
 20
724.0
 30
0.0
 11
533.0
 21
724.0
 31
0.0
  0
LINE
  8
0
  6
CONTINUOUS
 62
     1
 10
754.0
 20
851.0
 30
0.0
 11
533.0
 21
851.0
 31
0.0
  0
LINE
  8
0
  6
CONTINUOUS
 62
     1
 10
666.05
 20
870.5
 30
0.0
 11
666.05
 21
904.5
 31
0.0
  0
LINE
  8
0
  6
CONTINUOUS
 62
     1
 10
666.05
 20
870.5
 30
0.0
 11
640.05
 21
870.5
 31
0.0
  0
LINE
  8
0
  6
CONTINUOUS
 62
     1
 10
666.05
 20
904.5
 30
0.0
 11
640.05
 21
904.5
 31
0.0
  0
LINE
  8
0
  6
LTYPE3
 62
     2
 10
672.979475845
 20
887.5
 30
0.0
 11
632.979475845
 21
887.5
 31
0.0
  0
LINE
  8
0
  6
CONTINUOUS
 62
     1
 10
570.05
 20
862.5
 30
0.0
 11
570.05
 21
865.5
 31
0.0
  0
ARC
  8
0
  6
CONTINUOUS
 62
     1
 10
574.05
 20
859.5
 30
0.0
 40
3.0
 50
0.0
 51
90.0
  0
LINE
  8
0
  6
CONTINUOUS
 62
     1
 10
630.05
 20
862.5
 30
0.0
 11
630.05
 21
865.5
 31
0.0
  0
ARC
  8
0
  6
CONTINUOUS
 62
     1
 10
626.05
 20
859.5
 30
0.0
 40
3.0
 50
90.0
 51
180.0
  0
LINE
  8
0
  6
CONTINUOUS
 62
     1
 10
630.05
 20
862.5
 30
0.0
 11
570.05
 21
862.5
 31
0.0
  0
LINE
  8
0
  6
CONTINUOUS
 62
     1
 10
554.962087912
 20
867.5
 30
0.0
 11
647.05
 21
911.520045888
 31
0.0
  0
LINE
  8
0
  6
CONTINUOUS
 62
     1
 10
553.05
 20
871.5
 30
0.0
 11
554.962087912
 21
867.5
 31
0.0
  0
LINE
  8
0
  6
CONTINUOUS
 62
     1
 10
553.05
 20
871.5
 30
0.0
 11
645.137912088
 21
915.520045888
 31
0.0
  0
LINE
  8
0
  6
CONTINUOUS
 62
     1
 10
645.137912088
 20
915.520045888
 30
0.0
 11
647.05
 21
911.520045888
 31
0.0
  0
LINE
  8
0
  6
CONTINUOUS
 62
     1
 10
560.05
 20
874.846153846
 30
0.0
 11
560.05
 21
914.5
 31
0.0
  0
ARC
  8
0
  6
CONTINUOUS
 62
     1
 10
563.05
 20
914.5
 30
0.0
 40
3.0
 50
90.0
 51
180.0
  0
LINE
  8
0
  6
CONTINUOUS
 62
     1
 10
560.05
 20
868.5
 30
0.0
 11
560.05
 21
869.9321338
 31
0.0
  0
ARC
  8
0
  6
CONTINUOUS
 62
     1
 10
563.05
 20
868.5
 30
0.0
 40
3.0
 50
180.0
 51
270.0
  0
LINE
  8
0
  6
CONTINUOUS
 62
     1
 10
640.05
 20
868.5
 30
0.0
 11
640.05
 21
908.173892042
 31
0.0
  0
LINE
  8
0
  6
CONTINUOUS
 62
     1
 10
637.05
 20
865.5
 30
0.0
 11
563.05
 21
865.5
 31
0.0
  0
ARC
  8
0
  6
CONTINUOUS
 62
     1
 10
637.05
 20
868.5
 30
0.0
 40
3.0
 50
270.0
 51
0.0
  0
LINE
  8
0
  6
CONTINUOUS
 62
     1
 10
640.05
 20
913.087912088
 30
0.0
 11
640.05
 21
914.5
 31
0.0
  0
LINE
  8
0
  6
CONTINUOUS
 62
     1
 10
637.05
 20
917.5
 30
0.0
 11
563.05
 21
917.5
 31
0.0
  0
ARC
  8
0
  6
CONTINUOUS
 62
     1
 10
637.05
 20
914.5
 30
0.0
 40
3.0
 50
0.0
 51
90.0
  0
ARC
  8
0
  6
CONTINUOUS
 62
     1
 10
580.05
 20
854.0
 30
0.0
 40
3.0
 50
180.0
 51
270.0
  0
ARC
  8
0
  6
CONTINUOUS
 62
     1
 10
620.05
 20
854.0
 30
0.0
 40
3.0
 50
270.0
 51
0.0
  0
LINE
  8
0
  6
CONTINUOUS
 62
     1
 10
623.05
 20
854.000005395
 30
0.0
 11
623.05
 21
859.5
 31
0.0
  0
LINE
  8
0
  6
CONTINUOUS
 62
     1
 10
577.05
 20
854.000005395
 30
0.0
 11
577.05
 21
859.5
 31
0.0
  0
ARC
  8
0
  6
CONTINUOUS
 62
     1
 10
775.0
 20
780.318573629
 30
0.0
 40
2.0
 50
275.440332031
 51
0.0
  0
LINE
  8
0
  6
CONTINUOUS
 62
     1
 10
775.189618185
 20
778.327582684
 30
0.0
 11
757.810381815
 21
776.672417316
 31
0.0
  0
ARC
  8
0
  6
CONTINUOUS
 62
     1
 10
758.0
 20
774.681426371
 30
0.0
 40
2.0
 50
95.440332031
 51
180.0
  0
ARC
  8
0
  6
CONTINUOUS
 62
     1
 10
775.0
 20
794.681426371
 30
0.0
 40
2.0
 50
0.0
 51
84.559667969
  0
LINE
  8
0
  6
CONTINUOUS
 62
     1
 10
775.189618185
 20
796.672417316
 30
0.0
 11
757.810381815
 21
798.327582684
 31
0.0
  0
ARC
  8
0
  6
CONTINUOUS
 62
     1
 10
758.0
 20
800.318573629
 30
0.0
 40
2.0
 50
180.0
 51
264.559667969
  0
LINE
  8
0
  6
CONTINUOUS
 62
     1
 10
756.0
 20
849.000001907
 30
0.0
 11
756.0
 21
726.000004672
 31
0.0
  0
ARC
  8
0
  6
CONTINUOUS
 62
     1
 10
529.0
 20
865.5
 30
0.0
 40
2.0
 50
0.0
 51
90.0
  0
LINE
  8
0
  6
CONTINUOUS
 62
     1
 10
531.0
 20
865.5
 30
0.0
 11
531.0
 21
709.5
 31
0.0
  0
LINE
  8
0
  6
CONTINUOUS
 62
     1
 10
536.4999
 20
839.120720777
 30
0.0
 11
535.440300598
 21
840.956000777
 31
0.0
  0
LINE
  8
0
  6
CONTINUOUS
 62
     1
 10
536.4999
 20
833.461940777
 30
0.0
 11
536.4999
 21
839.120720777
 31
0.0
  0
LINE
  8
0
  6
CONTINUOUS
 62
     1
 10
536.4999
 20
827.803160777
 30
0.0
 11
535.440300598
 21
825.967880777
 31
0.0
  0
LINE
  8
0
  6
CONTINUOUS
 62
     1
 10
536.4999
 20
833.461940777
 30
0.0
 11
536.4999
 21
827.803160777
 31
0.0
  0
ARC
  8
0
  6
CONTINUOUS
 62
     1
 10
529.344844663
 20
833.461940777
 30
0.0
 40
7.155055337
 50
328.419912243
 51
31.580087757
  0
ARC
  8
0
  6
CONTINUOUS
 62
     1
 10
534.314476233
 20
839.082485777
 30
0.0
 40
2.185758211
 50
301.002313915
 51
2.989498403
  0
LINE
  8
0
  6
CONTINUOUS
 62
     1
 10
536.4999
 20
827.803160777
 30
0.0
 11
535.440300598
 21
825.967880777
 31
0.0
  0
ARC
  8
0
  6
CONTINUOUS
 62
     1
 10
534.314476233
 20
827.841395777
 30
0.0
 40
2.185758211
 50
357.010501597
 51
58.997686085
  0
LINE
  8
0
  6
CONTINUOUS
 62
     1
 10
531.0
 20
840.956000777
 30
0.0
 11
535.440300598
 21
840.956000777
 31
0.0
  0
LINE
  8
0
  6
CONTINUOUS
 62
     1
 10
531.0
 20
837.208970777
 30
0.0
 11
535.440300598
 21
837.208970777
 31
0.0
  0
LINE
  8
0
  6
CONTINUOUS
 62
     1
 10
531.0
 20
829.714910777
 30
0.0
 11
535.440300598
 21
829.714910777
 31
0.0
  0
LINE
  8
0
  6
CONTINUOUS
 62
     1
 10
531.0
 20
825.967880777
 30
0.0
 11
535.440300598
 21
825.967880777
 31
0.0
  0
LINE
  8
0
  6
LTYPE3
 62
     2
 10
526.0
 20
833.461940777
 30
0.0
 11
540.8
 21
833.461940777
 31
0.0
  0
LINE
  8
0
  6
LTYPE3
 62
     2
 10
600.0
 20
844.5
 30
0.0
 11
600.0
 21
919.5
 31
0.0
  0
LINE
  8
0
  6
LTYPE3
 62
     2
 10
769.5
 20
830.5
 30
0.0
 11
782.7
 21
830.5
 31
0.0
  0
LINE
  8
0
  6
CONTINUOUS
 62
     1
 10
757.810381815
 20
735.672417316
 30
0.0
 11
775.189618185
 21
737.327582684
 31
0.0
  0
LINE
  8
0
  6
LTYPE3
 62
     2
 10
769.5
 20
744.5
 30
0.0
 11
782.7
 21
744.5
 31
0.0
  0
ARC
  8
0
  6
CONTINUOUS
 62
     1
 10
758.0
 20
733.681426371
 30
0.0
 40
2.0
 50
95.440332031
 51
180.0
  0
LINE
  8
0
  6
CONTINUOUS
 62
     1
 10
777.0
 20
835.681426371
 30
0.0
 11
777.0
 21
739.88812
 31
0.0
  0
ARC
  8
0
  6
CONTINUOUS
 62
     1
 10
775.0
 20
825.681426371
 30
0.0
 40
2.0
 50
0.0
 51
84.559667969
  0
ARC
  8
0
  6
CONTINUOUS
 62
     1
 10
775.0
 20
835.681426371
 30
0.0
 40
2.0
 50
0.0
 51
84.559667969
  0
LINE
  8
0
  6
CONTINUOUS
 62
     1
 10
780.5002
 20
833.98244
 30
0.0
 11
779.848117512
 21
835.11188
 31
0.0
  0
LINE
  8
0
  6
CONTINUOUS
 62
     1
 10
780.5002
 20
827.01756
 30
0.0
 11
779.848117512
 21
825.88812
 31
0.0
  0
ARC
  8
0
  6
CONTINUOUS
 62
     1
 10
776.096945074
 20
830.5
 30
0.0
 40
4.403254926
 50
328.419912243
 51
31.580087757
  0
ARC
  8
0
  6
CONTINUOUS
 62
     1
 10
779.155279868
 20
833.95891
 30
0.0
 40
1.34512595
 50
301.002313915
 51
2.989498403
  0
LINE
  8
0
  6
CONTINUOUS
 62
     1
 10
780.5002
 20
827.01756
 30
0.0
 11
779.848117512
 21
825.88812
 31
0.0
  0
ARC
  8
0
  6
CONTINUOUS
 62
     1
 10
779.155279868
 20
827.04109
 30
0.0
 40
1.34512595
 50
357.010501597
 51
58.997686085
  0
LINE
  8
0
  6
CONTINUOUS
 62
     1
 10
777.0
 20
835.11188
 30
0.0
 11
779.848117512
 21
835.11188
 31
0.0
  0
LINE
  8
0
  6
CONTINUOUS
 62
     1
 10
777.0
 20
832.80594
 30
0.0
 11
779.848117512
 21
832.80594
 31
0.0
  0
LINE
  8
0
  6
CONTINUOUS
 62
     1
 10
777.0
 20
828.19406
 30
0.0
 11
779.848117512
 21
828.19406
 31
0.0
  0
LINE
  8
0
  6
CONTINUOUS
 62
     1
 10
777.0
 20
825.88812
 30
0.0
 11
779.848117512
 21
825.88812
 31
0.0
  0
LINE
  8
0
  6
CONTINUOUS
 62
     1
 10
780.5002
 20
833.98244
 30
0.0
 11
780.5002
 21
827.01756
 31
0.0
  0
LINE
  8
0
  6
CONTINUOUS
 62
     1
 10
798.0
 20
791.852902
 30
0.0
 11
797.184924603
 21
793.264654
 31
0.0
  0
LINE
  8
0
  6
CONTINUOUS
 62
     1
 10
798.0
 20
783.147098
 30
0.0
 11
797.184924603
 21
781.735346
 31
0.0
  0
ARC
  8
0
  6
CONTINUOUS
 62
     1
 10
792.496118477
 20
787.5
 30
0.0
 40
5.503881523
 50
328.419912243
 51
31.580087757
  0
ARC
  8
0
  6
CONTINUOUS
 62
     1
 10
796.318906993
 20
791.8234905
 30
0.0
 40
1.681350271
 50
301.002313915
 51
2.989498403
  0
LINE
  8
0
  6
CONTINUOUS
 62
     1
 10
798.0
 20
783.147098
 30
0.0
 11
797.184924603
 21
781.735346
 31
0.0
  0
ARC
  8
0
  6
CONTINUOUS
 62
     1
 10
796.318906993
 20
783.1765095
 30
0.0
 40
1.681350271
 50
357.010501597
 51
58.997686085
  0
LINE
  8
0
  6
CONTINUOUS
 62
     1
 10
794.00039
 20
790.382327
 30
0.0
 11
797.184924603
 21
790.382327
 31
0.0
  0
LINE
  8
0
  6
CONTINUOUS
 62
     1
 10
794.00039
 20
793.264654
 30
0.0
 11
797.184924603
 21
793.264654
 31
0.0
  0
LINE
  8
0
  6
CONTINUOUS
 62
     1
 10
794.00039
 20
784.617673
 30
0.0
 11
797.184924603
 21
784.617673
 31
0.0
  0
LINE
  8
0
  6
CONTINUOUS
 62
     1
 10
794.00039
 20
781.735346
 30
0.0
 11
797.184924603
 21
781.735346
 31
0.0
  0
LINE
  8
0
  6
CONTINUOUS
 62
     1
 10
798.0
 20
783.147098
 30
0.0
 11
798.0
 21
791.852902
 31
0.0
  0
LINE
  8
0
  6
CONTINUOUS
 62
     1
 10
794.00039
 20
794.0
 30
0.0
 11
793.0
 21
794.0
 31
0.0
  0
LINE
  8
0
  6
CONTINUOUS
 62
     1
 10
794.00039
 20
794.0
 30
0.0
 11
794.00039
 21
781.0
 31
0.0
  0
LINE
  8
0
  6
CONTINUOUS
 62
     1
 10
794.00039
 20
781.0
 30
0.0
 11
793.0
 21
781.0
 31
0.0
  0
ARC
  8
0
  6
CONTINUOUS
 62
     1
 10
775.0
 20
749.318573629
 30
0.0
 40
2.0
 50
275.440332031
 51
0.0
  0
LINE
  8
0
  6
CONTINUOUS
 62
     1
 10
780.5002
 20
741.01756
 30
0.0
 11
779.848117512
 21
739.88812
 31
0.0
  0
LINE
  8
0
  6
CONTINUOUS
 62
     1
 10
780.5002
 20
747.98244
 30
0.0
 11
779.848117512
 21
749.11188
 31
0.0
  0
ARC
  8
0
  6
CONTINUOUS
 62
     1
 10
776.096945074
 20
744.5
 30
0.0
 40
4.403254926
 50
328.419912243
 51
31.580087757
  0
ARC
  8
0
  6
CONTINUOUS
 62
     1
 10
779.155279868
 20
741.04109
 30
0.0
 40
1.34512595
 50
357.010501597
 51
58.997686085
  0
LINE
  8
0
  6
CONTINUOUS
 62
     1
 10
780.5002
 20
747.98244
 30
0.0
 11
779.848117512
 21
749.11188
 31
0.0
  0
ARC
  8
0
  6
CONTINUOUS
 62
     1
 10
779.155279868
 20
747.95891
 30
0.0
 40
1.34512595
 50
301.002313915
 51
2.989498403
  0
LINE
  8
0
  6
CONTINUOUS
 62
     1
 10
777.0
 20
739.88812
 30
0.0
 11
779.848117512
 21
739.88812
 31
0.0
  0
LINE
  8
0
  6
CONTINUOUS
 62
     1
 10
777.0
 20
742.19406
 30
0.0
 11
779.848117512
 21
742.19406
 31
0.0
  0
LINE
  8
0
  6
CONTINUOUS
 62
     1
 10
777.0
 20
746.80594
 30
0.0
 11
779.848117512
 21
746.80594
 31
0.0
  0
LINE
  8
0
  6
CONTINUOUS
 62
     1
 10
777.0
 20
749.11188
 30
0.0
 11
779.848117512
 21
749.11188
 31
0.0
  0
LINE
  8
0
  6
CONTINUOUS
 62
     1
 10
780.5002
 20
741.01756
 30
0.0
 11
780.5002
 21
747.98244
 31
0.0
  0
ARC
  8
0
  6
CONTINUOUS
 62
     1
 10
775.0
 20
739.318573629
 30
0.0
 40
2.0
 50
275.440332031
 51
0.0
  0
LINE
  8
0
  6
LTYPE1
 62
     1
 10
785.1
 20
802.0
 30
0.0
 11
777.0
 21
792.8
 31
0.0
  0
ARC
  8
0
  6
LTYPE1
 62
     1
 10
788.5
 20
799.0
 30
0.0
 40
4.5
 50
290.9
 51
137.7
  0
LINE
  8
0
  6
LTYPE1
 62
     1
 10
783.0
 20
792.0
 30
0.0
 11
777.0
 21
792.8
 31
0.0
  0
LINE
  8
0
  6
LTYPE1
 62
     1
 10
790.1
 20
794.8
 30
0.0
 11
783.0
 21
792.0
 31
0.0
  0
LINE
  8
0
  6
LTYPE1
 62
     1
 10
783.0
 20
783.0
 30
0.0
 11
777.0
 21
782.2
 31
0.0
  0
ARC
  8
0
  6
LTYPE1
 62
     1
 10
788.5
 20
776.0
 30
0.0
 40
4.5
 50
222.3
 51
69.1
  0
LINE
  8
0
  6
LTYPE1
 62
     1
 10
785.1
 20
773.0
 30
0.0
 11
777.0
 21
782.2
 31
0.0
  0
LINE
  8
0
  6
LTYPE1
 62
     1
 10
790.1
 20
780.2
 30
0.0
 11
783.0
 21
783.0
 31
0.0
  0
LINE
  8
0
  6
LTYPE1
 62
     1
 10
783.0
 20
792.0
 30
0.0
 11
783.0
 21
783.0
 31
0.0
  0
LINE
  8
0
  6
CONTINUOUS
 62
     1
 10
536.4999
 20
735.879279223
 30
0.0
 11
535.440300598
 21
734.043999223
 31
0.0
  0
LINE
  8
0
  6
CONTINUOUS
 62
     1
 10
536.4999
 20
741.538059223
 30
0.0
 11
536.4999
 21
735.879279223
 31
0.0
  0
LINE
  8
0
  6
CONTINUOUS
 62
     1
 10
536.4999
 20
747.196839223
 30
0.0
 11
535.440300598
 21
749.032119223
 31
0.0
  0
LINE
  8
0
  6
CONTINUOUS
 62
     1
 10
536.4999
 20
741.538059223
 30
0.0
 11
536.4999
 21
747.196839223
 31
0.0
  0
ARC
  8
0
  6
CONTINUOUS
 62
     1
 10
529.344844663
 20
741.538059223
 30
0.0
 40
7.155055337
 50
328.419912243
 51
31.580087757
  0
ARC
  8
0
  6
CONTINUOUS
 62
     1
 10
534.314476233
 20
735.917514223
 30
0.0
 40
2.185758211
 50
357.010501597
 51
58.997686085
  0
LINE
  8
0
  6
CONTINUOUS
 62
     1
 10
536.4999
 20
747.196839223
 30
0.0
 11
535.440300598
 21
749.032119223
 31
0.0
  0
ARC
  8
0
  6
CONTINUOUS
 62
     1
 10
534.314476233
 20
747.158604223
 30
0.0
 40
2.185758211
 50
301.002313915
 51
2.989498403
  0
LINE
  8
0
  6
CONTINUOUS
 62
     1
 10
531.0
 20
734.043999223
 30
0.0
 11
535.440300598
 21
734.043999223
 31
0.0
  0
LINE
  8
0
  6
CONTINUOUS
 62
     1
 10
531.0
 20
737.791029223
 30
0.0
 11
535.440300598
 21
737.791029223
 31
0.0
  0
LINE
  8
0
  6
CONTINUOUS
 62
     1
 10
531.0
 20
745.285089223
 30
0.0
 11
535.440300598
 21
745.285089223
 31
0.0
  0
LINE
  8
0
  6
CONTINUOUS
 62
     1
 10
531.0
 20
749.032119223
 30
0.0
 11
535.440300598
 21
749.032119223
 31
0.0
  0
LINE
  8
0
  6
LTYPE3
 62
     2
 10
526.0
 20
741.538059223
 30
0.0
 11
540.8
 21
741.538059223
 31
0.0
  0
LINE
  8
0
  6
CONTINUOUS
 62
     2
 10
666.05
 20
887.5
 30
0.0
 11
677.118811641
 21
893.307874727
 31
0.0
  0
LINE
  8
0
  6
CONTINUOUS
 62
     2
 10
666.05
 20
887.5
 30
0.0
 11
672.731934708
 21
898.064172876
 31
0.0
  0
LINE
  8
0
  6
CONTINUOUS
 62
     2
 10
666.05
 20
887.5
 30
0.0
 11
696.008113477
 21
915.131269711
 31
0.0
  0
LINE
  8
0
  6
CONTINUOUS
 62
     2
 10
696.008113477
 20
915.131269711
 30
0.0
 11
769.508113477
 21
915.131269711
 31
0.0
  0
LINE
  8
2
  6
CONTINUOUS
 62
     2
 10
791.2
 20
808.0
 30
0.0
 11
799.793379441
 21
817.077655522
 31
0.0
  0
LINE
  8
2
  6
CONTINUOUS
 62
     2
 10
791.2
 20
808.0
 30
0.0
 11
794.10325714
 21
820.15817001
 31
0.0
  0
LINE
  8
2
  6
CONTINUOUS
 62
     2
 10
791.2
 20
808.0
 30
0.0
 11
869.7
 21
953.0
 31
0.0
  0
LINE
  8
2
  6
CONTINUOUS
 62
     2
 10
869.7
 20
953.0
 30
0.0
 11
1004.7
 21
953.0
 31
0.0
  0
ARC
  8
0
  6
CONTINUOUS
 62
     1
 10
529.0
 20
709.5
 30
0.0
 40
2.0
 50
270.0
 51
0.0
  0
LINE
  8
0
  6
CONTINUOUS
 62
     1
 10
529.0
 20
707.5
 30
0.0
 11
521.0
 21
707.5
 31
0.0
  0
LINE
  8
0
  6
CONTINUOUS
 62
     1
 10
416.0
 20
770.5
 30
0.0
 11
416.0
 21
804.5
 31
0.0
  0
LINE
  8
0
  6
CONTINUOUS
 62
     1
 10
446.0
 20
770.5
 30
0.0
 11
446.0
 21
804.5
 31
0.0
  0
LINE
  8
0
  6
CONTINUOUS
 62
     1
 10
450.0
 20
804.5
 30
0.0
 11
416.0
 21
804.5
 31
0.0
  0
LINE
  8
0
  6
CONTINUOUS
 62
     1
 10
450.0
 20
770.5
 30
0.0
 11
416.0
 21
770.5
 31
0.0
  0
LINE
  8
0
  6
CONTINUOUS
 62
     1
 10
450.0
 20
769.0
 30
0.0
 11
435.0
 21
769.0
 31
0.0
  0
LINE
  8
0
  6
CONTINUOUS
 62
     1
 10
435.0
 20
760.0
 30
0.0
 11
435.0
 21
752.50594
 31
0.0
  0
LINE
  8
0
  6
CONTINUOUS
 62
     1
 10
435.0
 20
760.0
 30
0.0
 11
435.0
 21
767.49406
 31
0.0
  0
LINE
  8
0
  6
CONTINUOUS
 62
     1
 10
429.5001
 20
754.34122
 30
0.0
 11
430.559699402
 21
752.50594
 31
0.0
  0
LINE
  8
0
  6
CONTINUOUS
 62
     1
 10
429.5001
 20
760.0
 30
0.0
 11
429.5001
 21
754.34122
 31
0.0
  0
LINE
  8
0
  6
CONTINUOUS
 62
     1
 10
429.5001
 20
765.65878
 30
0.0
 11
430.559699402
 21
767.49406
 31
0.0
  0
LINE
  8
0
  6
CONTINUOUS
 62
     1
 10
429.5001
 20
760.0
 30
0.0
 11
429.5001
 21
765.65878
 31
0.0
  0
ARC
  8
0
  6
CONTINUOUS
 62
     1
 10
436.655155337
 20
760.0
 30
0.0
 40
7.155055337
 50
148.419912243
 51
211.580087757
  0
ARC
  8
0
  6
CONTINUOUS
 62
     1
 10
431.685523767
 20
754.379455
 30
0.0
 40
2.185758211
 50
121.002313915
 51
182.989498403
  0
LINE
  8
0
  6
CONTINUOUS
 62
     1
 10
429.5001
 20
765.65878
 30
0.0
 11
430.559699402
 21
767.49406
 31
0.0
  0
ARC
  8
0
  6
CONTINUOUS
 62
     1
 10
431.685523767
 20
765.620545
 30
0.0
 40
2.185758211
 50
177.010501597
 51
238.997686085
  0
LINE
  8
0
  6
CONTINUOUS
 62
     1
 10
435.0
 20
752.50594
 30
0.0
 11
430.559699402
 21
752.50594
 31
0.0
  0
LINE
  8
0
  6
CONTINUOUS
 62
     1
 10
435.0
 20
756.25297
 30
0.0
 11
430.559699402
 21
756.25297
 31
0.0
  0
LINE
  8
0
  6
CONTINUOUS
 62
     1
 10
435.0
 20
763.74703
 30
0.0
 11
430.559699402
 21
763.74703
 31
0.0
  0
LINE
  8
0
  6
CONTINUOUS
 62
     1
 10
435.0
 20
767.49406
 30
0.0
 11
430.559699402
 21
767.49406
 31
0.0
  0
LINE
  8
0
  6
CONTINUOUS
 62
     1
 10
478.0
 20
830.5
 30
0.0
 11
450.0
 21
830.5
 31
0.0
  0
ARC
  8
0
  6
CONTINUOUS
 62
     1
 10
478.0
 20
836.5
 30
0.0
 40
6.0
 50
270.0
 51
360.0
  0
LINE
  8
0
  6
LTYPE2
 62
     2
 10
465.6
 20
760.0
 30
0.0
 11
426.3
 21
760.0
 31
0.0
  0
LINE
  8
0
  6
CONTINUOUS
 62
     2
 10
440.5
 20
804.3
 30
0.0
 11
439.019645058
 21
816.712032438
 31
0.0
  0
LINE
  8
0
  6
CONTINUOUS
 62
     2
 10
440.5
 20
804.3
 30
0.0
 11
433.011958794
 21
814.308957933
 31
0.0
  0
LINE
  8
0
  6
CONTINUOUS
 62
     2
 10
416.0
 20
812.0
 30
0.0
 11
416.0
 21
1008.4
 31
0.0
  0
LINE
  8
0
  6
CONTINUOUS
 62
     2
 10
416.0
 20
1000.9
 30
0.0
 11
428.074072829
 21
997.664761936
 31
0.0
  0
LINE
  8
0
  6
CONTINUOUS
 62
     2
 10
416.0
 20
1000.9
 30
0.0
 11
428.074072829
 21
1004.135238064
 31
0.0
  0
LINE
  8
0
  6
CONTINUOUS
 62
     2
 10
416.0
 20
1000.9
 30
0.0
 11
521.0
 21
1000.9
 31
0.0
  0
LINE
  8
0
  6
CONTINUOUS
 62
     2
 10
521.0
 20
1000.9
 30
0.0
 11
508.925927171
 21
1004.135238064
 31
0.0
  0
LINE
  8
0
  6
CONTINUOUS
 62
     2
 10
521.0
 20
1000.9
 30
0.0
 11
508.925927171
 21
997.664761936
 31
0.0
  0
LINE
  8
0
  6
CONTINUOUS
 62
     2
 10
440.5
 20
804.3
 30
0.0
 11
400.58
 21
904.1
 31
0.0
  0
LINE
  8
0
  6
CONTINUOUS
 62
     1
 10
450.0
 20
575.0
 30
0.0
 11
450.0
 21
830.5
 31
0.0
  0
LINE
  8
0
  6
CONTINUOUS
 62
     1
 10
435.0
 20
575.0
 30
0.0
 11
435.0
 21
769.0
 31
0.0
  0
LINE
  8
0
  6
LTYPE2
 62
     2
 10
784.5
 20
652.5
 30
0.0
 11
409.9
 21
652.5
 31
0.0
  0
LINE
  8
0
  6
LTYPE2
 62
     2
 10
1230.283472275
 20
652.5
 30
0.0
 11
819.5
 21
652.5
 31
0.0
  0
LINE
  8
0
  6
CONTINUOUS
 62
     2
 10
521.0
 20
1000.9
 30
0.0
 11
533.074072829
 21
997.664761936
 31
0.0
  0
LINE
  8
0
  6
CONTINUOUS
 62
     2
 10
521.0
 20
1000.9
 30
0.0
 11
533.074072829
 21
1004.135238064
 31
0.0
  0
LINE
  8
0
  6
CONTINUOUS
 62
     2
 10
797.99181787
 20
1000.9
 30
0.0
 11
785.917745041
 21
1004.135238064
 31
0.0
  0
LINE
  8
0
  6
CONTINUOUS
 62
     2
 10
797.99181787
 20
1000.9
 30
0.0
 11
785.917745041
 21
997.664761936
 31
0.0
  0
LINE
  8
0
  6
CONTINUOUS
 62
     2
 10
521.0
 20
1000.9
 30
0.0
 11
797.99181787
 21
1000.9
 31
0.0
  0
LINE
  8
0
  6
CONTINUOUS
 62
     2
 10
797.99181787
 20
801.4
 30
0.0
 11
797.99181787
 21
1008.4
 31
0.0
  0
LINE
  8
0
  6
LTYPE2
 62
     2
 10
808.0
 20
787.5
 30
0.0
 11
406.6
 21
787.5
 31
0.0
  0
LINE
  8
0
  6
CONTINUOUS
 62
     1
 10
1162.0
 20
627.5
 30
0.0
 11
1107.0
 21
627.5
 31
0.0
  0
LINE
  8
0
  6
CONTINUOUS
 62
     1
 10
1040.183009455
 20
617.5
 30
0.0
 11
712.0
 21
617.5
 31
0.0
  0
LINE
  8
0
  6
CONTINUOUS
 62
     1
 10
1177.0
 20
825.6
 30
0.0
 11
1237.0
 21
825.6
 31
0.0
  0
LINE
  8
0
  6
CONTINUOUS
 62
     1
 10
1237.0
 20
810.6
 30
0.0
 11
1237.0
 21
825.6
 31
0.0
  0
LINE
  8
0
  6
CONTINUOUS
 62
     1
 10
1190.0
 20
806.1
 30
0.0
 11
1234.0
 21
806.1
 31
0.0
  0
LINE
  8
0
  6
CONTINUOUS
 62
     1
 10
1199.5
 20
800.1
 30
0.0
 11
1224.5
 21
800.1
 31
0.0
  0
LINE
  8
0
  6
CONTINUOUS
 62
     1
 10
1224.5
 20
800.1
 30
0.0
 11
1224.5
 21
806.1
 31
0.0
  0
LINE
  8
0
  6
CONTINUOUS
 62
     1
 10
1199.5
 20
800.1
 30
0.0
 11
1199.5
 21
806.1
 31
0.0
  0
LINE
  8
0
  6
CONTINUOUS
 62
     1
 10
1234.0
 20
806.1
 30
0.0
 11
1234.0
 21
810.6
 31
0.0
  0
LINE
  8
0
  6
CONTINUOUS
 62
     1
 10
1190.0
 20
806.1
 30
0.0
 11
1190.0
 21
810.6
 31
0.0
  0
CIRCLE
  8
0
  6
CONTINUOUS
 62
     1
 10
1212.0
 20
804.1
 30
0.0
 40
2.0
  0
LINE
  8
0
  6
LTYPE4
 62
     2
 10
1208.0
 20
804.2
 30
0.0
 11
1216.2
 21
804.2
 31
0.0
  0
LINE
  8
0
  6
LTYPE1
 62
     2
 10
1224.5
 20
806.1
 30
0.0
 11
1224.5
 21
825.6
 31
0.0
  0
LINE
  8
0
  6
LTYPE1
 62
     2
 10
1199.5
 20
806.1
 30
0.0
 11
1199.5
 21
825.6
 31
0.0
  0
LINE
  8
0
  6
CONTINUOUS
 62
     1
 10
1177.0
 20
850.6
 30
0.0
 11
1237.0
 21
850.6
 31
0.0
  0
LINE
  8
0
  6
CONTINUOUS
 62
     1
 10
1237.0
 20
865.6
 30
0.0
 11
1237.0
 21
850.6
 31
0.0
  0
LINE
  8
0
  6
CONTINUOUS
 62
     1
 10
1190.0
 20
870.1
 30
0.0
 11
1234.0
 21
870.1
 31
0.0
  0
LINE
  8
0
  6
CONTINUOUS
 62
     1
 10
1199.5
 20
876.1
 30
0.0
 11
1224.5
 21
876.1
 31
0.0
  0
LINE
  8
0
  6
CONTINUOUS
 62
     1
 10
1224.5
 20
876.1
 30
0.0
 11
1224.5
 21
870.1
 31
0.0
  0
LINE
  8
0
  6
CONTINUOUS
 62
     1
 10
1199.5
 20
876.1
 30
0.0
 11
1199.5
 21
870.1
 31
0.0
  0
LINE
  8
0
  6
CONTINUOUS
 62
     1
 10
1234.0
 20
870.1
 30
0.0
 11
1234.0
 21
865.6
 31
0.0
  0
LINE
  8
0
  6
CONTINUOUS
 62
     1
 10
1190.0
 20
870.1
 30
0.0
 11
1190.0
 21
865.6
 31
0.0
  0
CIRCLE
  8
0
  6
CONTINUOUS
 62
     1
 10
1212.0
 20
872.1
 30
0.0
 40
2.0
  0
LINE
  8
0
  6
LTYPE4
 62
     2
 10
1208.0
 20
872.0
 30
0.0
 11
1216.2
 21
872.0
 31
0.0
  0
LINE
  8
0
  6
LTYPE1
 62
     2
 10
1224.5
 20
870.1
 30
0.0
 11
1224.5
 21
850.6
 31
0.0
  0
LINE
  8
0
  6
LTYPE1
 62
     2
 10
1199.5
 20
870.1
 30
0.0
 11
1199.5
 21
850.6
 31
0.0
  0
LINE
  8
0
  6
CONTINUOUS
 62
     1
 10
1177.0
 20
825.6
 30
0.0
 11
1177.0
 21
850.6
 31
0.0
  0
LINE
  8
0
  6
CONTINUOUS
 62
     1
 10
1199.5
 20
825.6
 30
0.0
 11
1199.5
 21
850.6
 31
0.0
  0
LINE
  8
0
  6
CONTINUOUS
 62
     1
 10
1224.5
 20
825.6
 30
0.0
 11
1224.5
 21
850.6
 31
0.0
  0
LINE
  8
0
  6
LTYPE4
 62
     2
 10
1212.0
 20
795.1
 30
0.0
 11
1212.0
 21
876.1
 31
0.0
  0
LINE
  8
0
  6
LTYPE4
 62
     2
 10
1212.0
 20
881.1
 30
0.0
 11
1212.0
 21
800.1
 31
0.0
  0
LINE
  8
0
  6
CONTINUOUS
 62
     1
 10
1199.5
 20
850.6
 30
0.0
 11
1199.5
 21
825.6
 31
0.0
  0
LINE
  8
0
  6
CONTINUOUS
 62
     1
 10
1224.5
 20
850.6
 30
0.0
 11
1224.5
 21
825.6
 31
0.0
  0
LINE
  8
0
  6
CONTINUOUS
 62
     2
 10
1244.5
 20
810.6
 30
0.0
 11
1322.0
 21
810.6
 31
0.0
  0
LINE
  8
0
  6
CONTINUOUS
 62
     2
 10
1314.5
 20
810.6
 30
0.0
 11
1317.735238064
 21
822.674072829
 31
0.0
  0
LINE
  8
0
  6
CONTINUOUS
 62
     2
 10
1314.5
 20
810.6
 30
0.0
 11
1311.264761936
 21
822.674072829
 31
0.0
  0
LINE
  8
0
  6
CONTINUOUS
 62
     2
 10
1314.5
 20
810.6
 30
0.0
 11
1314.5
 21
865.6
 31
0.0
  0
LINE
  8
0
  6
CONTINUOUS
 62
     2
 10
1314.5
 20
865.6
 30
0.0
 11
1311.264761936
 21
853.525927171
 31
0.0
  0
LINE
  8
0
  6
CONTINUOUS
 62
     2
 10
1314.5
 20
865.6
 30
0.0
 11
1317.735238064
 21
853.525927171
 31
0.0
  0
LINE
  8
0
  6
CONTINUOUS
 62
     2
 10
1244.5
 20
865.6
 30
0.0
 11
1322.0
 21
865.6
 31
0.0
  0
LINE
  8
0
  6
CONTINUOUS
 62
     2
 10
1244.5
 20
825.6
 30
0.0
 11
1293.5
 21
825.6
 31
0.0
  0
LINE
  8
0
  6
CONTINUOUS
 62
     2
 10
1286.0
 20
825.6
 30
0.0
 11
1282.764761936
 21
813.525927171
 31
0.0
  0
LINE
  8
0
  6
CONTINUOUS
 62
     2
 10
1286.0
 20
825.6
 30
0.0
 11
1289.235238064
 21
813.525927171
 31
0.0
  0
LINE
  8
0
  6
CONTINUOUS
 62
     2
 10
1286.0
 20
806.85
 30
0.0
 11
1286.0
 21
897.85
 31
0.0
  0
LINE
  8
0
  6
CONTINUOUS
 62
     2
 10
1286.0
 20
850.6
 30
0.0
 11
1289.235238064
 21
862.674072829
 31
0.0
  0
LINE
  8
0
  6
CONTINUOUS
 62
     2
 10
1286.0
 20
850.6
 30
0.0
 11
1282.764761936
 21
862.674072829
 31
0.0
  0
LINE
  8
0
  6
CONTINUOUS
 62
     2
 10
1244.5
 20
850.6
 30
0.0
 11
1293.5
 21
850.6
 31
0.0
  0
LINE
  8
0
  6
CONTINUOUS
 62
     2
 10
1177.0
 20
755.6
 30
0.0
 11
1189.074072829
 21
752.364761936
 31
0.0
  0
LINE
  8
0
  6
CONTINUOUS
 62
     2
 10
1177.0
 20
755.6
 30
0.0
 11
1189.074072829
 21
758.835238064
 31
0.0
  0
LINE
  8
0
  6
CONTINUOUS
 62
     2
 10
1177.0
 20
755.6
 30
0.0
 11
1212.0
 21
755.6
 31
0.0
  0
LINE
  8
0
  6
CONTINUOUS
 62
     2
 10
1212.0
 20
755.6
 30
0.0
 11
1199.925927171
 21
758.835238064
 31
0.0
  0
LINE
  8
0
  6
CONTINUOUS
 62
     2
 10
1212.0
 20
755.6
 30
0.0
 11
1199.925927171
 21
752.364761936
 31
0.0
  0
LINE
  8
0
  6
CONTINUOUS
 62
     2
 10
1177.0
 20
755.6
 30
0.0
 11
1189.074072829
 21
752.364761936
 31
0.0
  0
LINE
  8
0
  6
CONTINUOUS
 62
     2
 10
1177.0
 20
755.6
 30
0.0
 11
1189.074072829
 21
758.835238064
 31
0.0
  0
LINE
  8
0
  6
CONTINUOUS
 62
     2
 10
1195.75
 20
755.6
 30
0.0
 11
1114.75
 21
755.6
 31
0.0
  0
LINE
  8
0
  6
CONTINUOUS
 62
     2
 10
1162.0
 20
755.6
 30
0.0
 11
1149.925927171
 21
758.835238064
 31
0.0
  0
LINE
  8
0
  6
CONTINUOUS
 62
     2
 10
1162.0
 20
755.6
 30
0.0
 11
1149.925927171
 21
752.364761936
 31
0.0
  0
LINE
  8
0
  6
CONTINUOUS
 62
     2
 10
1212.0
 20
790.5
 30
0.0
 11
1212.0
 21
748.1
 31
0.0
  0
LINE
  8
0
  6
CONTINUOUS
 62
     2
 10
1177.0
 20
823.0
 30
0.0
 11
1177.0
 21
748.1
 31
0.0
  0
LINE
  8
0
  6
CONTINUOUS
 62
     2
 10
1162.0
 20
799.0
 30
0.0
 11
1162.0
 21
748.1
 31
0.0
  0
LINE
  8
0
  6
CONTINUOUS
 62
     1
 10
1162.0
 20
838.1
 30
0.0
 11
1162.0
 21
865.6
 31
0.0
  0
LINE
  8
0
  6
CONTINUOUS
 62
     1
 10
1162.0
 20
865.6
 30
0.0
 11
1237.0
 21
865.6
 31
0.0
  0
LINE
  8
0
  6
CONTINUOUS
 62
     1
 10
1162.0
 20
810.6
 30
0.0
 11
1162.0
 21
865.6
 31
0.0
  0
LINE
  8
0
  6
CONTINUOUS
 62
     1
 10
1162.0
 20
810.6
 30
0.0
 11
1237.0
 21
810.6
 31
0.0
  0
LINE
  8
0
  6
CONTINUOUS
 62
     1
 10
1162.0
 20
677.5
 30
0.0
 11
1107.0
 21
677.5
 31
0.0
  0
ARC
  8
0
  6
CONTINUOUS
 62
     1
 10
1229.0
 20
635.5
 30
0.0
 40
8.0
 50
270.0
 51
0.0
  0
LINE
  8
0
  6
CONTINUOUS
 62
     1
 10
1237.0
 20
635.5
 30
0.0
 11
1237.0
 21
669.5
 31
0.0
  0
ARC
  8
0
  6
CONTINUOUS
 62
     1
 10
1229.0
 20
669.5
 30
0.0
 40
8.0
 50
0.0
 51
90.0
  0
CIRCLE
  8
0
  6
CONTINUOUS
 62
     1
 10
1212.0
 20
652.5
 30
0.0
 40
12.5
  0
CIRCLE
  8
0
  6
CONTINUOUS
 62
     1
 10
1212.0
 20
652.5
 30
0.0
 40
22.0
  0
CIRCLE
  8
0
  6
CONTINUOUS
 62
     1
 10
1212.0
 20
668.0
 30
0.0
 40
3.0
  0
LINE
  8
0
  6
CONTINUOUS
 62
     1
 10
1207.8
 20
635.7
 30
0.0
 11
1209.8
 21
635.4
 31
0.0
  0
LINE
  8
0
  6
CONTINUOUS
 62
     1
 10
1210.3
 20
640.1
 30
0.0
 11
1210.064615385
 21
638.530769231
 31
0.0
  0
LINE
  8
0
  6
CONTINUOUS
 62
     1
 10
1210.064615385
 20
638.530769231
 30
0.0
 11
1207.8
 21
635.7
 31
0.0
  0
LINE
  8
0
  6
CONTINUOUS
 62
     1
 10
1212.0
 20
638.1
 30
0.0
 11
1209.8
 21
635.4
 31
0.0
  0
LINE
  8
0
  6
CONTINUOUS
 62
     1
 10
1216.2
 20
635.7
 30
0.0
 11
1214.2
 21
635.4
 31
0.0
  0
LINE
  8
0
  6
CONTINUOUS
 62
     1
 10
1213.7
 20
640.1
 30
0.0
 11
1213.935384615
 21
638.530769231
 31
0.0
  0
LINE
  8
0
  6
CONTINUOUS
 62
     1
 10
1213.935384615
 20
638.530769231
 30
0.0
 11
1216.2
 21
635.7
 31
0.0
  0
LINE
  8
0
  6
CONTINUOUS
 62
     1
 10
1212.0
 20
638.1
 30
0.0
 11
1214.2
 21
635.4
 31
0.0
  0
LINE
  8
0
  6
LTYPE1
 62
     2
 10
1177.0
 20
627.5
 30
0.0
 11
1177.0
 21
677.5
 31
0.0
  0
LINE
  8
0
  6
CONTINUOUS
 62
     2
 10
1236.5
 20
677.5
 30
0.0
 11
1300.1
 21
677.5
 31
0.0
  0
LINE
  8
0
  6
CONTINUOUS
 62
     2
 10
1292.6
 20
677.5
 30
0.0
 11
1289.364761936
 21
665.425927171
 31
0.0
  0
LINE
  8
0
  6
CONTINUOUS
 62
     2
 10
1292.6
 20
677.5
 30
0.0
 11
1295.835238064
 21
665.425927171
 31
0.0
  0
LINE
  8
0
  6
CONTINUOUS
 62
     2
 10
1292.6
 20
677.5
 30
0.0
 11
1292.6
 21
627.5
 31
0.0
  0
LINE
  8
0
  6
CONTINUOUS
 62
     2
 10
1292.6
 20
627.5
 30
0.0
 11
1295.835238064
 21
639.574072829
 31
0.0
  0
LINE
  8
0
  6
CONTINUOUS
 62
     2
 10
1292.6
 20
627.5
 30
0.0
 11
1289.364761936
 21
639.574072829
 31
0.0
  0
LINE
  8
0
  6
CONTINUOUS
 62
     2
 10
1236.5
 20
627.5
 30
0.0
 11
1300.1
 21
627.5
 31
0.0
  0
LINE
  8
0
  6
LTYPE4
 62
     2
 10
1212.0
 20
627.5
 30
0.0
 11
1212.0
 21
684.6
 31
0.0
  0
LINE
  8
0
  6
CONTINUOUS
 62
     2
 10
1219.5
 20
662.1
 30
0.0
 11
1228.413448812
 21
670.863585469
 31
0.0
  0
LINE
  8
0
  6
CONTINUOUS
 62
     2
 10
1219.5
 20
662.1
 30
0.0
 11
1222.837480372
 21
674.14621205
 31
0.0
  0
LINE
  8
0
  6
CONTINUOUS
 62
     1
 10
1162.0
 20
677.5
 30
0.0
 11
1229.0
 21
677.5
 31
0.0
  0
LINE
  8
0
  6
CONTINUOUS
 62
     1
 10
1162.0
 20
627.5
 30
0.0
 11
1162.0
 21
677.5
 31
0.0
  0
LINE
  8
0
  6
CONTINUOUS
 62
     1
 10
1162.0
 20
627.5
 30
0.0
 11
1229.0
 21
627.5
 31
0.0
  0
LINE
  8
0
  6
CONTINUOUS
 62
     1
 10
1107.0
 20
687.5
 30
0.0
 11
712.0
 21
687.5
 31
0.0
  0
LINE
  8
0
  6
CONTINUOUS
 62
     1
 10
1107.0
 20
617.5
 30
0.0
 11
1107.0
 21
687.5
 31
0.0
  0
LINE
  8
0
  6
CONTINUOUS
 62
     1
 10
1072.0
 20
617.5
 30
0.0
 11
1072.0
 21
687.5
 31
0.0
  0
LINE
  8
0
  6
LTYPE3
 62
     2
 10
1112.5
 20
838.1
 30
0.0
 11
1257.0
 21
838.1
 31
0.0
  0
LINE
  8
0
  6
CONTINUOUS
 62
     1
 10
1112.5
 20
863.1
 30
0.0
 11
1162.0
 21
863.1
 31
0.0
  0
LINE
  8
0
  6
CONTINUOUS
 62
     1
 10
1112.5
 20
813.1
 30
0.0
 11
1162.0
 21
813.1
 31
0.0
  0
LINE
  8
0
  6
CONTINUOUS
 62
     2
 10
1162.0
 20
620.5
 30
0.0
 11
1162.0
 21
438.2
 31
0.0
  0
TEXT
  8
0
  6
CONTINUOUS
 62
     2
 10
775.0
 20
522.0
 30
0.0
 40
18.0
  1
ＰＦ１／２
 50
0.0
 41
0.9
 51
0.0
  7
KANJI28
  0
TEXT
  8
0
  6
CONTINUOUS
 62
     2
 10
696.008113477
 20
920.131269711
 30
0.0
 40
18.0
  1
ＰＦ３／４
 50
0.0
 41
0.9
 51
0.0
  7
KANJI28
  0
TEXT
  8
0
  6
CONTINUOUS
 62
     2
 10
446.75
 20
1005.9
 30
0.0
 40
18.0
  1
１１３
 50
0.0
 41
0.9
 51
0.0
  7
KANJI28
  0
TEXT
  8
0
  6
CONTINUOUS
 62
     2
 10
619.75
 20
1005.9
 30
0.0
 40
18.0
  1
２７７
 50
0.0
 41
0.9
 51
0.0
  7
KANJI28
  0
TEXT
  8
0
  6
CONTINUOUS
 62
     2
 10
576.540009455
 20
764.5
 30
0.0
 40
18.0
  1
日本電産
 50
0.0
 41
0.9
 51
0.0
  7
KANJI28
  0
TEXT
  8
0
  6
CONTINUOUS
 62
     2
 10
576.540009455
 20
740.5
 30
0.0
 40
18.0
  1
エコノストップモータ
 50
0.0
 41
0.9
 51
0.0
  7
KANJI28
  0
LINE
  8
0
  6
CONTINUOUS
 62
     2
 10
763.0
 20
851.3
 30
0.0
 11
856.1
 21
851.3
 31
0.0
  0
LINE
  8
0
  6
CONTINUOUS
 62
     2
 10
765.0
 20
724.3
 30
0.0
 11
856.1
 21
724.3
 31
0.0
  0
LINE
  8
0
  6
CONTINUOUS
 62
     1
 10
636.3
 20
541.5
 30
0.0
 11
625.7
 21
541.5
 31
0.0
  0
ARC
  8
0
  6
CONTINUOUS
 62
     1
 10
631.4
 20
542.5
 30
0.0
 40
5.0
 50
272.3
 51
348.5
  0
ARC
  8
0
  6
CONTINUOUS
 62
     1
 10
630.6
 20
542.5
 30
0.0
 40
5.0
 50
191.5
 51
267.7
  0
LINE
  8
0
  6
CONTINUOUS
 62
     1
 10
631.6
 20
537.5
 30
0.0
 11
630.4
 21
537.5
 31
0.0
  0
LINE
  8
0
  6
LTYPE5
 62
     2
 10
631.0
 20
534.1
 30
0.0
 11
631.0
 21
547.5
 31
0.0
  0
LINE
  8
0
  6
CONTINUOUS
 62
     1
 10
746.3
 20
541.5
 30
0.0
 11
735.7
 21
541.5
 31
0.0
  0
ARC
  8
0
  6
CONTINUOUS
 62
     1
 10
741.4
 20
542.5
 30
0.0
 40
5.0
 50
272.3
 51
348.5
  0
ARC
  8
0
  6
CONTINUOUS
 62
     1
 10
740.6
 20
542.5
 30
0.0
 40
5.0
 50
191.5
 51
267.7
  0
LINE
  8
0
  6
CONTINUOUS
 62
     1
 10
741.6
 20
537.5
 30
0.0
 11
740.4
 21
537.5
 31
0.0
  0
LINE
  8
0
  6
LTYPE5
 62
     2
 10
741.0
 20
534.1
 30
0.0
 11
741.0
 21
547.5
 31
0.0
  0
LINE
  8
0
  6
LTYPE3
 62
     6
 10
230.708333
 20
1090.133317
 30
0.0
 11
230.708333
 21
1073.732460936
 31
0.0
  0
LINE
  8
0
  6
LTYPE3
 62
     6
 10
361.105262694
 20
1090.133317
 30
0.0
 11
230.708333
 21
1090.133317
 31
0.0
  0
TEXT
  8
0
  6
CONTINUOUS
 62
     6
 10
213.173590591
 20
1076.648168681
 30
1.093390404
 40
10.933904043
  1
Ｕ
 50
0.0
 41
0.9
 51
0.0
  7
KANJI29
  0
CIRCLE
  8
0
  6
CONTINUOUS
 62
     6
 10
230.708333
 20
1070.452289723
 30
0.0
 40
4.373561617
  0
LINE
  8
0
  6
CONTINUOUS
 62
     6
 10
225.68354931
 20
1065.427506033
 30
0.0
 11
235.888526417
 21
1075.63248314
 31
0.0
  0
TEXT
  8
0
  6
CONTINUOUS
 62
     6
 10
240.953806047
 20
1098.799448352
 30
1.518597784
 40
15.185977837
  1
エコノストップモータ
 50
0.0
 41
0.66671875
 51
0.0
  7
KANJI30
  0
CIRCLE
  8
0
  6
CONTINUOUS
 62
     6
 10
275.537339575
 20
1044.939846957
 30
0.0
 40
18.223173404
  0
TEXT
  8
0
  6
CONTINUOUS
 62
     6
 10
267.883606745
 20
1036.192723723
 30
1.82231734
 40
18.223173404
  1
Ｍ
 50
0.0
 41
0.9
 51
0.0
  7
KANJI31
  0
LINE
  8
0
  6
CONTINUOUS
 62
     6
 10
251.482750681
 20
1019.427404191
 30
0.0
 11
262.781118192
 21
1032.548089042
 31
0.0
  0
LINE
  8
0
  6
CONTINUOUS
 62
     6
 10
251.482750681
 20
1070.452289723
 30
0.0
 11
262.781118192
 21
1057.331604872
 31
0.0
  0
LINE
  8
0
  6
CONTINUOUS
 62
     6
 10
251.482750681
 20
1070.452289723
 30
0.0
 11
235.081894617
 21
1070.452289723
 31
0.0
  0
LINE
  8
0
  6
CONTINUOUS
 62
     6
 10
257.678629639
 20
1044.939846957
 30
0.0
 11
235.081894617
 21
1044.939846957
 31
0.0
  0
LINE
  8
0
  6
CONTINUOUS
 62
     6
 10
251.482750681
 20
1019.427404191
 30
0.0
 11
235.081894617
 21
1019.427404191
 31
0.0
  0
TEXT
  8
0
  6
CONTINUOUS
 62
     6
 10
214.266980995
 20
1050.771262446
 30
1.093390404
 40
10.933904043
  1
Ｖ
 50
0.0
 41
0.9
 51
0.0
  7
KANJI29
  0
TEXT
  8
0
  6
CONTINUOUS
 62
     6
 10
215.360371399
 20
1024.894356212
 30
1.093390404
 40
10.933904043
  1
Ｗ
 50
0.0
 41
0.9
 51
0.0
  7
KANJI29
  0
CIRCLE
  8
0
  6
CONTINUOUS
 62
     6
 10
230.708333
 20
1044.939846957
 30
0.0
 40
4.373561617
  0
LINE
  8
0
  6
CONTINUOUS
 62
     6
 10
225.68354931
 20
1039.915063267
 30
0.0
 11
235.888526417
 21
1050.120040374
 31
0.0
  0
LINE
  8
0
  6
LTYPE3
 62
     6
 10
230.708333
 20
1066.443191574
 30
0.0
 11
230.708333
 21
1048.22001817
 31
0.0
  0
CIRCLE
  8
0
  6
CONTINUOUS
 62
     6
 10
230.708333
 20
1019.427404191
 30
0.0
 40
4.373561617
  0
LINE
  8
0
  6
CONTINUOUS
 62
     6
 10
225.68354931
 20
1014.402620501
 30
0.0
 11
235.888526417
 21
1024.607597607
 31
0.0
  0
LINE
  8
0
  6
LTYPE3
 62
     6
 10
230.708333
 20
1040.930748808
 30
0.0
 11
230.708333
 21
1023.800965808
 31
0.0
  0
LINE
  8
0
  6
LTYPE3
 62
     6
 10
230.708333
 20
1015.053842574
 30
0.0
 11
230.708333
 21
994.721584891
 31
0.0
  0
TEXT
  8
0
  6
CONTINUOUS
 62
     6
 10
301.778709277
 20
1036.684749405
 30
1.457853872
 40
14.578538724
  1
Ｂ
 50
0.0
 41
0.9
 51
0.0
  7
KANJI32
  0
CIRCLE
  8
0
  6
CONTINUOUS
 62
     6
 10
308.339051703
 20
1044.939846957
 30
0.0
 40
14.578538724
  0
LINE
  8
0
  6
LTYPE3
 62
     6
 10
361.105262694
 20
994.721584891
 30
0.0
 11
230.708333
 21
994.721584891
 31
0.0
  0
LINE
  8
0
  6
LTYPE3
 62
     6
 10
361.105262694
 20
994.721584891
 30
0.0
 11
361.105262694
 21
1090.133317
 31
0.0
  0
TEXT
  8
0
  6
CONTINUOUS
 62
     2
 10
235.803726364
 20
969.512221811
 30
0.0
 40
15.6
  1
モーター結線図
 50
0.0
 41
0.925
 51
0.0
  7
KANJI33
  0
TEXT
  8
0
  6
CONTINUOUS
 62
     2
 10
304.6
 20
909.1
 30
0.0
 40
18.0
  1
手動軸カバー
 50
0.0
 41
0.9
 51
0.0
  7
KANJI28
  0
LINE
  8
0
  6
CONTINUOUS
 62
     2
 10
400.58
 20
904.1
 30
0.0
 11
302.0
 21
904.1
 31
0.0
  0
TEXT
  8
0
  6
CONTINUOUS
 62
     2
 10
804.5
 20
630.75
 30
0.0
 40
18.0
  1
φ７０
 50
90.0
 41
0.9
 51
0.0
  7
KANJI28
  0
TEXT
  8
0
  6
CONTINUOUS
 62
     2
 10
933.1
 20
793.3
 30
0.0
 40
18.0
  1
給脂口
 50
0.0
 41
0.9
 51
0.0
  7
KANJI28
  0
TEXT
  8
0
  6
CONTINUOUS
 62
     2
 10
463.75
 20
407.3625
 30
0.0
 40
18.0
  1
８６
 50
0.0
 41
0.9
 51
0.0
  7
KANJI28
  0
TEXT
  8
0
  6
CONTINUOUS
 62
     2
 10
536.75
 20
407.3625
 30
0.0
 40
18.0
  1
６０
 50
0.0
 41
0.9
 51
0.0
  7
KANJI28
  0
TEXT
  8
0
  6
CONTINUOUS
 62
     2
 10
859.75
 20
407.3625
 30
0.0
 40
18.0
  1
ｍｉｎ．Ｌ
 50
0.0
 41
0.9
 51
0.0
  7
KANJI28
  0
TEXT
  8
0
  6
CONTINUOUS
 62
     2
 10
779.25
 20
363.0
 30
0.0
 40
18.0
  1
ｍｉｎ．ＡＬ
 50
0.0
 41
0.9
 51
0.0
  7
KANJI28
  0
TEXT
  8
0
  6
CONTINUOUS
 62
     2
 10
837.25
 20
450.7
 30
0.0
 40
18.0
  1
Ｃ
 50
0.0
 41
0.9
 51
0.0
  7
KANJI28
  0
TEXT
  8
0
  6
CONTINUOUS
 62
     2
 10
694.8
 20
465.7
 30
0.0
 40
18.0
  1
推力リミッタ
 50
0.0
 41
0.9
 51
0.0
  7
KANJI28
  0
TEXT
  8
2
  6
CONTINUOUS
 62
     2
 10
869.7
 20
958.0
 30
0.0
 40
18.0
  1
ブレーキ解放装置
 50
0.0
 41
0.9
 51
0.0
  7
KANJI28
  0
LINE
  8
0
  6
CONTINUOUS
 62
     2
 10
933.1
 20
788.3
 30
0.0
 11
982.0
 21
788.3
 31
0.0
  0
LINE
  8
0
  6
CONTINUOUS
 62
     2
 10
691.292647059
 20
459.2
 30
0.0
 11
793.0
 21
459.2
 31
0.0
  0
LINE
  8
0
  6
CONTINUOUS
 62
     2
 10
845.240009455
 20
851.3
 30
0.0
 11
842.004771391
 21
839.225927171
 31
0.0
  0
LINE
  8
0
  6
CONTINUOUS
 62
     2
 10
845.240009455
 20
851.3
 30
0.0
 11
848.475247519
 21
839.225927171
 31
0.0
  0
LINE
  8
0
  6
CONTINUOUS
 62
     2
 10
845.240009455
 20
851.3
 30
0.0
 11
845.240009455
 21
724.3
 31
0.0
  0
LINE
  8
0
  6
CONTINUOUS
 62
     2
 10
845.240009455
 20
724.3
 30
0.0
 11
848.475247519
 21
736.374072829
 31
0.0
  0
LINE
  8
0
  6
CONTINUOUS
 62
     2
 10
845.240009455
 20
724.3
 30
0.0
 11
842.004771391
 21
736.374072829
 31
0.0
  0
TEXT
  8
0
  6
CONTINUOUS
 62
     2
 10
840.240009455
 20
760.05
 30
0.0
 40
18.0
  1
φ１２７
 50
90.0
 41
0.9
 51
0.0
  7
KANJI28
  0
LINE
  8
0
  6
CONTINUOUS
 62
     2
 10
560.003319123
 20
189.833311846
 30
0.0
 11
567.730725733
 21
187.762759485
 31
0.0
  0
LINE
  8
0
  6
CONTINUOUS
 62
     2
 10
560.003319123
 20
189.833311846
 30
0.0
 11
567.730725733
 21
191.903864207
 31
0.0
  0
LINE
  8
0
  6
CONTINUOUS
 62
     2
 10
560.003319123
 20
189.833311846
 30
0.0
 11
697.603319123
 21
189.833311846
 31
0.0
  0
LINE
  8
0
  6
CONTINUOUS
 62
     2
 10
697.603319123
 20
189.833311846
 30
0.0
 11
689.875912513
 21
191.903864207
 31
0.0
  0
LINE
  8
0
  6
CONTINUOUS
 62
     2
 10
697.603319123
 20
189.833311846
 30
0.0
 11
689.875912513
 21
187.762759485
 31
0.0
  0
LINE
  8
0
  6
CONTINUOUS
 62
     2
 10
697.603319123
 20
188.633311846
 30
0.0
 11
697.603319123
 21
185.833311846
 31
0.0
  0
LINE
  8
0
  6
CONTINUOUS
 62
     2
 10
697.603319123
 20
189.833311846
 30
0.0
 11
705.330725733
 21
187.762759485
 31
0.0
  0
LINE
  8
0
  6
CONTINUOUS
 62
     2
 10
697.603319123
 20
189.833311846
 30
0.0
 11
705.330725733
 21
191.903864207
 31
0.0
  0
LINE
  8
0
  6
CONTINUOUS
 62
     2
 10
697.603319123
 20
189.833311846
 30
0.0
 11
900.003319123
 21
189.833311846
 31
0.0
  0
LINE
  8
0
  6
CONTINUOUS
 62
     2
 10
900.003319123
 20
189.833311846
 30
0.0
 11
892.275912513
 21
191.903864207
 31
0.0
  0
LINE
  8
0
  6
CONTINUOUS
 62
     2
 10
900.003319123
 20
189.833311846
 30
0.0
 11
892.275912513
 21
187.762759485
 31
0.0
  0
LINE
  8
0
  6
CONTINUOUS
 62
     2
 10
697.603319123
 20
163.503864207
 30
0.0
 11
689.875912513
 21
165.574416568
 31
0.0
  0
LINE
  8
0
  6
CONTINUOUS
 62
     2
 10
697.603319123
 20
163.503864207
 30
0.0
 11
689.875912513
 21
161.433311846
 31
0.0
  0
LINE
  8
0
  6
CONTINUOUS
 62
     2
 10
685.603319123
 20
163.503864207
 30
0.0
 11
697.603319123
 21
163.503864207
 31
0.0
  0
LINE
  8
0
  6
CONTINUOUS
 62
     2
 10
697.603319123
 20
163.503864207
 30
0.0
 11
718.403319123
 21
163.503864207
 31
0.0
  0
LINE
  8
0
  6
CONTINUOUS
 62
     2
 10
718.403319123
 20
163.503864207
 30
0.0
 11
726.130725733
 21
161.433311846
 31
0.0
  0
LINE
  8
0
  6
CONTINUOUS
 62
     2
 10
718.403319123
 20
163.503864207
 30
0.0
 11
726.130725733
 21
165.574416568
 31
0.0
  0
LINE
  8
0
  6
CONTINUOUS
 62
     2
 10
560.003319123
 20
138.233311846
 30
0.0
 11
560.003319123
 21
132.233311846
 31
0.0
  0
LINE
  8
0
  6
CONTINUOUS
 62
     2
 10
560.003319123
 20
136.233311846
 30
0.0
 11
567.730725733
 21
134.162759485
 31
0.0
  0
LINE
  8
0
  6
CONTINUOUS
 62
     2
 10
560.003319123
 20
136.233311846
 30
0.0
 11
567.730725733
 21
138.303864207
 31
0.0
  0
LINE
  8
0
  6
CONTINUOUS
 62
     2
 10
560.003319123
 20
136.233311846
 30
0.0
 11
718.403319123
 21
136.233311846
 31
0.0
  0
LINE
  8
0
  6
CONTINUOUS
 62
     2
 10
718.403319123
 20
136.233311846
 30
0.0
 11
710.675912513
 21
138.303864207
 31
0.0
  0
LINE
  8
0
  6
CONTINUOUS
 62
     2
 10
718.403319123
 20
136.233311846
 30
0.0
 11
710.675912513
 21
134.162759485
 31
0.0
  0
LINE
  8
0
  6
CONTINUOUS
 62
     2
 10
718.403319123
 20
137.433311846
 30
0.0
 11
718.403319123
 21
132.233311846
 31
0.0
  0
LINE
  8
0
  6
CONTINUOUS
 62
     2
 10
718.403319123
 20
136.233311846
 30
0.0
 11
726.130725733
 21
134.162759485
 31
0.0
  0
LINE
  8
0
  6
CONTINUOUS
 62
     2
 10
718.403319123
 20
136.233311846
 30
0.0
 11
726.130725733
 21
138.303864207
 31
0.0
  0
LINE
  8
0
  6
CONTINUOUS
 62
     2
 10
900.003319123
 20
132.633311846
 30
0.0
 11
900.003319123
 21
132.233311846
 31
0.0
  0
LINE
  8
0
  6
CONTINUOUS
 62
     2
 10
560.003319123
 20
107.033311846
 30
0.0
 11
567.730725733
 21
104.962759485
 31
0.0
  0
LINE
  8
0
  6
CONTINUOUS
 62
     2
 10
560.003319123
 20
107.033311846
 30
0.0
 11
567.730725733
 21
109.103864207
 31
0.0
  0
LINE
  8
0
  6
CONTINUOUS
 62
     2
 10
560.003319123
 20
107.033311846
 30
0.0
 11
877.603319123
 21
107.033311846
 31
0.0
  0
LINE
  8
0
  6
CONTINUOUS
 62
     2
 10
877.603319123
 20
107.033311846
 30
0.0
 11
869.875912513
 21
109.103864207
 31
0.0
  0
LINE
  8
0
  6
CONTINUOUS
 62
     2
 10
877.603319123
 20
107.033311846
 30
0.0
 11
869.875912513
 21
104.962759485
 31
0.0
  0
LINE
  8
0
  6
CONTINUOUS
 62
     2
 10
877.603319123
 20
107.833311846
 30
0.0
 11
877.603319123
 21
103.033311846
 31
0.0
  0
LINE
  8
0
  6
CONTINUOUS
 62
     2
 10
877.603319123
 20
107.033311846
 30
0.0
 11
869.875912513
 21
109.103864207
 31
0.0
  0
LINE
  8
0
  6
CONTINUOUS
 62
     2
 10
877.603319123
 20
107.033311846
 30
0.0
 11
869.875912513
 21
104.962759485
 31
0.0
  0
LINE
  8
0
  6
CONTINUOUS
 62
     2
 10
865.603319123
 20
107.033311846
 30
0.0
 11
877.603319123
 21
107.033311846
 31
0.0
  0
LINE
  8
0
  6
CONTINUOUS
 62
     2
 10
877.603319123
 20
107.033311846
 30
0.0
 11
900.003319123
 21
107.033311846
 31
0.0
  0
LINE
  8
0
  6
CONTINUOUS
 62
     2
 10
900.003319123
 20
107.033311846
 30
0.0
 11
907.730725733
 21
104.962759485
 31
0.0
  0
LINE
  8
0
  6
CONTINUOUS
 62
     2
 10
900.003319123
 20
107.033311846
 30
0.0
 11
907.730725733
 21
109.103864207
 31
0.0
  0
LINE
  8
0
  6
CONTINUOUS
 62
     2
 10
560.003319123
 20
200.633311846
 30
0.0
 11
560.003319123
 21
185.833311846
 31
0.0
  0
LINE
  8
0
  6
CONTINUOUS
 62
     2
 10
900.003319123
 20
200.633311846
 30
0.0
 11
900.003319123
 21
185.833311846
 31
0.0
  0
LINE
  8
0
  6
CONTINUOUS
 62
     2
 10
697.603319123
 20
189.433311846
 30
0.0
 11
697.603319123
 21
200.633311846
 31
0.0
  0
LINE
  8
0
  6
CONTINUOUS
 62
     2
 10
718.403319123
 20
176.303864207
 30
0.0
 11
718.403319123
 21
159.503864207
 31
0.0
  0
LINE
  8
0
  6
CONTINUOUS
 62
     2
 10
560.003319123
 20
185.833311846
 30
0.0
 11
560.003319123
 21
93.833311846
 31
0.0
  0
LINE
  8
0
  6
CONTINUOUS
 62
     2
 10
900.003319123
 20
189.833311846
 30
0.0
 11
900.003319123
 21
95.033311846
 31
0.0
  0
LINE
  8
0
  6
CONTINUOUS
 62
     2
 10
718.403319123
 20
163.503864207
 30
0.0
 11
718.403319123
 21
127.033311846
 31
0.0
  0
LINE
  8
0
  6
CONTINUOUS
 62
     2
 10
697.603319123
 20
189.833311846
 30
0.0
 11
697.603319123
 21
154.233311846
 31
0.0
  0
TEXT
  8
0
  6
CONTINUOUS
 62
     3
 10
601.803319123
 20
191.833311846
 30
0.0
 40
15.0
  1
ｍｉｎ．Ｌ
 50
0.0
 41
0.9
 51
0.0
  7
KANJI34
  0
TEXT
  8
0
  6
CONTINUOUS
 62
     3
 10
755.603319123
 20
191.833311846
 30
0.0
 40
15.0
  1
機械的ストローク
 50
0.0
 41
0.9
 51
0.0
  7
KANJI34
  0
TEXT
  8
0
  6
CONTINUOUS
 62
     3
 10
730.403319123
 20
165.503864207
 30
0.0
 40
15.0
  1
余裕
 50
0.0
 41
0.9
 51
0.0
  7
KANJI34
  0
TEXT
  8
0
  6
CONTINUOUS
 62
     3
 10
612.203319123
 20
138.233311846
 30
0.0
 40
15.0
  1
常用ｍｉｎ
 50
0.0
 41
0.9
 51
0.0
  7
KANJI34
  0
TEXT
  8
0
  6
CONTINUOUS
 62
     3
 10
691.803319123
 20
109.033311846
 30
0.0
 40
15.0
  1
常用ｍａｘ
 50
0.0
 41
0.9
 51
0.0
  7
KANJI34
  0
TEXT
  8
0
  6
CONTINUOUS
 62
     3
 10
912.003319123
 20
109.033311846
 30
0.0
 40
15.0
  1
余裕
 50
0.0
 41
0.9
 51
0.0
  7
KANJI34
  0
LINE
  8
0
  6
CONTINUOUS
 62
     2
 10
718.403319123
 20
163.503864207
 30
0.0
 11
758.503319123
 21
163.503864207
 31
0.0
  0
LINE
  8
0
  6
CONTINUOUS
 62
     2
 10
900.003319123
 20
107.033311846
 30
0.0
 11
942.503319123
 21
107.033311846
 31
0.0
  0
TEXT
  8
0
  6
CONTINUOUS
 62
     2
 10
1172.75
 20
450.7
 30
0.0
 40
18.0
  1
５０
 50
0.0
 41
0.9
 51
0.0
  7
KANJI28
  0
TEXT
  8
0
  6
CONTINUOUS
 62
     2
 10
1091.75
 20
420.7
 30
0.0
 40
18.0
  1
ｍｉｎ．Ｐ
 50
0.0
 41
0.9
 51
0.0
  7
KANJI28
  0
TEXT
  8
0
  6
CONTINUOUS
 62
     2
 10
1180.25
 20
760.6
 30
0.0
 40
18.0
  1
３５
 50
0.0
 41
0.9
 51
0.0
  7
KANJI28
  0
TEXT
  8
0
  6
CONTINUOUS
 62
     2
 10
1115.75
 20
758.6
 30
0.0
 40
18.0
  1
１５
 50
0.0
 41
0.9
 51
0.0
  7
KANJI28
  0
TEXT
  8
0
  6
CONTINUOUS
 62
     2
 10
1287.6
 20
638.25
 30
0.0
 40
18.0
  1
５０
 50
90.0
 41
0.9
 51
0.0
  7
KANJI28
  0
TEXT
  8
0
  6
CONTINUOUS
 62
     2
 10
1256.0
 20
728.6
 30
0.0
 40
18.0
  1
φ２５Ｈ１０
 50
0.0
 41
0.9
 51
0.0
  7
KANJI28
  0
TEXT
  8
0
  6
CONTINUOUS
 62
     2
 10
1300.5
 20
704.1
 30
0.0
 40
18.0
  1
ｄ９
 50
0.0
 41
0.9
 51
0.0
  7
KANJI28
  0
TEXT
  8
0
  6
CONTINUOUS
 62
     2
 10
1309.5
 20
823.85
 30
0.0
 40
18.0
  1
５５
 50
90.0
 41
0.9
 51
0.0
  7
KANJI28
  0
TEXT
  8
0
  6
CONTINUOUS
 62
     2
 10
1281.0
 20
869.35
 30
0.0
 40
18.0
  1
２５
 50
90.0
 41
0.9
 51
0.0
  7
KANJI28
  0
LINE
  8
0
  6
LTYPE4
 62
     2
 10
1364.324000264
 20
787.5
 30
0.0
 11
1577.0
 21
787.5
 31
0.0
  0
LINE
  8
2
  6
CONTINUOUS
 62
     2
 10
1212.0
 20
754.6
 30
0.0
 11
1212.0
 21
749.6
 31
0.0
  0
LINE
  8
2
  6
CONTINUOUS
 62
     2
 10
1212.0
 20
755.6
 30
0.0
 11
1197.511112606
 21
759.482285677
 31
0.0
  0
LINE
  8
2
  6
CONTINUOUS
 62
     2
 10
1212.0
 20
755.6
 30
0.0
 11
1197.511112606
 21
751.717714323
 31
0.0
  0
LINE
  8
2
  6
CONTINUOUS
 62
     2
 10
1189.5
 20
755.6
 30
0.0
 11
1212.0
 21
755.6
 31
0.0
  0
LINE
  8
2
  6
CONTINUOUS
 62
     2
 10
1212.0
 20
755.6
 30
0.0
 11
1237.0
 21
755.6
 31
0.0
  0
LINE
  8
2
  6
CONTINUOUS
 62
     2
 10
1237.0
 20
755.6
 30
0.0
 11
1291.9
 21
755.6
 31
0.0
  0
LINE
  8
2
  6
CONTINUOUS
 62
     2
 10
1237.0
 20
755.6
 30
0.0
 11
1251.488887394
 21
751.717714323
 31
0.0
  0
LINE
  8
2
  6
CONTINUOUS
 62
     2
 10
1237.0
 20
755.6
 30
0.0
 11
1251.488887394
 21
759.482285677
 31
0.0
  0
LINE
  8
2
  6
CONTINUOUS
 62
     2
 10
1237.0
 20
804.6
 30
0.0
 11
1237.0
 21
749.6
 31
0.0
  0
TEXT
  8
2
  6
CONTINUOUS
 62
     3
 10
1259.5
 20
761.6
 30
0.0
 40
18.0
  1
２５
 50
0.0
 41
0.9
 51
0.0
  7
KANJI28
  0
LINE
  8
0
  6
CONTINUOUS
 62
     2
 10
1232.333333
 20
951.833317
 30
0.0
 11
1220.259260171
 21
955.068555064
 31
0.0
  0
LINE
  8
0
  6
CONTINUOUS
 62
     2
 10
1232.333333
 20
951.833317
 30
0.0
 11
1220.259260171
 21
948.598078936
 31
0.0
  0
LINE
  8
0
  6
CONTINUOUS
 62
     2
 10
1232.333333
 20
951.833317
 30
0.0
 11
1191.333333
 21
951.833317
 31
0.0
  0
TEXT
  8
0
  6
CONTINUOUS
 62
     3
 10
1198.333333
 20
961.833317
 30
0.0
 40
20.0
  1
前進
 50
0.0
 41
0.925
 51
0.0
  7
KANJI35
  0
ARC
  8
0
  6
CONTINUOUS
 62
     1
 10
1407.0
 20
581.0
 30
0.0
 40
6.0
 50
180.0
 51
270.0
  0
ARC
  8
0
  6
CONTINUOUS
 62
     1
 10
1549.0
 20
581.0
 30
0.0
 40
6.0
 50
270.0
 51
0.0
  0
LINE
  8
0
  6
CONTINUOUS
 62
     1
 10
1558.0
 20
631.5
 30
0.0
 11
1558.0
 21
673.5
 31
0.0
  0
ARC
  8
0
  6
CONTINUOUS
 62
     1
 10
1430.0
 20
590.0
 30
0.0
 40
3.0
 50
90.0
 51
180.0
  0
LINE
  8
0
  6
CONTINUOUS
 62
     1
 10
1427.0
 20
543.5
 30
0.0
 11
1427.0
 21
590.0
 31
0.0
  0
ARC
  8
0
  6
CONTINUOUS
 62
     1
 10
1428.0
 20
543.5
 30
0.0
 40
1.0
 50
180.0
 51
270.0
  0
ARC
  8
0
  6
CONTINUOUS
 62
     1
 10
1431.0
 20
542.5
 30
0.0
 40
1.0
 50
180.0
 51
270.0
  0
ARC
  8
0
  6
CONTINUOUS
 62
     1
 10
1526.0
 20
590.0
 30
0.0
 40
3.0
 50
0.0
 51
90.0
  0
LINE
  8
0
  6
CONTINUOUS
 62
     1
 10
1529.0
 20
543.5
 30
0.0
 11
1529.0
 21
590.0
 31
0.0
  0
ARC
  8
0
  6
CONTINUOUS
 62
     1
 10
1528.0
 20
543.5
 30
0.0
 40
1.0
 50
270.0
 51
0.0
  0
ARC
  8
0
  6
CONTINUOUS
 62
     1
 10
1525.0
 20
542.5
 30
0.0
 40
1.0
 50
270.0
 51
0.0
  0
LINE
  8
0
  6
CONTINUOUS
 62
     1
 10
1529.0
 20
548.5
 30
0.0
 11
1427.0
 21
548.5
 31
0.0
  0
LINE
  8
0
  6
CONTINUOUS
 62
     1
 10
1529.0
 20
550.0
 30
0.0
 11
1427.0
 21
550.0
 31
0.0
  0
LINE
  8
0
  6
CONTINUOUS
 62
     1
 10
1430.0
 20
593.0
 30
0.0
 11
1526.0
 21
593.0
 31
0.0
  0
LINE
  8
0
  6
CONTINUOUS
 62
     1
 10
1525.0
 20
541.5
 30
0.0
 11
1431.0
 21
541.5
 31
0.0
  0
LINE
  8
0
  6
CONTINUOUS
 62
     1
 10
1528.0
 20
542.5
 30
0.0
 11
1428.0
 21
542.5
 31
0.0
  0
LINE
  8
0
  6
CONTINUOUS
 62
     1
 10
1433.0
 20
594.5
 30
0.0
 11
1523.0
 21
594.5
 31
0.0
  0
ARC
  8
0
  6
CONTINUOUS
 62
     1
 10
1424.0
 20
706.5
 30
0.0
 40
5.0
 50
90.0
 51
180.0
  0
ARC
  8
0
  6
CONTINUOUS
 62
     1
 10
1532.0
 20
706.5
 30
0.0
 40
5.0
 50
0.0
 51
90.0
  0
CIRCLE
  8
0
  6
CONTINUOUS
 62
     1
 10
1525.0
 20
699.5
 30
0.0
 40
9.0
  0
ARC
  8
0
  6
CONTINUOUS
 62
     1
 10
1532.0
 20
598.5
 30
0.0
 40
5.0
 50
270.0
 51
360.0
  0
ARC
  8
0
  6
CONTINUOUS
 62
     1
 10
1424.0
 20
598.5
 30
0.0
 40
5.0
 50
180.0
 51
270.0
  0
LINE
  8
0
  6
CONTINUOUS
 62
     1
 10
1537.0
 20
676.025046491
 30
0.0
 11
1537.0
 21
706.5
 31
0.0
  0
LINE
  8
0
  6
CONTINUOUS
 62
     1
 10
1537.0
 20
628.974953509
 30
0.0
 11
1537.0
 21
598.5
 31
0.0
  0
LINE
  8
0
  6
CONTINUOUS
 62
     1
 10
1523.0
 20
593.5
 30
0.0
 11
1532.0
 21
593.5
 31
0.0
  0
LINE
  8
0
  6
CONTINUOUS
 62
     1
 10
1433.0
 20
593.5
 30
0.0
 11
1424.0
 21
593.5
 31
0.0
  0
ARC
  8
0
  6
CONTINUOUS
 62
     1
 10
1431.0
 20
605.5
 30
0.0
 40
9.0
 50
77.327684064
 51
282.116861929
  0
ARC
  8
0
  6
CONTINUOUS
 62
     1
 10
1525.0
 20
605.5
 30
0.0
 40
9.0
 50
257.883138071
 51
102.672315936
  0
LINE
  8
0
  6
CONTINUOUS
 62
     1
 10
1505.5
 20
677.5
 30
0.0
 11
1490.5
 21
677.5
 31
0.0
  0
LINE
  8
0
  6
CONTINUOUS
 62
     1
 10
1510.0
 20
630.5
 30
0.0
 11
1510.0
 21
674.5
 31
0.0
  0
LINE
  8
0
  6
CONTINUOUS
 62
     1
 10
1516.0
 20
640.0
 30
0.0
 11
1516.0
 21
665.0
 31
0.0
  0
LINE
  8
0
  6
CONTINUOUS
 62
     1
 10
1516.0
 20
665.0
 30
0.0
 11
1510.0
 21
665.0
 31
0.0
  0
LINE
  8
0
  6
CONTINUOUS
 62
     1
 10
1516.0
 20
640.0
 30
0.0
 11
1510.0
 21
640.0
 31
0.0
  0
LINE
  8
0
  6
CONTINUOUS
 62
     1
 10
1510.0
 20
674.5
 30
0.0
 11
1505.5
 21
674.5
 31
0.0
  0
LINE
  8
0
  6
CONTINUOUS
 62
     1
 10
1510.0
 20
630.5
 30
0.0
 11
1505.5
 21
630.5
 31
0.0
  0
CIRCLE
  8
0
  6
CONTINUOUS
 62
     1
 10
1512.0
 20
652.5
 30
0.0
 40
2.0
  0
LINE
  8
0
  6
CONTINUOUS
 62
     1
 10
1446.0
 20
630.5
 30
0.0
 11
1446.0
 21
674.5
 31
0.0
  0
LINE
  8
0
  6
CONTINUOUS
 62
     1
 10
1440.0
 20
640.0
 30
0.0
 11
1440.0
 21
665.0
 31
0.0
  0
LINE
  8
0
  6
CONTINUOUS
 62
     1
 10
1440.0
 20
665.0
 30
0.0
 11
1446.0
 21
665.0
 31
0.0
  0
LINE
  8
0
  6
CONTINUOUS
 62
     1
 10
1440.0
 20
640.0
 30
0.0
 11
1446.0
 21
640.0
 31
0.0
  0
LINE
  8
0
  6
CONTINUOUS
 62
     1
 10
1446.0
 20
674.5
 30
0.0
 11
1450.5
 21
674.5
 31
0.0
  0
LINE
  8
0
  6
CONTINUOUS
 62
     1
 10
1446.0
 20
630.5
 30
0.0
 11
1450.5
 21
630.5
 31
0.0
  0
CIRCLE
  8
0
  6
CONTINUOUS
 62
     1
 10
1444.0
 20
652.5
 30
0.0
 40
2.0
  0
LINE
  8
0
  6
CONTINUOUS
 62
     1
 10
1490.5
 20
640.0
 30
0.0
 11
1465.5
 21
640.0
 31
0.0
  0
LINE
  8
0
  6
CONTINUOUS
 62
     1
 10
1490.5
 20
665.0
 30
0.0
 11
1465.5
 21
665.0
 31
0.0
  0
LINE
  8
0
  6
CONTINUOUS
 62
     1
 10
1465.5
 20
640.0
 30
0.0
 11
1490.5
 21
640.0
 31
0.0
  0
LINE
  8
0
  6
CONTINUOUS
 62
     1
 10
1465.5
 20
665.0
 30
0.0
 11
1490.5
 21
665.0
 31
0.0
  0
LINE
  8
0
  6
CONTINUOUS
 62
     1
 10
1450.5
 20
677.5
 30
0.0
 11
1490.5
 21
677.5
 31
0.0
  0
LINE
  8
0
  6
CONTINUOUS
 62
     1
 10
1505.5
 20
627.5
 30
0.0
 11
1505.5
 21
677.5
 31
0.0
  0
LINE
  8
0
  6
CONTINUOUS
 62
     1
 10
1450.5
 20
627.5
 30
0.0
 11
1505.5
 21
627.5
 31
0.0
  0
LINE
  8
0
  6
CONTINUOUS
 62
     1
 10
1490.5
 20
627.5
 30
0.0
 11
1490.5
 21
677.5
 31
0.0
  0
LINE
  8
0
  6
CONTINUOUS
 62
     1
 10
1465.5
 20
627.5
 30
0.0
 11
1465.5
 21
677.5
 31
0.0
  0
LINE
  8
0
  6
CONTINUOUS
 62
     1
 10
1450.5
 20
627.5
 30
0.0
 11
1450.5
 21
677.5
 31
0.0
  0
LINE
  8
0
  6
CONTINUOUS
 62
     1
 10
1529.0
 20
575.0
 30
0.0
 11
1549.0
 21
575.0
 31
0.0
  0
LINE
  8
0
  6
CONTINUOUS
 62
     1
 10
1407.0
 20
575.0
 30
0.0
 11
1427.0
 21
575.0
 31
0.0
  0
LINE
  8
0
  6
CONTINUOUS
 62
     1
 10
1555.0
 20
581.0
 30
0.0
 11
1555.0
 21
631.139279073
 31
0.0
  0
LINE
  8
0
  6
CONTINUOUS
 62
     1
 10
1401.0
 20
581.0
 30
0.0
 11
1401.0
 21
631.139279073
 31
0.0
  0
LINE
  8
0
  6
LTYPE1
 62
     2
 10
1423.0
 20
642.5
 30
0.0
 11
1423.0
 21
662.5
 31
0.0
  0
LINE
  8
0
  6
LTYPE1
 62
     2
 10
1423.0
 20
662.5
 30
0.0
 11
1398.0
 21
662.5
 31
0.0
  0
LINE
  8
0
  6
LTYPE1
 62
     2
 10
1423.0
 20
642.5
 30
0.0
 11
1398.0
 21
642.5
 31
0.0
  0
LINE
  8
0
  6
LTYPE1
 62
     2
 10
1533.0
 20
642.5
 30
0.0
 11
1533.0
 21
662.5
 31
0.0
  0
LINE
  8
0
  6
LTYPE1
 62
     2
 10
1533.0
 20
662.5
 30
0.0
 11
1558.0
 21
662.5
 31
0.0
  0
LINE
  8
0
  6
LTYPE1
 62
     2
 10
1533.0
 20
642.5
 30
0.0
 11
1558.0
 21
642.5
 31
0.0
  0
LINE
  8
0
  6
LTYPE2
 62
     2
 10
1523.0
 20
537.8
 30
0.0
 11
1523.0
 21
556.5
 31
0.0
  0
LINE
  8
0
  6
LTYPE2
 62
     2
 10
1433.0
 20
537.8
 30
0.0
 11
1433.0
 21
556.5
 31
0.0
  0
LINE
  8
0
  6
LTYPE2
 62
     2
 10
1443.4
 20
699.5
 30
0.0
 11
1419.6
 21
699.5
 31
0.0
  0
LINE
  8
0
  6
LTYPE2
 62
     2
 10
1431.0
 20
688.165527109
 30
0.0
 11
1431.0
 21
710.265527109
 31
0.0
  0
LINE
  8
0
  6
LTYPE2
 62
     2
 10
1512.6
 20
699.5
 30
0.0
 11
1536.4
 21
699.5
 31
0.0
  0
LINE
  8
0
  6
LTYPE2
 62
     2
 10
1525.0
 20
688.165527109
 30
0.0
 11
1525.0
 21
710.265527109
 31
0.0
  0
LINE
  8
0
  6
LTYPE2
 62
     2
 10
1512.6
 20
605.5
 30
0.0
 11
1536.4
 21
605.5
 31
0.0
  0
LINE
  8
0
  6
LTYPE2
 62
     2
 10
1443.4
 20
605.5
 30
0.0
 11
1419.6
 21
605.5
 31
0.0
  0
LINE
  8
0
  6
LTYPE2
 62
     2
 10
1431.0
 20
595.65
 30
0.0
 11
1431.0
 21
618.75
 31
0.0
  0
LINE
  8
0
  6
LTYPE2
 62
     2
 10
1512.6
 20
605.5
 30
0.0
 11
1536.4
 21
605.5
 31
0.0
  0
LINE
  8
0
  6
LTYPE2
 62
     2
 10
1525.0
 20
595.65
 30
0.0
 11
1525.0
 21
618.75
 31
0.0
  0
LINE
  8
0
  6
LTYPE4
 62
     2
 10
1511.9
 20
648.5
 30
0.0
 11
1511.9
 21
656.7
 31
0.0
  0
LINE
  8
0
  6
LTYPE1
 62
     2
 10
1510.0
 20
665.0
 30
0.0
 11
1490.5
 21
665.0
 31
0.0
  0
LINE
  8
0
  6
LTYPE1
 62
     2
 10
1510.0
 20
640.0
 30
0.0
 11
1490.5
 21
640.0
 31
0.0
  0
LINE
  8
0
  6
LTYPE4
 62
     2
 10
1444.1
 20
648.5
 30
0.0
 11
1444.1
 21
656.7
 31
0.0
  0
LINE
  8
0
  6
LTYPE1
 62
     2
 10
1446.0
 20
665.0
 30
0.0
 11
1465.5
 21
665.0
 31
0.0
  0
LINE
  8
0
  6
LTYPE1
 62
     2
 10
1446.0
 20
640.0
 30
0.0
 11
1465.5
 21
640.0
 31
0.0
  0
LINE
  8
0
  6
CONTINUOUS
 62
     2
 10
1532.5
 20
541.5
 30
0.0
 11
1634.372218677
 21
541.5
 31
0.0
  0
LINE
  8
0
  6
CONTINUOUS
 62
     2
 10
1401.0
 20
573.5
 30
0.0
 11
1401.0
 21
485.8
 31
0.0
  0
LINE
  8
0
  6
CONTINUOUS
 62
     2
 10
1401.0
 20
493.3
 30
0.0
 11
1413.074072829
 21
490.064761936
 31
0.0
  0
LINE
  8
0
  6
CONTINUOUS
 62
     2
 10
1401.0
 20
493.3
 30
0.0
 11
1413.074072829
 21
496.535238064
 31
0.0
  0
LINE
  8
0
  6
CONTINUOUS
 62
     2
 10
1401.0
 20
493.3
 30
0.0
 11
1555.0
 21
493.3
 31
0.0
  0
LINE
  8
0
  6
CONTINUOUS
 62
     2
 10
1555.0
 20
493.3
 30
0.0
 11
1542.925927171
 21
496.535238064
 31
0.0
  0
LINE
  8
0
  6
CONTINUOUS
 62
     2
 10
1555.0
 20
493.3
 30
0.0
 11
1542.925927171
 21
490.064761936
 31
0.0
  0
LINE
  8
0
  6
CONTINUOUS
 62
     2
 10
1555.0
 20
573.5
 30
0.0
 11
1555.0
 21
485.8
 31
0.0
  0
LINE
  8
0
  6
CONTINUOUS
 62
     2
 10
1398.0
 20
452.8375
 30
0.0
 11
1410.074072829
 21
449.602261936
 31
0.0
  0
LINE
  8
0
  6
CONTINUOUS
 62
     2
 10
1398.0
 20
452.8375
 30
0.0
 11
1410.074072829
 21
456.072738064
 31
0.0
  0
LINE
  8
0
  6
CONTINUOUS
 62
     2
 10
1398.0
 20
452.8375
 30
0.0
 11
1558.0
 21
452.8375
 31
0.0
  0
LINE
  8
0
  6
CONTINUOUS
 62
     2
 10
1558.0
 20
452.8375
 30
0.0
 11
1545.925927171
 21
456.072738064
 31
0.0
  0
LINE
  8
0
  6
CONTINUOUS
 62
     2
 10
1558.0
 20
452.8375
 30
0.0
 11
1545.925927171
 21
449.602261936
 31
0.0
  0
LINE
  8
0
  6
CONTINUOUS
 62
     2
 10
1558.0
 20
624.0
 30
0.0
 11
1558.0
 21
445.3375
 31
0.0
  0
CIRCLE
  8
0
  6
CONTINUOUS
 62
     2
 10
1478.0
 20
567.0
 30
0.0
 40
10.4775
  0
CIRCLE
  8
0
  6
CONTINUOUS
 62
     2
 10
1478.0
 20
567.0
 30
0.0
 40
9.3155
  0
LINE
  8
0
  6
LTYPE3
 62
     2
 10
1497.9
 20
567.0
 30
0.0
 11
1457.2
 21
567.0
 31
0.0
  0
LINE
  8
0
  6
CONTINUOUS
 62
     1
 10
1419.0
 20
699.6
 30
0.0
 11
1419.0
 21
706.5
 31
0.0
  0
ARC
  8
0
  6
CONTINUOUS
 62
     1
 10
1431.0
 20
699.5
 30
0.0
 40
9.0
 50
0.0
 51
4.497151615
  0
ARC
  8
0
  6
CONTINUOUS
 62
     1
 10
1478.0
 20
652.5
 30
0.0
 40
55.0
 50
46.933927913
 51
47.005647371
  0
LINE
  8
0
  6
CONTINUOUS
 62
     1
 10
1523.0
 20
593.0
 30
0.0
 11
1523.0
 21
620.877223398
 31
0.0
  0
LINE
  8
0
  6
CONTINUOUS
 62
     1
 10
1419.0
 20
622.777223398
 30
0.0
 11
1419.0
 21
598.5
 31
0.0
  0
LINE
  8
0
  6
CONTINUOUS
 62
     1
 10
1433.0
 20
593.0
 30
0.0
 11
1433.0
 21
617.377223398
 31
0.0
  0
LINE
  8
0
  6
CONTINUOUS
 62
     2
 10
1565.5
 20
662.5
 30
0.0
 11
1612.0
 21
662.5
 31
0.0
  0
LINE
  8
0
  6
CONTINUOUS
 62
     2
 10
1604.5
 20
662.5
 30
0.0
 11
1601.264761936
 21
674.574072829
 31
0.0
  0
LINE
  8
0
  6
CONTINUOUS
 62
     2
 10
1604.5
 20
642.5
 30
0.0
 11
1601.264761936
 21
630.425927171
 31
0.0
  0
LINE
  8
0
  6
CONTINUOUS
 62
     2
 10
1565.5
 20
642.5
 30
0.0
 11
1612.0
 21
642.5
 31
0.0
  0
LINE
  8
0
  6
LTYPE2
 62
     2
 10
1472.4
 20
787.5
 30
0.0
 11
1484.4
 21
787.5
 31
0.0
  0
LINE
  8
0
  6
LTYPE2
 62
     2
 10
1478.0
 20
902.5
 30
0.0
 11
1478.0
 21
833.5
 31
0.0
  0
LINE
  8
0
  6
CONTINUOUS
 62
     1
 10
1508.0
 20
862.5
 30
0.0
 11
1508.0
 21
865.5
 31
0.0
  0
ARC
  8
0
  6
CONTINUOUS
 62
     1
 10
1504.0
 20
859.5
 30
0.0
 40
3.0
 50
90.0
 51
180.0
  0
LINE
  8
0
  6
CONTINUOUS
 62
     1
 10
1501.0
 20
848.653619242
 30
0.0
 11
1501.0
 21
859.5
 31
0.0
  0
ARC
  8
0
  6
CONTINUOUS
 62
     1
 10
1497.0
 20
848.653619242
 30
0.0
 40
4.0
 50
304.936144888
 51
0.0
  0
ARC
  8
0
  6
CONTINUOUS
 62
     1
 10
1452.0
 20
859.5
 30
0.0
 40
3.0
 50
0.0
 51
90.0
  0
LINE
  8
0
  6
CONTINUOUS
 62
     1
 10
1455.0
 20
848.653619242
 30
0.0
 11
1455.0
 21
859.5
 31
0.0
  0
ARC
  8
0
  6
CONTINUOUS
 62
     1
 10
1459.0
 20
848.653619242
 30
0.0
 40
4.0
 50
180.0
 51
235.063855112
  0
CIRCLE
  8
0
  6
CONTINUOUS
 62
     1
 10
1478.0
 20
887.5
 30
0.0
 40
17.0
  0
LINE
  8
0
  6
LTYPE3
 62
     2
 10
1455.0
 20
887.5
 30
0.0
 11
1501.0
 21
887.5
 31
0.0
  0
ARC
  8
0
  6
CONTINUOUS
 62
     1
 10
1436.0
 20
909.520045888
 30
0.0
 40
2.0
 50
90.0
 51
180.0
  0
ARC
  8
0
  6
CONTINUOUS
 62
     1
 10
1444.0
 20
915.5
 30
0.0
 40
2.0
 50
90.0
 51
180.0
  0
LINE
  8
0
  6
CONTINUOUS
 62
     1
 10
1444.0
 20
917.5
 30
0.0
 11
1512.0
 21
917.5
 31
0.0
  0
ARC
  8
0
  6
CONTINUOUS
 62
     1
 10
1512.0
 20
915.5
 30
0.0
 40
2.0
 50
0.0
 51
90.0
  0
LINE
  8
0
  6
CONTINUOUS
 62
     1
 10
1520.0
 20
911.520045888
 30
0.0
 11
1436.0
 21
911.520045888
 31
0.0
  0
ARC
  8
0
  6
CONTINUOUS
 62
     1
 10
1520.0
 20
909.520045888
 30
0.0
 40
2.0
 50
0.0
 51
90.0
  0
ARC
  8
0
  6
CONTINUOUS
 62
     1
 10
1436.0
 20
913.520045888
 30
0.0
 40
2.0
 50
90.0
 51
180.0
  0
ARC
  8
0
  6
CONTINUOUS
 62
     1
 10
1444.0
 20
906.5
 30
0.0
 40
2.0
 50
90.0
 51
180.0
  0
LINE
  8
0
  6
CONTINUOUS
 62
     1
 10
1444.0
 20
908.5
 30
0.0
 11
1512.0
 21
908.5
 31
0.0
  0
ARC
  8
0
  6
CONTINUOUS
 62
     1
 10
1512.0
 20
906.5
 30
0.0
 40
2.0
 50
0.0
 51
90.0
  0
LINE
  8
0
  6
CONTINUOUS
 62
     1
 10
1520.0
 20
915.520045888
 30
0.0
 11
1436.0
 21
915.520045888
 31
0.0
  0
ARC
  8
0
  6
CONTINUOUS
 62
     1
 10
1520.0
 20
913.520045888
 30
0.0
 40
2.0
 50
0.0
 51
90.0
  0
LINE
  8
0
  6
CONTINUOUS
 62
     1
 10
1448.0
 20
862.5
 30
0.0
 11
1508.0
 21
862.5
 31
0.0
  0
LINE
  8
0
  6
CONTINUOUS
 62
     1
 10
1448.0
 20
862.5
 30
0.0
 11
1448.0
 21
865.5
 31
0.0
  0
LINE
  8
0
  6
CONTINUOUS
 62
     1
 10
1514.0
 20
867.5
 30
0.0
 11
1520.0
 21
867.5
 31
0.0
  0
LINE
  8
0
  6
CONTINUOUS
 62
     1
 10
1522.0
 20
869.5
 30
0.0
 11
1522.0
 21
913.520045888
 31
0.0
  0
ARC
  8
0
  6
CONTINUOUS
 62
     1
 10
1520.0
 20
869.5
 30
0.0
 40
2.0
 50
270.0
 51
0.0
  0
LINE
  8
0
  6
CONTINUOUS
 62
     1
 10
1514.0
 20
867.5
 30
0.0
 11
1514.0
 21
906.5
 31
0.0
  0
ARC
  8
0
  6
CONTINUOUS
 62
     1
 10
1512.0
 20
867.5
 30
0.0
 40
2.0
 50
270.0
 51
0.0
  0
LINE
  8
0
  6
CONTINUOUS
 62
     1
 10
1442.0
 20
867.5
 30
0.0
 11
1442.0
 21
906.5
 31
0.0
  0
LINE
  8
0
  6
CONTINUOUS
 62
     1
 10
1444.0
 20
865.5
 30
0.0
 11
1512.0
 21
865.5
 31
0.0
  0
ARC
  8
0
  6
CONTINUOUS
 62
     1
 10
1444.0
 20
867.5
 30
0.0
 40
2.0
 50
180.0
 51
270.0
  0
LINE
  8
0
  6
CONTINUOUS
 62
     1
 10
1442.0
 20
867.5
 30
0.0
 11
1436.0
 21
867.5
 31
0.0
  0
LINE
  8
0
  6
CONTINUOUS
 62
     1
 10
1434.0
 20
869.5
 30
0.0
 11
1434.0
 21
913.520045888
 31
0.0
  0
ARC
  8
0
  6
CONTINUOUS
 62
     1
 10
1436.0
 20
869.5
 30
0.0
 40
2.0
 50
180.0
 51
270.0
  0
CIRCLE
  8
0
  6
CONTINUOUS
 62
     2
 10
1478.0
 20
887.5
 30
0.0
 40
15.0
  0
CIRCLE
  8
0
  6
CONTINUOUS
 62
     1
 10
1478.0
 20
787.5
 30
0.0
 40
63.5
  0
ARC
  8
0
  6
CONTINUOUS
 62
     1
 10
1492.987995196
 20
833.1
 30
0.0
 40
8.0
 50
200.487315115
 51
251.805127661
  0
ARC
  8
0
  6
CONTINUOUS
 62
     1
 10
1463.012004804
 20
833.1
 30
0.0
 40
8.0
 50
288.194872339
 51
339.512684885
  0
ARC
  8
0
  6
CONTINUOUS
 62
     1
 10
1478.0
 20
827.5
 30
0.0
 40
8.0
 50
20.487315115
 51
159.512540111
  0
ARC
  8
0
  6
CONTINUOUS
 62
     1
 10
1492.987995196
 20
741.9
 30
0.0
 40
8.0
 50
108.194872339
 51
159.512684885
  0
ARC
  8
0
  6
CONTINUOUS
 62
     1
 10
1463.012004804
 20
741.9
 30
0.0
 40
8.0
 50
20.487315115
 51
71.805127661
  0
ARC
  8
0
  6
CONTINUOUS
 62
     1
 10
1478.0
 20
747.5
 30
0.0
 40
8.0
 50
200.487459889
 51
339.512684885
  0
ARC
  8
0
  6
CONTINUOUS
 62
     1
 10
1478.0
 20
787.5
 30
0.0
 40
40.0
 50
108.194872339
 51
251.805127661
  0
ARC
  8
0
  6
CONTINUOUS
 62
     1
 10
1524.0
 20
787.5
 30
0.0
 40
9.0
 50
278.674045508
 51
81.325934821
  0
CIRCLE
  8
0
  6
CONTINUOUS
 62
     1
 10
1478.0
 20
787.5
 30
0.0
 40
23.0
  0
ARC
  8
0
  6
CONTINUOUS
 62
     1
 10
1478.0
 20
787.5
 30
0.0
 40
40.0
 50
25.554707728
 51
71.805142343
  0
ARC
  8
0
  6
CONTINUOUS
 62
     1
 10
1478.0
 20
787.5
 30
0.0
 40
40.0
 50
288.194857657
 51
334.445306215
  0
LINE
  8
0
  6
CONTINUOUS
 62
     2
 10
1521.0
 20
804.5
 30
0.0
 11
1521.0
 21
768.5
 31
0.0
  0
LINE
  8
0
  6
CONTINUOUS
 62
     1
 10
1522.0
 20
803.6
 30
0.0
 11
1520.0
 21
803.6
 31
0.0
  0
LINE
  8
0
  6
CONTINUOUS
 62
     1
 10
1520.0
 20
803.6
 30
0.0
 11
1518.0
 21
792.0
 31
0.0
  0
LINE
  8
0
  6
CONTINUOUS
 62
     1
 10
1522.0
 20
803.6
 30
0.0
 11
1524.0
 21
792.0
 31
0.0
  0
LINE
  8
0
  6
CONTINUOUS
 62
     1
 10
1522.0
 20
771.4
 30
0.0
 11
1520.0
 21
771.4
 31
0.0
  0
LINE
  8
0
  6
CONTINUOUS
 62
     1
 10
1520.0
 20
771.4
 30
0.0
 11
1518.0
 21
783.0
 31
0.0
  0
LINE
  8
0
  6
CONTINUOUS
 62
     1
 10
1522.0
 20
771.4
 30
0.0
 11
1524.0
 21
783.0
 31
0.0
  0
ARC
  8
0
  6
CONTINUOUS
 62
     1
 10
1527.619565217
 20
811.2254873
 30
0.0
 40
15.0
 50
205.554693785
 51
235.747997449
  0
ARC
  8
0
  6
CONTINUOUS
 62
     1
 10
1527.619565217
 20
811.2254873
 30
0.0
 40
15.0
 50
252.681090544
 51
261.325827457
  0
ARC
  8
0
  6
CONTINUOUS
 62
     1
 10
1527.619565217
 20
763.7745127
 30
0.0
 40
15.0
 50
124.468179449
 51
154.445306215
  0
ARC
  8
0
  6
CONTINUOUS
 62
     1
 10
1527.619565217
 20
763.7745127
 30
0.0
 40
15.0
 50
98.674172543
 51
107.318909456
  0
CIRCLE
  8
0
  6
CONTINUOUS
 62
     1
 10
1521.0
 20
787.5
 30
0.0
 40
3.0
  0
LINE
  8
0
  6
CONTINUOUS
 62
     1
 10
1518.021304702
 20
792.123567272
 30
0.0
 11
1517.978695298
 21
782.876432728
 31
0.0
  0
LINE
  8
0
  6
CONTINUOUS
 62
     1
 10
1524.021304702
 20
782.876432728
 30
0.0
 11
1523.978695298
 21
792.123567272
 31
0.0
  0
ARC
  8
0
  6
CONTINUOUS
 62
     1
 10
1521.0
 20
787.5
 30
0.0
 40
5.5
 50
304.570397879
 51
57.208673154
  0
ARC
  8
0
  6
CONTINUOUS
 62
     1
 10
1521.0
 20
787.5
 30
0.0
 40
5.5
 50
122.791326846
 51
235.429602121
  0
LINE
  8
0
  6
CONTINUOUS
 62
     1
 10
1480.35
 20
834.570319398
 30
0.0
 11
1475.65
 21
834.570319398
 31
0.0
  0
LINE
  8
0
  6
CONTINUOUS
 62
     1
 10
1475.65
 20
834.570319398
 30
0.0
 11
1473.3
 21
830.5
 31
0.0
  0
LINE
  8
0
  6
CONTINUOUS
 62
     1
 10
1473.3
 20
830.5
 30
0.0
 11
1475.65
 21
826.429680602
 31
0.0
  0
LINE
  8
0
  6
CONTINUOUS
 62
     1
 10
1475.65
 20
826.429680602
 30
0.0
 11
1480.35
 21
826.429680602
 31
0.0
  0
LINE
  8
0
  6
CONTINUOUS
 62
     1
 10
1480.35
 20
826.429680602
 30
0.0
 11
1482.7
 21
830.5
 31
0.0
  0
LINE
  8
0
  6
CONTINUOUS
 62
     1
 10
1482.7
 20
830.5
 30
0.0
 11
1480.35
 21
834.570319398
 31
0.0
  0
LINE
  8
0
  6
CONTINUOUS
 62
     2
 10
1484.0
 20
830.5
 30
0.0
 11
1472.0
 21
830.5
 31
0.0
  0
LINE
  8
0
  6
CONTINUOUS
 62
     1
 10
1480.35
 20
740.429680602
 30
0.0
 11
1475.65
 21
740.429680602
 31
0.0
  0
LINE
  8
0
  6
CONTINUOUS
 62
     1
 10
1475.65
 20
740.429680602
 30
0.0
 11
1473.3
 21
744.5
 31
0.0
  0
LINE
  8
0
  6
CONTINUOUS
 62
     1
 10
1473.3
 20
744.5
 30
0.0
 11
1475.65
 21
748.570319398
 31
0.0
  0
LINE
  8
0
  6
CONTINUOUS
 62
     1
 10
1475.65
 20
748.570319398
 30
0.0
 11
1480.35
 21
748.570319398
 31
0.0
  0
LINE
  8
0
  6
CONTINUOUS
 62
     1
 10
1480.35
 20
748.570319398
 30
0.0
 11
1482.7
 21
744.5
 31
0.0
  0
LINE
  8
0
  6
CONTINUOUS
 62
     1
 10
1482.7
 20
744.5
 30
0.0
 11
1480.35
 21
740.429680602
 31
0.0
  0
LINE
  8
0
  6
CONTINUOUS
 62
     2
 10
1484.0
 20
744.5
 30
0.0
 11
1472.0
 21
744.5
 31
0.0
  0
LINE
  8
0
  6
CONTINUOUS
 62
     1
 10
1473.063655198
 20
790.35
 30
0.0
 11
1473.063655198
 21
784.65
 31
0.0
  0
LINE
  8
0
  6
CONTINUOUS
 62
     1
 10
1473.063655198
 20
784.65
 30
0.0
 11
1478.0
 21
781.8
 31
0.0
  0
LINE
  8
0
  6
CONTINUOUS
 62
     1
 10
1478.0
 20
781.8
 30
0.0
 11
1482.936344802
 21
784.65
 31
0.0
  0
LINE
  8
0
  6
CONTINUOUS
 62
     1
 10
1482.936344802
 20
784.65
 30
0.0
 11
1482.936344802
 21
790.35
 31
0.0
  0
LINE
  8
0
  6
CONTINUOUS
 62
     1
 10
1482.936344802
 20
790.35
 30
0.0
 11
1478.0
 21
793.2
 31
0.0
  0
LINE
  8
0
  6
CONTINUOUS
 62
     1
 10
1478.0
 20
793.2
 30
0.0
 11
1473.063655198
 21
790.35
 31
0.0
  0
CIRCLE
  8
0
  6
CONTINUOUS
 62
     1
 10
1478.0
 20
787.5
 30
0.0
 40
6.5
  0
LINE
  8
0
  6
CONTINUOUS
 62
     1
 10
1435.788059223
 20
839.957131306
 30
0.0
 11
1428.288059223
 21
839.957131306
 31
0.0
  0
LINE
  8
0
  6
CONTINUOUS
 62
     1
 10
1428.288059223
 20
839.957131306
 30
0.0
 11
1424.538059223
 21
833.461940777
 31
0.0
  0
LINE
  8
0
  6
CONTINUOUS
 62
     1
 10
1424.538059223
 20
833.461940777
 30
0.0
 11
1428.288059223
 21
826.966750249
 31
0.0
  0
LINE
  8
0
  6
CONTINUOUS
 62
     1
 10
1437.728418262
 20
836.596330864
 30
0.0
 11
1435.788059223
 21
839.957131306
 31
0.0
  0
LINE
  8
0
  6
LTYPE1
 62
     1
 10
1435.788059223
 20
826.966750249
 30
0.0
 11
1439.538059223
 21
833.461940777
 31
0.0
  0
LINE
  8
0
  6
LTYPE1
 62
     1
 10
1439.538059223
 20
833.461940777
 30
0.0
 11
1437.728418262
 21
836.596330864
 31
0.0
  0
LINE
  8
0
  6
LTYPE1
 62
     1
 10
1428.288059223
 20
826.966750249
 30
0.0
 11
1435.788059223
 21
826.966750249
 31
0.0
  0
ARC
  8
0
  6
LTYPE3
 62
     2
 10
1478.0
 20
787.5
 30
0.0
 40
65.0
 50
125.31362776
 51
144.542425518
  0
LINE
  8
0
  6
LTYPE3
 62
     2
 10
1438.903669136
 20
826.596330864
 30
0.0
 11
1426.0
 21
839.5
 31
0.0
  0
LINE
  8
0
  6
CONTINUOUS
 62
     1
 10
1520.211940777
 20
839.957131306
 30
0.0
 11
1527.711940777
 21
839.957131306
 31
0.0
  0
LINE
  8
0
  6
CONTINUOUS
 62
     1
 10
1527.711940777
 20
839.957131306
 30
0.0
 11
1531.461940777
 21
833.461940777
 31
0.0
  0
LINE
  8
0
  6
CONTINUOUS
 62
     1
 10
1531.461940777
 20
833.461940777
 30
0.0
 11
1527.711940777
 21
826.966750249
 31
0.0
  0
LINE
  8
0
  6
CONTINUOUS
 62
     1
 10
1518.271581738
 20
836.596330864
 30
0.0
 11
1520.211940777
 21
839.957131306
 31
0.0
  0
LINE
  8
0
  6
LTYPE1
 62
     1
 10
1520.211940777
 20
826.966750249
 30
0.0
 11
1516.461940777
 21
833.461940777
 31
0.0
  0
LINE
  8
0
  6
LTYPE1
 62
     1
 10
1516.461940777
 20
833.461940777
 30
0.0
 11
1518.271581738
 21
836.596330864
 31
0.0
  0
LINE
  8
0
  6
LTYPE1
 62
     1
 10
1527.711940777
 20
826.966750249
 30
0.0
 11
1520.211940777
 21
826.966750249
 31
0.0
  0
ARC
  8
0
  6
LTYPE3
 62
     2
 10
1478.0
 20
787.5
 30
0.0
 40
65.0
 50
35.457574482
 51
54.68637224
  0
LINE
  8
0
  6
LTYPE3
 62
     2
 10
1517.096330864
 20
826.596330864
 30
0.0
 11
1530.0
 21
839.5
 31
0.0
  0
LINE
  8
0
  6
CONTINUOUS
 62
     1
 10
1435.788059223
 20
735.042868694
 30
0.0
 11
1428.288059223
 21
735.042868694
 31
0.0
  0
LINE
  8
0
  6
CONTINUOUS
 62
     1
 10
1428.288059223
 20
735.042868694
 30
0.0
 11
1424.538059223
 21
741.538059223
 31
0.0
  0
LINE
  8
0
  6
CONTINUOUS
 62
     1
 10
1424.538059223
 20
741.538059223
 30
0.0
 11
1428.288059223
 21
748.033249751
 31
0.0
  0
LINE
  8
0
  6
CONTINUOUS
 62
     1
 10
1437.728418262
 20
738.403669136
 30
0.0
 11
1435.788059223
 21
735.042868694
 31
0.0
  0
LINE
  8
0
  6
LTYPE1
 62
     1
 10
1435.788059223
 20
748.033249751
 30
0.0
 11
1439.538059223
 21
741.538059223
 31
0.0
  0
LINE
  8
0
  6
LTYPE1
 62
     1
 10
1439.538059223
 20
741.538059223
 30
0.0
 11
1437.728418262
 21
738.403669136
 31
0.0
  0
LINE
  8
0
  6
LTYPE1
 62
     1
 10
1428.288059223
 20
748.033249751
 30
0.0
 11
1435.788059223
 21
748.033249751
 31
0.0
  0
ARC
  8
0
  6
LTYPE3
 62
     2
 10
1478.0
 20
787.5
 30
0.0
 40
65.0
 50
215.457574482
 51
234.68637224
  0
LINE
  8
0
  6
LTYPE3
 62
     2
 10
1438.903669136
 20
748.403669136
 30
0.0
 11
1426.0
 21
735.5
 31
0.0
  0
LINE
  8
0
  6
CONTINUOUS
 62
     1
 10
1520.211940777
 20
735.042868694
 30
0.0
 11
1527.711940777
 21
735.042868694
 31
0.0
  0
LINE
  8
0
  6
CONTINUOUS
 62
     1
 10
1527.711940777
 20
735.042868694
 30
0.0
 11
1531.461940777
 21
741.538059223
 31
0.0
  0
LINE
  8
0
  6
CONTINUOUS
 62
     1
 10
1531.461940777
 20
741.538059223
 30
0.0
 11
1527.711940777
 21
748.033249751
 31
0.0
  0
LINE
  8
0
  6
CONTINUOUS
 62
     1
 10
1518.271581738
 20
738.403669136
 30
0.0
 11
1520.211940777
 21
735.042868694
 31
0.0
  0
LINE
  8
0
  6
LTYPE1
 62
     1
 10
1520.211940777
 20
748.033249751
 30
0.0
 11
1516.461940777
 21
741.538059223
 31
0.0
  0
LINE
  8
0
  6
LTYPE1
 62
     1
 10
1516.461940777
 20
741.538059223
 30
0.0
 11
1518.271581738
 21
738.403669136
 31
0.0
  0
LINE
  8
0
  6
LTYPE1
 62
     1
 10
1527.711940777
 20
748.033249751
 30
0.0
 11
1520.211940777
 21
748.033249751
 31
0.0
  0
ARC
  8
0
  6
LTYPE3
 62
     2
 10
1478.0
 20
787.5
 30
0.0
 40
65.0
 50
305.31362776
 51
324.542425518
  0
LINE
  8
0
  6
LTYPE3
 62
     2
 10
1517.096330864
 20
748.403669136
 30
0.0
 11
1530.0
 21
735.5
 31
0.0
  0
LINE
  8
0
  6
CONTINUOUS
 62
     1
 10
1401.0
 20
704.3
 30
0.0
 11
1401.0
 21
765.797465586
 31
0.0
  0
ARC
  8
0
  6
CONTINUOUS
 62
     1
 10
1478.0
 20
787.5
 30
0.0
 40
80.0
 50
110.364134806
 51
0.0
  0
ARC
  8
0
  6
CONTINUOUS
 62
     1
 10
1478.0
 20
787.5
 30
0.0
 40
80.0
 50
0.0
 51
69.635865194
  0
ARC
  8
0
  6
LTYPE1
 62
     1
 10
1478.0
 20
787.5
 30
0.0
 40
80.0
 50
69.635865194
 51
110.364134806
  0
LINE
  8
0
  6
CONTINUOUS
 62
     1
 10
1453.020008006
 20
711.5
 30
0.0
 11
1424.0
 21
711.5
 31
0.0
  0
LINE
  8
0
  6
CONTINUOUS
 62
     1
 10
1501.020008006
 20
711.5
 30
0.0
 11
1532.0
 21
711.5
 31
0.0
  0
LINE
  8
0
  6
CONTINUOUS
 62
     2
 10
1515.122218677
 20
917.5
 30
0.0
 11
1634.372218677
 21
917.5
 31
0.0
  0
LINE
  8
0
  6
CONTINUOUS
 62
     1
 10
1555.0
 20
673.860720927
 30
0.0
 11
1555.0
 21
765.797465586
 31
0.0
  0
LINE
  8
0
  6
CONTINUOUS
 62
     1
 10
1398.0
 20
631.5
 30
0.0
 11
1398.0
 21
673.5
 31
0.0
  0
LINE
  8
0
  6
CONTINUOUS
 62
     1
 10
1401.0
 20
674.5
 30
0.0
 11
1401.0
 21
765.797465586
 31
0.0
  0
LINE
  8
0
  6
CONTINUOUS
 62
     2
 10
1398.0
 20
628.5
 30
0.0
 11
1398.0
 21
445.3375
 31
0.0
  0
LINE
  8
0
  6
CONTINUOUS
 62
     1
 10
1419.0
 20
676.025046491
 30
0.0
 11
1419.0
 21
699.6
 31
0.0
  0
CIRCLE
  8
0
  6
CONTINUOUS
 62
     1
 10
1431.000030518
 20
699.5
 30
0.0
 40
9.0
  0
LINE
  8
0
  6
LTYPE4
 62
     2
 10
1587.0
 20
652.5
 30
0.0
 11
1389.5
 21
652.5
 31
0.0
  0
ARC
  8
0
  6
CONTINUOUS
 62
     1
 10
1478.0
 20
652.5
 30
0.0
 40
35.0
 50
45.584691403
 51
134.415308597
  0
ARC
  8
0
  6
CONTINUOUS
 62
     1
 10
1478.0
 20
652.5
 30
0.0
 40
35.0
 50
225.584691403
 51
314.415308597
  0
LINE
  8
0
  6
CONTINUOUS
 62
     1
 10
1398.0
 20
631.5
 30
0.0
 11
1430.494897428
 21
627.592803489
 31
0.0
  0
LINE
  8
0
  6
CONTINUOUS
 62
     1
 10
1398.0
 20
673.5
 30
0.0
 11
1430.994897428
 21
677.467316665
 31
0.0
  0
LINE
  8
0
  6
CONTINUOUS
 62
     1
 10
1558.0
 20
673.5
 30
0.0
 11
1525.994897428
 21
677.348303426
 31
0.0
  0
LINE
  8
0
  6
CONTINUOUS
 62
     1
 10
1558.0
 20
631.5
 30
0.0
 11
1526.494897428
 21
627.711816729
 31
0.0
  0
TEXT
  8
0
  6
CONTINUOUS
 62
     2
 10
1456.25
 20
498.3
 30
0.0
 40
18.0
  1
１５４
 50
0.0
 41
0.9
 51
0.0
  7
KANJI28
  0
TEXT
  8
0
  6
CONTINUOUS
 62
     2
 10
1456.25
 20
457.8375
 30
0.0
 40
18.0
  1
１６０
 50
0.0
 41
0.9
 51
0.0
  7
KANJI28
  0
TEXT
  8
0
  6
CONTINUOUS
 62
     2
 10
1599.222218677
 20
668.25
 30
0.0
 40
18.0
  1
φ２０Ｈ１０深さ２５
 50
90.0
 41
0.9
 51
0.0
  7
KANJI28
  0
LINE
  8
0
  6
LTYPE2
 62
     2
 10
1478.0
 20
922.5
 30
0.0
 11
1478.0
 21
523.6
 31
0.0
  0
LINE
  8
0
  6
CONTINUOUS
 62
     1
 10
1438.3
 20
541.5
 30
0.0
 11
1427.7
 21
541.5
 31
0.0
  0
ARC
  8
0
  6
CONTINUOUS
 62
     1
 10
1433.4
 20
542.5
 30
0.0
 40
5.0
 50
272.3
 51
348.5
  0
ARC
  8
0
  6
CONTINUOUS
 62
     1
 10
1432.6
 20
542.5
 30
0.0
 40
5.0
 50
191.5
 51
267.7
  0
LINE
  8
0
  6
CONTINUOUS
 62
     1
 10
1433.6
 20
537.5
 30
0.0
 11
1432.4
 21
537.5
 31
0.0
  0
LINE
  8
0
  6
LTYPE5
 62
     2
 10
1433.0
 20
534.1
 30
0.0
 11
1433.0
 21
547.5
 31
0.0
  0
LINE
  8
0
  6
CONTINUOUS
 62
     1
 10
1528.3
 20
541.5
 30
0.0
 11
1517.7
 21
541.5
 31
0.0
  0
ARC
  8
0
  6
CONTINUOUS
 62
     1
 10
1523.4
 20
542.5
 30
0.0
 40
5.0
 50
272.3
 51
348.5
  0
ARC
  8
0
  6
CONTINUOUS
 62
     1
 10
1522.6
 20
542.5
 30
0.0
 40
5.0
 50
191.5
 51
267.7
  0
LINE
  8
0
  6
CONTINUOUS
 62
     1
 10
1523.6
 20
537.5
 30
0.0
 11
1522.4
 21
537.5
 31
0.0
  0
LINE
  8
0
  6
LTYPE5
 62
     2
 10
1523.0
 20
534.1
 30
0.0
 11
1523.0
 21
547.5
 31
0.0
  0
LINE
  8
0
  6
CONTINUOUS
 62
     1
 10
1481.5
 20
700.3
 30
0.0
 11
1474.5
 21
700.3
 31
0.0
  0
LINE
  8
0
  6
CONTINUOUS
 62
     1
 10
1474.5
 20
705.384307691
 30
0.0
 11
1474.5
 21
700.3
 31
0.0
  0
ARC
  8
0
  6
CONTINUOUS
 62
     1
 10
1478.0
 20
652.5
 30
0.0
 40
53.0
 50
93.78643906
 51
206.21356094
  0
LINE
  8
0
  6
CONTINUOUS
 62
     1
 10
1481.5
 20
705.384307691
 30
0.0
 11
1481.5
 21
700.3
 31
0.0
  0
ARC
  8
0
  6
CONTINUOUS
 62
     1
 10
1478.0
 20
652.5
 30
0.0
 40
53.0
 50
333.78643906
 51
86.21356094
  0
LINE
  8
0
  6
CONTINUOUS
 62
     1
 10
1517.646014301
 20
625.568911087
 30
0.0
 11
1521.146014301
 21
631.631088913
 31
0.0
  0
LINE
  8
0
  6
CONTINUOUS
 62
     1
 10
1522.049153922
 20
623.026757241
 30
0.0
 11
1517.646014301
 21
625.568911087
 31
0.0
  0
LINE
  8
0
  6
CONTINUOUS
 62
     1
 10
1525.549153922
 20
629.088935068
 30
0.0
 11
1521.146014301
 21
631.631088913
 31
0.0
  0
ARC
  8
0
  6
CONTINUOUS
 62
     1
 10
1478.0
 20
652.5
 30
0.0
 40
53.0
 50
213.78643906
 51
326.21356094
  0
LINE
  8
0
  6
CONTINUOUS
 62
     1
 10
1434.853985699
 20
631.631088913
 30
0.0
 11
1438.353985699
 21
625.568911087
 31
0.0
  0
LINE
  8
0
  6
CONTINUOUS
 62
     1
 10
1430.450846078
 20
629.088935068
 30
0.0
 11
1434.853985699
 21
631.631088913
 31
0.0
  0
LINE
  8
0
  6
CONTINUOUS
 62
     1
 10
1433.950846078
 20
623.026757241
 30
0.0
 11
1438.353985699
 21
625.568911087
 31
0.0
  0
LINE
  8
0
  6
CONTINUOUS
 62
     2
 10
1634.372218677
 20
541.5
 30
0.0
 11
1685.122218677
 21
541.5
 31
0.0
  0
LINE
  8
0
  6
CONTINUOUS
 62
     2
 10
1677.622218677
 20
541.5
 30
0.0
 11
1680.85745674
 21
553.574072829
 31
0.0
  0
LINE
  8
0
  6
CONTINUOUS
 62
     2
 10
1677.622218677
 20
541.5
 30
0.0
 11
1674.386980613
 21
553.574072829
 31
0.0
  0
LINE
  8
0
  6
CONTINUOUS
 62
     2
 10
1604.5
 20
652.5
 30
0.0
 11
1649.372218677
 21
652.5
 31
0.0
  0
LINE
  8
0
  6
CONTINUOUS
 62
     2
 10
1641.872218677
 20
652.5
 30
0.0
 11
1638.636980613
 21
640.425927171
 31
0.0
  0
LINE
  8
0
  6
CONTINUOUS
 62
     2
 10
1641.872218677
 20
652.5
 30
0.0
 11
1645.10745674
 21
640.425927171
 31
0.0
  0
LINE
  8
0
  6
CONTINUOUS
 62
     2
 10
1641.872218677
 20
652.5
 30
0.0
 11
1641.872218677
 21
541.5
 31
0.0
  0
LINE
  8
0
  6
CONTINUOUS
 62
     2
 10
1641.872218677
 20
541.5
 30
0.0
 11
1645.10745674
 21
553.574072829
 31
0.0
  0
LINE
  8
0
  6
CONTINUOUS
 62
     2
 10
1641.872218677
 20
541.5
 30
0.0
 11
1638.636980613
 21
553.574072829
 31
0.0
  0
LINE
  8
0
  6
CONTINUOUS
 62
     2
 10
1641.872218677
 20
652.5
 30
0.0
 11
1645.10745674
 21
664.574072829
 31
0.0
  0
LINE
  8
0
  6
CONTINUOUS
 62
     2
 10
1641.872218677
 20
652.5
 30
0.0
 11
1638.636980613
 21
664.574072829
 31
0.0
  0
LINE
  8
0
  6
CONTINUOUS
 62
     2
 10
1604.5
 20
662.5
 30
0.0
 11
1607.735238064
 21
674.574072829
 31
0.0
  0
LINE
  8
0
  6
CONTINUOUS
 62
     2
 10
1604.5
 20
642.5
 30
0.0
 11
1607.735238064
 21
630.425927171
 31
0.0
  0
LINE
  8
0
  6
CONTINUOUS
 62
     2
 10
1641.872218677
 20
787.5
 30
0.0
 11
1638.636980613
 21
775.425927171
 31
0.0
  0
LINE
  8
0
  6
CONTINUOUS
 62
     2
 10
1641.872218677
 20
787.5
 30
0.0
 11
1645.10745674
 21
775.425927171
 31
0.0
  0
LINE
  8
0
  6
CONTINUOUS
 62
     2
 10
1621.0
 20
787.5
 30
0.0
 11
1649.372218677
 21
787.5
 31
0.0
  0
LINE
  8
0
  6
CONTINUOUS
 62
     2
 10
1641.872218677
 20
787.5
 30
0.0
 11
1645.10745674
 21
799.574072829
 31
0.0
  0
LINE
  8
0
  6
CONTINUOUS
 62
     2
 10
1641.872218677
 20
787.5
 30
0.0
 11
1638.636980613
 21
799.574072829
 31
0.0
  0
LINE
  8
0
  6
LTYPE4
 62
     2
 10
1609.872218677
 20
787.5
 30
0.0
 11
1643.0
 21
787.5
 31
0.0
  0
LINE
  8
0
  6
CONTINUOUS
 62
     2
 10
1641.872218677
 20
652.5
 30
0.0
 11
1641.872218677
 21
787.5
 31
0.0
  0
LINE
  8
0
  6
CONTINUOUS
 62
     2
 10
1677.622218677
 20
917.5
 30
0.0
 11
1674.386980613
 21
905.425927171
 31
0.0
  0
LINE
  8
0
  6
CONTINUOUS
 62
     2
 10
1677.622218677
 20
917.5
 30
0.0
 11
1680.85745674
 21
905.425927171
 31
0.0
  0
LINE
  8
0
  6
CONTINUOUS
 62
     2
 10
1634.372218677
 20
917.5
 30
0.0
 11
1685.122218677
 21
917.5
 31
0.0
  0
LINE
  8
0
  6
CONTINUOUS
 62
     2
 10
1641.872218677
 20
917.5
 30
0.0
 11
1638.636980613
 21
905.425927171
 31
0.0
  0
LINE
  8
0
  6
CONTINUOUS
 62
     2
 10
1641.872218677
 20
917.5
 30
0.0
 11
1645.10745674
 21
905.425927171
 31
0.0
  0
LINE
  8
0
  6
CONTINUOUS
 62
     2
 10
1641.872218677
 20
787.5
 30
0.0
 11
1641.872218677
 21
917.5
 31
0.0
  0
LINE
  8
0
  6
CONTINUOUS
 62
     2
 10
1677.622218677
 20
541.5
 30
0.0
 11
1677.622218677
 21
917.5
 31
0.0
  0
TEXT
  8
0
  6
CONTINUOUS
 62
     2
 10
1636.872218677
 20
575.25
 30
0.0
 40
18.0
  1
１１１
 50
90.0
 41
0.9
 51
0.0
  7
KANJI28
  0
TEXT
  8
0
  6
CONTINUOUS
 62
     2
 10
1636.872218677
 20
708.75
 30
0.0
 40
18.0
  1
１３５
 50
90.0
 41
0.9
 51
0.0
  7
KANJI28
  0
TEXT
  8
0
  6
CONTINUOUS
 62
     2
 10
1636.872218677
 20
833.85
 30
0.0
 40
18.0
  1
１３０
 50
90.0
 41
0.9
 51
0.0
  7
KANJI28
  0
TEXT
  8
0
  6
CONTINUOUS
 62
     2
 10
1672.622218677
 20
720.35
 30
0.0
 40
18.0
  1
３７６
 50
90.0
 41
0.9
 51
0.0
  7
KANJI28
  0
LINE
  8
0
  6
CONTINUOUS
 62
     2
 10
1604.5
 20
825.0
 30
0.0
 11
1604.5
 21
623.75
 31
0.0
  0
TEXT
  8
0
  6
CONTINUOUS
 62
     2
 10
1786.92
 20
675.9
 30
12.0
 40
24.0
  1
特記事項
 50
0.0
 41
0.9
 51
0.0
  7
KANJI36
  0
TEXT
  8
0
  6
CONTINUOUS
 62
     2
 10
1702.92
 20
627.9
 30
6.171428571
 40
21.6
  1
１。運転時は必ずピストンロッドの回転防止を行って下さい。
 50
0.0
 41
0.857142857
 51
0.0
  7
KANJI37
  0
TEXT
  8
0
  6
CONTINUOUS
 62
     2
 10
1702.92
 20
587.1
 30
6.156
 40
21.6
  1
２。モートル：全閉自冷かご形３０分定格
 50
0.0
 41
0.857222222
 51
0.0
  7
KANJI38
  0
TEXT
  8
0
  6
CONTINUOUS
 62
     2
 10
1702.5199098
 20
546.3000036
 30
6.156
 40
21.6
  1
３。呼称ストロークは、機械的ストロークです。
 50
0.0
 41
0.857222222
 51
0.0
  7
KANJI38
  0
TEXT
  8
0
  6
CONTINUOUS
 62
     2
 10
1702.5199098
 20
511.8000036
 30
6.156
 40
21.6
  1
　　必ず、常用はストローク両端に余裕を取って下さい。
 50
0.0
 41
0.857222222
 51
0.0
  7
KANJI38
  0
LINE
  8
0
  6
CONTINUOUS
 62
     2
 10
1770.12
 20
669.3
 30
0.0
 11
1916.52
 21
669.3
 31
0.0
  0
TEXT
  8
0
  6
CONTINUOUS
 62
     2
 10
576.712591263
 20
309.671507451
 30
0.0
 40
20.0
  1
推力リミッタの作動値は、約１２００ｋｇ（設計値）
 50
0.0
 41
0.925
 51
0.0
  7
KANJI35
  0
LINE
  8
0
  6
CONTINUOUS
 62
     2
 10
574.712591263
 20
301.671507451
 30
0.0
 11
1007.0
 21
301.671507451
 31
0.0
  0
TEXT
  8
0
  6
CONTINUOUS
 62
     2
 10
1703.4319098
 20
472.1520036
 30
6.156
 40
21.6
  1
　　前後の推奨余裕寸法は、各々１５ｍｍです。
 50
0.0
 41
0.857222222
 51
0.0
  7
KANJI38
  0
LINE
  8
0
  6
CONTINUOUS
 62
     6
 10
356.629425053
 20
1631.447759827
 30
0.0
 11
124.584646507
 21
1631.447759827
 31
0.0
  0
LINE
  8
0
  6
CONTINUOUS
 62
     3
 10
356.629425053
 20
1603.985259827
 30
0.0
 11
124.584646507
 21
1603.985259827
 31
0.0
  0
LINE
  8
0
  6
CONTINUOUS
 62
     6
 10
356.629425053
 20
1603.985259827
 30
0.0
 11
124.584646507
 21
1603.985259827
 31
0.0
  0
TEXT
  8
0
  6
CONTINUOUS
 62
     6
 10
382.212228
 20
1628.900410728
 30
1.232517
 40
13.182
  1
電気定格　　　
 50
0.0
 41
0.85
 51
0.0
  7
KANJI39
  0
TEXT
  8
0
  6
CONTINUOUS
 62
     6
 10
128.493517202
 20
1634.64592676
 30
1.0647
 40
11.661
  1
ＬＳ０１　　　：推力リミッタ（前進時過負荷用）
 50
0.0
 41
0.822608696
 51
0.0
  7
KANJI40
  0
TEXT
  8
0
  6
CONTINUOUS
 62
     6
 10
128.493517202
 20
1607.18342676
 30
1.0647
 40
11.661
  1
ＬＳ０２　　　：推力リミッタ（後進時過負荷用）
 50
0.0
 41
0.822608696
 51
0.0
  7
KANJI40
  0
TEXT
  8
0
  6
CONTINUOUS
 62
     6
 10
395.013715102
 20
1598.326958599
 30
0.0
 40
11.8638
  1
ＤＣ１２５Ｖ　０．６Ａ　，ＤＣ２５０Ｖ　０．３Ａ　
 50
0.0
 41
0.726495726
 51
0.0
  7
KANJI41
  0
LINE
  8
0
  6
LTYPE3
 62
     6
 10
655.02
 20
1658.9
 30
0.0
 11
106.62
 21
1658.9
 31
0.0
  0
TEXT
  8
0
  6
CONTINUOUS
 62
     6
 10
389.757132178
 20
1646.661726126
 30
0.0
 40
45.0
  1
｝
 50
0.0
 41
0.538166667
 51
0.0
  7
KANJI42
  0
TEXT
  8
0
  6
CONTINUOUS
 62
     6
 10
319.632791539
 20
1417.92382165
 30
0.0
 40
17.740702234
  1
端子台　接続図
 50
0.0
 41
0.880962996
 51
0.0
  7
KANJI43
  0
LINE
  8
0
  6
LTYPE3
 62
     6
 10
655.02
 20
1399.9
 30
0.0
 11
655.02
 21
1658.9
 31
0.0
  0
LINE
  8
0
  6
LTYPE3
 62
     6
 10
106.62
 20
1399.9
 30
0.0
 11
655.02
 21
1399.9
 31
0.0
  0
LINE
  8
0
  6
LTYPE3
 62
     6
 10
106.62
 20
1658.9
 30
0.0
 11
106.62
 21
1399.9
 31
0.0
  0
LINE
  8
0
  6
CONTINUOUS
 62
     2
 10
354.597373465
 20
1468.928121884
 30
0.0
 11
354.597373465
 21
1446.149155128
 31
0.0
  0
LINE
  8
0
  6
CONTINUOUS
 62
     2
 10
381.17283468
 20
1468.928121884
 30
0.0
 11
381.17283468
 21
1446.149155128
 31
0.0
  0
LINE
  8
0
  6
CONTINUOUS
 62
     2
 10
407.748295894
 20
1468.928121884
 30
0.0
 11
407.748295894
 21
1446.149155128
 31
0.0
  0
LINE
  8
0
  6
CONTINUOUS
 62
     2
 10
434.323757109
 20
1468.928121884
 30
0.0
 11
434.323757109
 21
1446.149155128
 31
0.0
  0
CIRCLE
  8
0
  6
CONTINUOUS
 62
     6
 10
426.404269667
 20
1492.407921517
 30
0.0
 40
4.100214016
  0
LINE
  8
0
  6
CONTINUOUS
 62
     6
 10
422.304055651
 20
1492.407921517
 30
0.0
 11
421.036026502
 21
1492.407921517
 31
0.0
  0
LINE
  8
0
  6
CONTINUOUS
 62
     6
 10
447.358027433
 20
1506.094562742
 30
0.0
 11
443.443558096
 21
1483.759507138
 31
0.0
  0
LINE
  8
0
  6
CONTINUOUS
 62
     6
 10
442.631699663
 20
1506.882284037
 30
0.0
 11
438.716922494
 21
1484.547279739
 31
0.0
  0
LINE
  8
0
  6
CONTINUOUS
 62
     6
 10
443.443558096
 20
1483.759507138
 30
0.0
 11
438.716922494
 21
1484.547279739
 31
0.0
  0
CIRCLE
  8
0
  6
CONTINUOUS
 62
     6
 10
447.611487717
 20
1482.939464335
 30
0.0
 40
4.100214016
  0
LINE
  8
0
  6
CONTINUOUS
 62
     6
 10
447.611487717
 20
1478.839250319
 30
0.0
 11
447.611487717
 21
1468.928121884
 31
0.0
  0
LINE
  8
0
  6
CONTINUOUS
 62
     6
 10
421.036026502
 20
1492.407921517
 30
0.0
 11
421.036026502
 21
1468.928121884
 31
0.0
  0
LINE
  8
0
  6
CONTINUOUS
 62
     6
 10
394.460565287
 20
1468.928121884
 30
0.0
 11
394.460565287
 21
1522.633332504
 31
0.0
  0
LINE
  8
0
  6
CONTINUOUS
 62
     6
 10
314.987641926
 20
1506.094562742
 30
0.0
 11
318.902111263
 21
1483.759507138
 31
0.0
  0
LINE
  8
0
  6
CONTINUOUS
 62
     6
 10
319.713969696
 20
1506.882284037
 30
0.0
 11
323.628746865
 21
1484.547279739
 31
0.0
  0
LINE
  8
0
  6
CONTINUOUS
 62
     6
 10
318.902111263
 20
1483.759507138
 30
0.0
 11
323.628746865
 21
1484.547279739
 31
0.0
  0
CIRCLE
  8
0
  6
CONTINUOUS
 62
     6
 10
314.734181642
 20
1482.939464335
 30
0.0
 40
4.100214016
  0
CIRCLE
  8
0
  6
CONTINUOUS
 62
     6
 10
335.941399692
 20
1492.407921517
 30
0.0
 40
4.100214016
  0
LINE
  8
0
  6
CONTINUOUS
 62
     6
 10
340.041613708
 20
1492.407921517
 30
0.0
 11
341.309642857
 21
1492.407921517
 31
0.0
  0
LINE
  8
0
  6
CONTINUOUS
 62
     6
 10
314.734181642
 20
1478.839250319
 30
0.0
 11
314.734181642
 21
1468.928121884
 31
0.0
  0
LINE
  8
0
  6
CONTINUOUS
 62
     6
 10
341.309642857
 20
1492.407921517
 30
0.0
 11
341.309642857
 21
1468.928121884
 31
0.0
  0
LINE
  8
0
  6
CONTINUOUS
 62
     6
 10
367.885104072
 20
1468.928121884
 30
0.0
 11
367.885104072
 21
1522.633332504
 31
0.0
  0
LINE
  8
0
  6
CONTINUOUS
 62
     2
 10
460.899218324
 20
1468.928121884
 30
0.0
 11
460.899218324
 21
1446.149155128
 31
0.0
  0
LINE
  8
0
  6
CONTINUOUS
 62
     2
 10
301.446451035
 20
1468.928121884
 30
0.0
 11
301.446451035
 21
1446.149155128
 31
0.0
  0
LINE
  8
0
  6
CONTINUOUS
 62
     2
 10
328.02191225
 20
1468.928121884
 30
0.0
 11
328.02191225
 21
1446.149155128
 31
0.0
  0
LINE
  8
0
  6
CONTINUOUS
 62
     6
 10
447.611487717
 20
1522.633332504
 30
0.0
 11
394.460565287
 21
1522.633332504
 31
0.0
  0
CIRCLE
  8
0
  6
CONTINUOUS
 62
     6
 10
447.611487717
 20
1510.28941042
 30
0.0
 40
4.100214016
  0
LINE
  8
0
  6
CONTINUOUS
 62
     6
 10
447.358027433
 20
1506.094562742
 30
0.0
 11
442.631699663
 21
1506.882284037
 31
0.0
  0
LINE
  8
0
  6
CONTINUOUS
 62
     6
 10
447.611487717
 20
1514.389624436
 30
0.0
 11
447.611487717
 21
1522.633332504
 31
0.0
  0
CIRCLE
  8
0
  6
CONTINUOUS
 62
     6
 10
314.734181642
 20
1510.28941042
 30
0.0
 40
4.100214016
  0
LINE
  8
0
  6
CONTINUOUS
 62
     6
 10
314.987641926
 20
1506.094562742
 30
0.0
 11
319.713969696
 21
1506.882284037
 31
0.0
  0
LINE
  8
0
  6
CONTINUOUS
 62
     6
 10
314.734181642
 20
1514.389624436
 30
0.0
 11
314.734181642
 21
1522.633332504
 31
0.0
  0
LINE
  8
0
  6
CONTINUOUS
 62
     6
 10
367.885104072
 20
1522.633332504
 30
0.0
 11
314.734181642
 21
1522.633332504
 31
0.0
  0
TEXT
  8
0
  6
CONTINUOUS
 62
     6
 10
319.4972152
 20
1527.152473273
 30
0.819
 40
11.7
  1
ＬＳ０１
 50
0.0
 41
0.8
 51
0.0
  7
KANJI44
  0
TEXT
  8
0
  6
CONTINUOUS
 62
     6
 10
402.117398844
 20
1527.152473273
 30
0.819
 40
11.7
  1
ＬＳ０２
 50
0.0
 41
0.8
 51
0.0
  7
KANJI44
  0
TEXT
  8
0
  6
CONTINUOUS
 62
     3
 10
147.308775989
 20
1449.945649587
 30
0.0
 40
15.0
  1
　　　　　　　　　　　　　　　　　　１　　２　　　３　　　４　　　５　　　６
 50
0.0
 41
0.911
 51
0.0
  7
KANJI45
  0
LINE
  8
0
  6
CONTINUOUS
 62
     2
 10
301.446451035
 20
1468.928121884
 30
0.0
 11
460.899218324
 21
1468.928121884
 31
0.0
  0
LINE
  8
0
  6
CONTINUOUS
 62
     2
 10
301.446451035
 20
1446.149155128
 30
0.0
 11
460.899218324
 21
1446.149155128
 31
0.0
  0
TEXT
  8
0
  6
CONTINUOUS
 62
     6
 10
293.132791539
 20
1556.92382165
 30
0.0
 40
17.740702234
  1
推力リミッタ端子台配列
 50
0.0
 41
0.880962996
 51
0.0
  7
KANJI43
  0
TEXT
  8
0
  6
CONTINUOUS
 62
     6
 10
395.013715102
 20
1614.071931782
 30
0.0
 40
11.8638
  1
ＡＣ１００Ｖ　１２５Ｖ　２５０Ｖ　－１０Ａ
 50
0.0
 41
0.726495726
 51
0.0
  7
KANJI41
  0
ARC
  8
0
  6
CONTINUOUS
 62
     2
 10
362.0
 20
788.0
 30
0.0
 40
20.0
 50
231.952957468
 51
156.801409486
  0
LINE
  8
0
  6
CONTINUOUS
 62
     2
 10
343.6170994
 20
795.878385972
 30
0.0
 11
345.91179211
 21
805.715824749
 31
0.0
  0
TEXT
  8
0
  6
CONTINUOUS
 62
     2
 10
281.6170994
 20
778.878385972
 30
0.0
 40
15.0
  1
前進方向
 50
0.0
 41
0.9
 51
0.0
  7
KANJI34
  0
LINE
  8
0
  6
CONTINUOUS
 62
     2
 10
343.6170994
 20
795.878385972
 30
0.0
 11
351.885260778
 21
800.785722507
 31
0.0
  0
TEXT
  8
0
  6
CONTINUOUS
 62
     2
 10
475.5
 20
716.5
 30
5.0
 40
20.0
  1
銘板
 50
270.0
 41
0.925
 51
0.0
  7
KANJI46
  0
LINE
  8
0
  6
CONTINUOUS
 62
     1
 10
513.5
 20
727.5
 30
0.0
 11
470.5
 21
727.5
 31
0.0
  0
LINE
  8
0
  6
CONTINUOUS
 62
     1
 10
513.5
 20
727.5
 30
0.0
 11
513.5
 21
657.5
 31
0.0
  0
LINE
  8
0
  6
CONTINUOUS
 62
     1
 10
470.5
 20
727.5
 30
0.0
 11
470.5
 21
657.5
 31
0.0
  0
LINE
  8
0
  6
CONTINUOUS
 62
     1
 10
513.5
 20
657.5
 30
0.0
 11
470.5
 21
657.5
 31
0.0
  0
TEXT
  8
0
  6
CONTINUOUS
 62
     3
 10
309.466667
 20
882.766683
 30
1.5
 40
15.0
  1
手動軸□８
 50
0.0
 41
0.9
 51
0.0
  7
KANJI47
  0
LINE
  8
0
  6
CONTINUOUS
 62
     2
 10
1014.12
 20
1424.04
 30
0.0
 11
1791.72
 21
1424.04
 31
0.0
  0
LINE
  8
0
  6
CONTINUOUS
 62
     2
 10
1014.12
 20
1390.44
 30
0.0
 11
1791.72
 21
1390.44
 31
0.0
  0
TEXT
  8
0
  6
CONTINUOUS
 62
     2
 10
1237.32
 20
1432.08
 30
1.44
 40
14.4
  1
　２００
 50
0.0
 41
0.9
 51
0.0
  7
KANJI17
  0
TEXT
  8
0
  6
CONTINUOUS
 62
     2
 10
1237.32
 20
1398.48
 30
1.44
 40
14.4
  1
　３００
 50
0.0
 41
0.9
 51
0.0
  7
KANJI17
  0
TEXT
  8
0
  6
CONTINUOUS
 62
     2
 10
1237.32
 20
1264.08
 30
1.44
 40
14.4
  1
　７００
 50
0.0
 41
0.9
 51
0.0
  7
KANJI17
  0
LINE
  8
0
  6
CONTINUOUS
 62
     2
 10
1014.12
 20
1222.44
 30
0.0
 11
1791.72
 21
1222.44
 31
0.0
  0
LINE
  8
0
  6
CONTINUOUS
 62
     2
 10
1014.12
 20
1323.24
 30
0.0
 11
1791.72
 21
1323.24
 31
0.0
  0
LINE
  8
0
  6
CONTINUOUS
 62
     2
 10
1014.12
 20
1356.84
 30
0.0
 11
1791.72
 21
1356.84
 31
0.0
  0
LINE
  8
0
  6
CONTINUOUS
 62
     2
 10
1014.12
 20
1256.04
 30
0.0
 11
1791.72
 21
1256.04
 31
0.0
  0
LINE
  8
0
  6
CONTINUOUS
 62
     2
 10
1014.12
 20
1289.64
 30
0.0
 11
1791.72
 21
1289.64
 31
0.0
  0
TEXT
  8
0
  6
CONTINUOUS
 62
     2
 10
1237.32
 20
1331.28
 30
1.44
 40
14.4
  1
　５００
 50
0.0
 41
0.9
 51
0.0
  7
KANJI17
  0
TEXT
  8
0
  6
CONTINUOUS
 62
     2
 10
1237.32
 20
1364.88
 30
1.44
 40
14.4
  1
　４００
 50
0.0
 41
0.9
 51
0.0
  7
KANJI17
  0
TEXT
  8
0
  6
CONTINUOUS
 62
     2
 10
1237.32
 20
1297.68
 30
1.44
 40
14.4
  1
　６００
 50
0.0
 41
0.9
 51
0.0
  7
KANJI17
  0
TEXT
  8
0
  6
CONTINUOUS
 62
     2
 10
1237.32
 20
1230.48
 30
1.44
 40
14.4
  1
　８００
 50
0.0
 41
0.9
 51
0.0
  7
KANJI17
  0
TEXT
  8
0
  6
CONTINUOUS
 62
     2
 10
1621.32
 20
1432.08
 30
1.44
 40
14.4
  1
　　４５
 50
0.0
 41
0.9
 51
0.0
  7
KANJI17
  0
TEXT
  8
0
  6
CONTINUOUS
 62
     2
 10
1621.32
 20
1398.48
 30
1.44
 40
14.4
  1
　　４５
 50
0.0
 41
0.9
 51
0.0
  7
KANJI17
  0
TEXT
  8
0
  6
CONTINUOUS
 62
     2
 10
1621.32
 20
1364.88
 30
1.44
 40
14.4
  1
　　４５
 50
0.0
 41
0.9
 51
0.0
  7
KANJI17
  0
TEXT
  8
0
  6
CONTINUOUS
 62
     2
 10
1621.32
 20
1331.28
 30
1.44
 40
14.4
  1
　　４５
 50
0.0
 41
0.9
 51
0.0
  7
KANJI17
  0
TEXT
  8
0
  6
CONTINUOUS
 62
     2
 10
1621.32
 20
1297.68
 30
1.44
 40
14.4
  1
　　４５
 50
0.0
 41
0.9
 51
0.0
  7
KANJI17
  0
TEXT
  8
0
  6
CONTINUOUS
 62
     2
 10
1621.32
 20
1264.08
 30
1.44
 40
14.4
  1
　　４５
 50
0.0
 41
0.9
 51
0.0
  7
KANJI17
  0
TEXT
  8
0
  6
CONTINUOUS
 62
     2
 10
1621.32
 20
1230.48
 30
1.44
 40
14.4
  1
　　４５
 50
0.0
 41
0.9
 51
0.0
  7
KANJI17
  0
TEXT
  8
0
  6
CONTINUOUS
 62
     2
 10
1525.32
 20
1432.08
 30
1.44
 40
14.4
  1
　３７８
 50
0.0
 41
0.9
 51
0.0
  7
KANJI17
  0
TEXT
  8
0
  6
CONTINUOUS
 62
     2
 10
1525.32
 20
1398.48
 30
1.44
 40
14.4
  1
　４７８
 50
0.0
 41
0.9
 51
0.0
  7
KANJI17
  0
TEXT
  8
0
  6
CONTINUOUS
 62
     2
 10
1525.32
 20
1364.88
 30
1.44
 40
14.4
  1
　５７８
 50
0.0
 41
0.9
 51
0.0
  7
KANJI17
  0
TEXT
  8
0
  6
CONTINUOUS
 62
     2
 10
1525.32
 20
1331.28
 30
1.44
 40
14.4
  1
　６７８
 50
0.0
 41
0.9
 51
0.0
  7
KANJI17
  0
TEXT
  8
0
  6
CONTINUOUS
 62
     2
 10
1525.32
 20
1297.68
 30
1.44
 40
14.4
  1
　８１８
 50
0.0
 41
0.9
 51
0.0
  7
KANJI17
  0
TEXT
  8
0
  6
CONTINUOUS
 62
     2
 10
1525.32
 20
1264.08
 30
1.44
 40
14.4
  1
　９１８
 50
0.0
 41
0.9
 51
0.0
  7
KANJI17
  0
TEXT
  8
0
  6
CONTINUOUS
 62
     2
 10
1525.32
 20
1230.48
 30
1.44
 40
14.4
  1
１０１８
 50
0.0
 41
0.9
 51
0.0
  7
KANJI17
  0
TEXT
  8
0
  6
CONTINUOUS
 62
     2
 10
1429.32
 20
1432.08
 30
1.44
 40
14.4
  1
　４７３
 50
0.0
 41
0.9
 51
0.0
  7
KANJI17
  0
TEXT
  8
0
  6
CONTINUOUS
 62
     2
 10
1429.32
 20
1398.48
 30
1.44
 40
14.4
  1
　５７３
 50
0.0
 41
0.9
 51
0.0
  7
KANJI17
  0
TEXT
  8
0
  6
CONTINUOUS
 62
     2
 10
1429.32
 20
1364.88
 30
1.44
 40
14.4
  1
　６７３
 50
0.0
 41
0.9
 51
0.0
  7
KANJI17
  0
TEXT
  8
0
  6
CONTINUOUS
 62
     2
 10
1429.32
 20
1331.28
 30
1.44
 40
14.4
  1
　７７３
 50
0.0
 41
0.9
 51
0.0
  7
KANJI17
  0
TEXT
  8
0
  6
CONTINUOUS
 62
     2
 10
1429.32
 20
1297.68
 30
1.44
 40
14.4
  1
　９１３
 50
0.0
 41
0.9
 51
0.0
  7
KANJI17
  0
TEXT
  8
0
  6
CONTINUOUS
 62
     2
 10
1429.32
 20
1264.08
 30
1.44
 40
14.4
  1
１０１３
 50
0.0
 41
0.9
 51
0.0
  7
KANJI17
  0
TEXT
  8
0
  6
CONTINUOUS
 62
     2
 10
1429.32
 20
1230.48
 30
1.44
 40
14.4
  1
１１１３
 50
0.0
 41
0.9
 51
0.0
  7
KANJI17
  0
TEXT
  8
0
  6
CONTINUOUS
 62
     2
 10
1333.32
 20
1432.08
 30
1.44
 40
14.4
  1
　６１９
 50
0.0
 41
0.9
 51
0.0
  7
KANJI17
  0
TEXT
  8
0
  6
CONTINUOUS
 62
     2
 10
1333.32
 20
1398.48
 30
1.44
 40
14.4
  1
　７１９
 50
0.0
 41
0.9
 51
0.0
  7
KANJI17
  0
TEXT
  8
0
  6
CONTINUOUS
 62
     2
 10
1333.32
 20
1364.88
 30
1.44
 40
14.4
  1
　８１９
 50
0.0
 41
0.9
 51
0.0
  7
KANJI17
  0
TEXT
  8
0
  6
CONTINUOUS
 62
     2
 10
1333.32
 20
1331.28
 30
1.44
 40
14.4
  1
　９１９
 50
0.0
 41
0.9
 51
0.0
  7
KANJI17
  0
TEXT
  8
0
  6
CONTINUOUS
 62
     2
 10
1333.32
 20
1297.68
 30
1.44
 40
14.4
  1
１０５９
 50
0.0
 41
0.9
 51
0.0
  7
KANJI17
  0
TEXT
  8
0
  6
CONTINUOUS
 62
     2
 10
1333.32
 20
1264.08
 30
1.44
 40
14.4
  1
１１５９
 50
0.0
 41
0.9
 51
0.0
  7
KANJI17
  0
TEXT
  8
0
  6
CONTINUOUS
 62
     2
 10
1333.32
 20
1230.48
 30
1.44
 40
14.4
  1
１２５９
 50
0.0
 41
0.9
 51
0.0
  7
KANJI17
  0
TEXT
  8
0
  6
CONTINUOUS
 62
     2
 10
1717.32
 20
1432.08
 30
1.44
 40
14.4
  1
　４５
 50
0.0
 41
0.9
 51
0.0
  7
KANJI17
  0
TEXT
  8
0
  6
CONTINUOUS
 62
     2
 10
1717.32
 20
1398.48
 30
1.44
 40
14.4
  1
　４８
 50
0.0
 41
0.9
 51
0.0
  7
KANJI17
  0
TEXT
  8
0
  6
CONTINUOUS
 62
     2
 10
1717.32
 20
1364.88
 30
1.44
 40
14.4
  1
　５０
 50
0.0
 41
0.9
 51
0.0
  7
KANJI17
  0
TEXT
  8
0
  6
CONTINUOUS
 62
     2
 10
1717.32
 20
1331.28
 30
1.44
 40
14.4
  1
　５２
 50
0.0
 41
0.9
 51
0.0
  7
KANJI17
  0
TEXT
  8
0
  6
CONTINUOUS
 62
     2
 10
1717.32
 20
1297.68
 30
1.44
 40
14.4
  1
　５４
 50
0.0
 41
0.9
 51
0.0
  7
KANJI17
  0
TEXT
  8
0
  6
CONTINUOUS
 62
     2
 10
1717.32
 20
1264.08
 30
1.44
 40
14.4
  1
　５６
 50
0.0
 41
0.9
 51
0.0
  7
KANJI17
  0
TEXT
  8
0
  6
CONTINUOUS
 62
     2
 10
1717.32
 20
1230.48
 30
1.44
 40
14.4
  1
　５８
 50
0.0
 41
0.9
 51
0.0
  7
KANJI17
  0
TEXT
  8
0
  6
CONTINUOUS
 62
     2
 10
1029.72
 20
1431.72
 30
0.96
 40
14.4
  1
ＭＣＬＣ１－　　２
 50
0.0
 41
0.833333333
 51
0.0
  7
KANJI48
  0
TEXT
  8
0
  6
CONTINUOUS
 62
     2
 10
1029.72
 20
1398.12
 30
0.96
 40
14.4
  1
ＭＣＬＣ１－　　３
 50
0.0
 41
0.833333333
 51
0.0
  7
KANJI48
  0
TEXT
  8
0
  6
CONTINUOUS
 62
     2
 10
1029.72
 20
1364.52
 30
0.96
 40
14.4
  1
ＭＣＬＣ１－　　４
 50
0.0
 41
0.833333333
 51
0.0
  7
KANJI48
  0
TEXT
  8
0
  6
CONTINUOUS
 62
     2
 10
1029.72
 20
1330.92
 30
0.96
 40
14.4
  1
ＭＣＬＣ１－　　５
 50
0.0
 41
0.833333333
 51
0.0
  7
KANJI48
  0
TEXT
  8
0
  6
CONTINUOUS
 62
     2
 10
1029.72
 20
1297.32
 30
0.96
 40
14.4
  1
ＭＣＬＣ１－　　６
 50
0.0
 41
0.833333333
 51
0.0
  7
KANJI48
  0
TEXT
  8
0
  6
CONTINUOUS
 62
     2
 10
1029.72
 20
1263.72
 30
0.96
 40
14.4
  1
ＭＣＬＣ１－　　７
 50
0.0
 41
0.833333333
 51
0.0
  7
KANJI48
  0
TEXT
  8
0
  6
CONTINUOUS
 62
     2
 10
1029.72
 20
1230.12
 30
0.96
 40
14.4
  1
ＭＣＬＣ１－　　８
 50
0.0
 41
0.833333333
 51
0.0
  7
KANJI48
  0
LINE
  8
0
  6
CONTINUOUS
 62
     1
 10
1014.12
 20
1055.04
 30
0.0
 11
1791.72
 21
1055.04
 31
0.0
  0
LINE
  8
0
  6
CONTINUOUS
 62
     2
 10
1014.12
 20
1088.64
 30
0.0
 11
1791.72
 21
1088.64
 31
0.0
  0
LINE
  8
0
  6
CONTINUOUS
 62
     1
 10
1014.12
 20
1491.24
 30
0.0
 11
1014.12
 21
1055.04
 31
0.0
  0
LINE
  8
0
  6
CONTINUOUS
 62
     1
 10
1215.72
 20
1491.24
 30
0.0
 11
1215.72
 21
1055.04
 31
0.0
  0
LINE
  8
0
  6
CONTINUOUS
 62
     2
 10
1311.72
 20
1491.24
 30
0.0
 11
1311.72
 21
1055.04
 31
0.0
  0
LINE
  8
0
  6
CONTINUOUS
 62
     2
 10
1407.72
 20
1491.24
 30
0.0
 11
1407.72
 21
1055.04
 31
0.0
  0
LINE
  8
0
  6
CONTINUOUS
 62
     2
 10
1503.72
 20
1491.24
 30
0.0
 11
1503.72
 21
1055.04
 31
0.0
  0
LINE
  8
0
  6
CONTINUOUS
 62
     2
 10
1599.72
 20
1491.24
 30
0.0
 11
1599.72
 21
1055.04
 31
0.0
  0
LINE
  8
0
  6
CONTINUOUS
 62
     2
 10
1695.72
 20
1491.24
 30
0.0
 11
1695.72
 21
1055.04
 31
0.0
  0
LINE
  8
0
  6
CONTINUOUS
 62
     1
 10
1791.72
 20
1491.24
 30
0.0
 11
1791.72
 21
1055.04
 31
0.0
  0
LINE
  8
0
  6
CONTINUOUS
 62
     2
 10
1014.12
 20
1154.84
 30
0.0
 11
1791.72
 21
1154.84
 31
0.0
  0
TEXT
  8
0
  6
CONTINUOUS
 62
     2
 10
1029.72
 20
1062.12
 30
0.96
 40
14.4
  1
ＭＣＬＣ１－　　
 50
0.0
 41
0.833333333
 51
0.0
  7
KANJI48
  0
LINE
  8
0
  6
CONTINUOUS
 62
     2
 10
1014.12
 20
1188.84
 30
0.0
 11
1791.72
 21
1188.84
 31
0.0
  0
TEXT
  8
0
  6
CONTINUOUS
 62
     2
 10
1029.72
 20
1196.52
 30
0.96
 40
14.4
  1
ＭＣＬＣ１－　　９
 50
0.0
 41
0.833333333
 51
0.0
  7
KANJI48
  0
TEXT
  8
0
  6
CONTINUOUS
 62
     2
 10
1029.72
 20
1162.92
 30
0.96
 40
14.4
  1
ＭＣＬＣ１－　１０
 50
0.0
 41
0.833333333
 51
0.0
  7
KANJI48
  0
TEXT
  8
0
  6
CONTINUOUS
 62
     2
 10
1237.32
 20
1163.28
 30
1.44
 40
14.4
  1
１０００
 50
0.0
 41
0.9
 51
0.0
  7
KANJI17
  0
TEXT
  8
0
  6
CONTINUOUS
 62
     2
 10
1237.32
 20
1196.88
 30
1.44
 40
14.4
  1
　９００
 50
0.0
 41
0.9
 51
0.0
  7
KANJI17
  0
TEXT
  8
0
  6
CONTINUOUS
 62
     2
 10
1333.32
 20
1196.88
 30
1.44
 40
14.4
  1
１３５９
 50
0.0
 41
0.9
 51
0.0
  7
KANJI17
  0
TEXT
  8
0
  6
CONTINUOUS
 62
     2
 10
1333.32
 20
1163.28
 30
1.44
 40
14.4
  1
１４５９
 50
0.0
 41
0.9
 51
0.0
  7
KANJI17
  0
TEXT
  8
0
  6
CONTINUOUS
 62
     2
 10
1429.32
 20
1196.88
 30
1.44
 40
14.4
  1
１２１３
 50
0.0
 41
0.9
 51
0.0
  7
KANJI17
  0
TEXT
  8
0
  6
CONTINUOUS
 62
     2
 10
1429.32
 20
1163.28
 30
1.44
 40
14.4
  1
１３１３
 50
0.0
 41
0.9
 51
0.0
  7
KANJI17
  0
TEXT
  8
0
  6
CONTINUOUS
 62
     2
 10
1525.32
 20
1196.88
 30
1.44
 40
14.4
  1
１１１８
 50
0.0
 41
0.9
 51
0.0
  7
KANJI17
  0
TEXT
  8
0
  6
CONTINUOUS
 62
     2
 10
1525.32
 20
1163.28
 30
1.44
 40
14.4
  1
１２１８
 50
0.0
 41
0.9
 51
0.0
  7
KANJI17
  0
TEXT
  8
0
  6
CONTINUOUS
 62
     2
 10
1621.32
 20
1196.88
 30
1.44
 40
14.4
  1
　　４５
 50
0.0
 41
0.9
 51
0.0
  7
KANJI17
  0
TEXT
  8
0
  6
CONTINUOUS
 62
     2
 10
1621.32
 20
1163.28
 30
1.44
 40
14.4
  1
　　４５
 50
0.0
 41
0.9
 51
0.0
  7
KANJI17
  0
TEXT
  8
0
  6
CONTINUOUS
 62
     2
 10
1717.32
 20
1196.88
 30
1.44
 40
14.4
  1
　６０
 50
0.0
 41
0.9
 51
0.0
  7
KANJI17
  0
TEXT
  8
0
  6
CONTINUOUS
 62
     2
 10
1717.32
 20
1163.28
 30
1.44
 40
14.4
  1
　６２
 50
0.0
 41
0.9
 51
0.0
  7
KANJI17
  0
LINE
  8
0
  6
CONTINUOUS
 62
     2
 10
1014.12
 20
1121.84
 30
0.0
 11
1791.72
 21
1121.84
 31
0.0
  0
TEXT
  8
0
  6
CONTINUOUS
 62
     2
 10
1621.32
 20
1129.88
 30
1.44
 40
14.4
  1
　　４５
 50
0.0
 41
0.9
 51
0.0
  7
KANJI17
  0
TEXT
  8
0
  6
CONTINUOUS
 62
     2
 10
1621.32
 20
1096.28
 30
1.44
 40
14.4
  1
　　４５
 50
0.0
 41
0.9
 51
0.0
  7
KANJI17
  0
TEXT
  8
0
  6
CONTINUOUS
 62
     2
 10
1029.72
 20
1129.52
 30
0.96
 40
14.4
  1
ＭＣＬＣ１－　１１
 50
0.0
 41
0.833333333
 51
0.0
  7
KANJI48
  0
TEXT
  8
0
  6
CONTINUOUS
 62
     2
 10
1029.72
 20
1095.92
 30
0.96
 40
14.4
  1
ＭＣＬＣ１－　１２
 50
0.0
 41
0.833333333
 51
0.0
  7
KANJI48
  0
TEXT
  8
0
  6
CONTINUOUS
 62
     2
 10
1237.32
 20
1129.88
 30
1.44
 40
14.4
  1
１１００
 50
0.0
 41
0.9
 51
0.0
  7
KANJI17
  0
TEXT
  8
0
  6
CONTINUOUS
 62
     2
 10
1237.32
 20
1096.28
 30
1.44
 40
14.4
  1
１２００
 50
0.0
 41
0.9
 51
0.0
  7
KANJI17
  0
TEXT
  8
0
  6
CONTINUOUS
 62
     2
 10
1525.32
 20
1129.88
 30
1.44
 40
14.4
  1
１３１８
 50
0.0
 41
0.9
 51
0.0
  7
KANJI17
  0
TEXT
  8
0
  6
CONTINUOUS
 62
     2
 10
1525.32
 20
1096.28
 30
1.44
 40
14.4
  1
１４１８
 50
0.0
 41
0.9
 51
0.0
  7
KANJI17
  0
TEXT
  8
0
  6
CONTINUOUS
 62
     2
 10
1429.32
 20
1129.88
 30
1.44
 40
14.4
  1
１４１３
 50
0.0
 41
0.9
 51
0.0
  7
KANJI17
  0
TEXT
  8
0
  6
CONTINUOUS
 62
     2
 10
1429.32
 20
1096.28
 30
1.44
 40
14.4
  1
１５１３
 50
0.0
 41
0.9
 51
0.0
  7
KANJI17
  0
TEXT
  8
0
  6
CONTINUOUS
 62
     2
 10
1333.32
 20
1129.88
 30
1.44
 40
14.4
  1
１５５９
 50
0.0
 41
0.9
 51
0.0
  7
KANJI17
  0
TEXT
  8
0
  6
CONTINUOUS
 62
     2
 10
1333.32
 20
1096.28
 30
1.44
 40
14.4
  1
１６５９
 50
0.0
 41
0.9
 51
0.0
  7
KANJI17
  0
TEXT
  8
0
  6
CONTINUOUS
 62
     2
 10
1717.32
 20
1129.88
 30
1.44
 40
14.4
  1
　６４
 50
0.0
 41
0.9
 51
0.0
  7
KANJI17
  0
TEXT
  8
0
  6
CONTINUOUS
 62
     2
 10
1717.32
 20
1096.28
 30
1.44
 40
14.4
  1
　６６
 50
0.0
 41
0.9
 51
0.0
  7
KANJI17
  0
LINE
  8
0
  6
CONTINUOUS
 62
     2
 10
877.603319123
 20
150.533311846
 30
0.0
 11
877.603319123
 21
94.233311846
 31
0.0
  0
LINE
  8
0
  6
CONTINUOUS
 62
     2
 10
718.403319123
 20
136.233311846
 30
0.0
 11
877.603319123
 21
136.233311846
 31
0.0
  0
LINE
  8
0
  6
CONTINUOUS
 62
     2
 10
877.603319123
 20
136.233311846
 30
0.0
 11
869.875912513
 21
138.303864207
 31
0.0
  0
LINE
  8
0
  6
CONTINUOUS
 62
     2
 10
877.603319123
 20
136.233311846
 30
0.0
 11
869.875912513
 21
134.162759485
 31
0.0
  0
TEXT
  8
0
  6
CONTINUOUS
 62
     3
 10
759.953319123
 20
138.233311846
 30
0.0
 40
15.0
  1
常用ストローク
 50
0.0
 41
0.9
 51
0.0
  7
KANJI34
  0
LINE
  8
0
  6
CONTINUOUS
 62
     1
 10
529.0
 20
867.5
 30
0.0
 11
521.0
 21
867.5
 31
0.0
  0
LINE
  8
0
  6
CONTINUOUS
 62
     1
 10
521.0
 20
575.0
 30
0.0
 11
521.0
 21
867.5
 31
0.0
  0
LINE
  8
0
  6
CONTINUOUS
 62
     2
 10
521.0
 20
870.0
 30
0.0
 11
521.0
 21
1008.3
 31
0.0
  0
LINE
  8
0
  6
CONTINUOUS
 62
     1
 10
487.0
 20
862.5
 30
0.0
 11
521.0
 21
862.5
 31
0.0
  0
LINE
  8
0
  6
CONTINUOUS
 62
     1
 10
484.0
 20
836.5
 30
0.0
 11
484.0
 21
859.5
 31
0.0
  0
ARC
  8
0
  6
CONTINUOUS
 62
     1
 10
487.0
 20
859.5
 30
0.0
 40
3.0
 50
90.0
 51
180.0
  0
LINE
  8
0
  6
CONTINUOUS
 62
     1
 10
513.0
 20
862.5
 30
0.0
 11
508.9
 21
832.9
 31
0.0
  0
LINE
  8
0
  6
CONTINUOUS
 62
     1
 10
497.0
 20
868.5
 30
0.0
 11
506.2
 21
868.5
 31
0.0
  0
CIRCLE
  8
0
  6
CONTINUOUS
 62
     1
 10
497.0
 20
882.5
 30
0.0
 40
12.5
  0
LINE
  8
0
  6
CONTINUOUS
 62
     1
 10
497.0
 20
870.0
 30
0.0
 11
506.2
 21
868.5
 31
0.0
  0
ARC
  8
0
  6
CONTINUOUS
 62
     1
 10
497.0
 20
882.5
 30
0.0
 40
20.5
 50
300.423432294
 51
0.0
  0
ARC
  8
0
  6
CONTINUOUS
 62
     1
 10
507.947984073
 20
863.773488336
 30
0.0
 40
1.2
 50
118.393405187
 51
188.554293104
  0
LINE
  8
0
  6
CONTINUOUS
 62
     1
 10
497.0
 20
868.5
 30
0.0
 11
487.8
 21
868.5
 31
0.0
  0
LINE
  8
0
  6
CONTINUOUS
 62
     1
 10
497.0
 20
870.0
 30
0.0
 11
487.8
 21
868.5
 31
0.0
  0
ARC
  8
0
  6
CONTINUOUS
 62
     1
 10
486.052015927
 20
863.773488336
 30
0.0
 40
1.2
 50
351.445706896
 51
61.606594813
  0
ARC
  8
0
  6
CONTINUOUS
 62
     1
 10
497.0
 20
882.5
 30
0.0
 40
20.5
 50
0.0
 51
239.707348078
  0
LINE
  8
0
  6
CONTINUOUS
 62
     1
 10
487.114285714
 20
862.5
 30
0.0
 11
487.8
 21
868.5
 31
0.0
  0
LINE
  8
0
  6
CONTINUOUS
 62
     1
 10
506.885714286
 20
862.5
 30
0.0
 11
506.2
 21
868.5
 31
0.0
  0
LINE
  8
0
  6
LTYPE2
 62
     2
 10
471.475
 20
882.5
 30
0.0
 11
521.0
 21
882.5
 31
0.0
  0
LINE
  8
0
  6
LTYPE2
 62
     2
 10
497.0
 20
851.9
 30
0.0
 11
497.0
 21
905.9
 31
0.0
  0
LINE
  8
0
  6
CONTINUOUS
 62
     1
 10
450.0
 20
830.5
 30
0.0
 11
506.0
 21
830.5
 31
0.0
  0
ARC
  8
0
  6
CONTINUOUS
 62
     1
 10
506.0
 20
833.5
 30
0.0
 40
3.0
 50
270.0
 51
0.0
  0
LINE
  8
0
  6
CONTINUOUS
 62
     1
 10
509.0
 20
760.5
 30
0.0
 11
509.0
 21
832.9
 31
0.0
  0
ARC
  8
0
  6
CONTINUOUS
 62
     1
 10
506.0
 20
760.5
 30
0.0
 40
3.0
 50
270.0
 51
360.0
  0
LINE
  8
0
  6
CONTINUOUS
 62
     1
 10
450.0
 20
757.5
 30
0.0
 11
506.0
 21
757.5
 31
0.0
  0
LINE
  8
0
  6
CONTINUOUS
 62
     2
 10
1045.893
 20
1529.37
 30
0.0
 11
1510.0
 21
1529.37
 31
0.0
  0
TEXT
  8
0
  6
CONTINUOUS
 62
     2
 10
1648.5200334
 20
126.899994
 30
1.8
 40
21.0
  1
０７．１０．０４
 50
0.0
 41
0.571428571
 51
0.0
  7
KANJI49
  0
LINE
  8
0
  6
CONTINUOUS
 62
     2
 10
1873.92
 20
896.7
 30
0.0
 11
2398.92
 21
896.7
 31
0.0
  0
LINE
  8
0
  6
CONTINUOUS
 62
     2
 10
1873.92
 20
854.7
 30
0.0
 11
2398.92
 21
854.7
 31
0.0
  0
LINE
  8
0
  6
CONTINUOUS
 62
     2
 10
1921.92
 20
1232.7
 30
0.0
 11
1921.92
 21
896.7
 31
0.0
  0
TEXT
  8
0
  6
CONTINUOUS
 62
     2
 10
1906.92
 20
865.5
 30
79.962857143
 40
22.8
  1
付属品
 50
0.0
 41
0.9
 51
0.0
  7
KANJI50
  0
TEXT
  8
0
  6
CONTINUOUS
 62
     2
 10
1906.92
 20
823.5
 30
180.445714286
 40
22.8
  1
台数
 50
0.0
 41
0.9
 51
0.0
  7
KANJI51
  0
LINE
  8
0
  6
CONTINUOUS
 62
     1
 10
1873.92
 20
1628.7
 30
0.0
 11
2398.92
 21
1628.7
 31
0.0
  0
TEXT
  8
0
  6
CONTINUOUS
 62
     2
 10
1948.92
 20
1584.9
 30
17.09964
 40
27.0
  1
マイティシリンダ仕様
 50
0.0
 41
0.9
 51
0.0
  7
KANJI52
  0
LINE
  8
0
  6
CONTINUOUS
 62
     2
 10
1921.92
 20
938.7
 30
0.0
 11
2398.92
 21
938.7
 31
0.0
  0
LINE
  8
0
  6
CONTINUOUS
 62
     2
 10
1921.92
 20
1064.7
 30
0.0
 11
2398.92
 21
1064.7
 31
0.0
  0
LINE
  8
0
  6
CONTINUOUS
 62
     2
 10
1921.92
 20
1106.7
 30
0.0
 11
2398.92
 21
1106.7
 31
0.0
  0
LINE
  8
0
  6
CONTINUOUS
 62
     2
 10
1873.92
 20
1316.7
 30
0.0
 11
2398.92
 21
1316.7
 31
0.0
  0
LINE
  8
0
  6
CONTINUOUS
 62
     2
 10
1873.92
 20
1274.7
 30
0.0
 11
2398.92
 21
1274.7
 31
0.0
  0
LINE
  8
0
  6
CONTINUOUS
 62
     2
 10
1873.92
 20
1232.7
 30
0.0
 11
2398.92
 21
1232.7
 31
0.0
  0
LINE
  8
0
  6
CONTINUOUS
 62
     2
 10
1921.92
 20
1148.7
 30
0.0
 11
2398.92
 21
1148.7
 31
0.0
  0
LINE
  8
0
  6
CONTINUOUS
 62
     2
 10
1921.92
 20
1190.7
 30
0.0
 11
2398.92
 21
1190.7
 31
0.0
  0
LINE
  8
0
  6
CONTINUOUS
 62
     2
 10
1873.92
 20
1526.7
 30
0.0
 11
2398.92
 21
1526.7
 31
0.0
  0
LINE
  8
0
  6
CONTINUOUS
 62
     2
 10
1873.92
 20
1484.7
 30
0.0
 11
2398.92
 21
1484.7
 31
0.0
  0
LINE
  8
0
  6
CONTINUOUS
 62
     2
 10
1873.92
 20
1442.7
 30
0.0
 11
2398.92
 21
1442.7
 31
0.0
  0
LINE
  8
0
  6
CONTINUOUS
 62
     2
 10
1873.92
 20
1400.7
 30
0.0
 11
2398.92
 21
1400.7
 31
0.0
  0
LINE
  8
0
  6
CONTINUOUS
 62
     2
 10
1873.92
 20
1358.7
 30
0.0
 11
2398.92
 21
1358.7
 31
0.0
  0
LINE
  8
0
  6
CONTINUOUS
 62
     2
 10
1873.92
 20
1568.7
 30
0.0
 11
2398.92
 21
1568.7
 31
0.0
  0
TEXT
  8
0
  6
CONTINUOUS
 62
     2
 10
1948.92
 20
1159.5
 30
33.439782857
 40
22.8
  1
電源電圧
 50
0.0
 41
0.9
 51
0.0
  7
KANJI53
  0
TEXT
  8
0
  6
CONTINUOUS
 62
     2
 10
1948.92
 20
1117.5
 30
60.42
 40
22.8
  1
周波数
 50
0.0
 41
0.9
 51
0.0
  7
KANJI54
  0
TEXT
  8
0
  6
CONTINUOUS
 62
     2
 10
1948.92
 20
1075.5
 30
141.36
 40
22.8
  1
電流
 50
0.0
 41
0.9
 51
0.0
  7
KANJI55
  0
TEXT
  8
0
  6
CONTINUOUS
 62
     2
 10
1948.92
 20
1033.5
 30
60.42
 40
22.8
  1
絶縁級
 50
0.0
 41
0.9
 51
0.0
  7
KANJI54
  0
TEXT
  8
0
  6
CONTINUOUS
 62
     2
 10
1906.92
 20
1537.5
 30
180.445714286
 40
22.8
  1
形式
 50
0.0
 41
0.9
 51
0.0
  7
KANJI51
  0
TEXT
  8
0
  6
CONTINUOUS
 62
     2
 10
1906.92
 20
1495.5
 30
180.445714286
 40
22.8
  1
推力
 50
0.0
 41
0.9
 51
0.0
  7
KANJI51
  0
TEXT
  8
0
  6
CONTINUOUS
 62
     2
 10
1906.92
 20
1453.5
 30
29.721428571
 40
22.8
  1
ストローク
 50
0.0
 41
0.9
 51
0.0
  7
KANJI56
  0
TEXT
  8
0
  6
CONTINUOUS
 62
     2
 10
1906.92
 20
1327.5
 30
180.445714286
 40
22.8
  1
構造
 50
0.0
 41
0.9
 51
0.0
  7
KANJI51
  0
TEXT
  8
0
  6
CONTINUOUS
 62
     2
 10
1906.92
 20
1285.5
 30
12.973851429
 40
22.8
  1
過負荷安全装置
 50
0.0
 41
0.9
 51
0.0
  7
KANJI57
  0
TEXT
  8
0
  6
CONTINUOUS
 62
     2
 10
1906.92
 20
1243.5
 30
79.962857143
 40
22.8
  1
塗装色
 50
0.0
 41
0.9
 51
0.0
  7
KANJI50
  0
TEXT
  8
0
  6
CONTINUOUS
 62
     2
 10
1882.92
 20
1369.5
 30
1.954285714
 40
22.8
  1
ピストンロッド回転トルク
 50
0.0
 41
0.9
 51
0.0
  7
KANJI58
  0
LINE
  8
0
  6
CONTINUOUS
 62
     2
 10
1873.92
 20
1022.7
 30
0.0
 11
2398.92
 21
1022.7
 31
0.0
  0
LINE
  8
0
  6
CONTINUOUS
 62
     2
 10
1921.92
 20
980.7
 30
0.0
 11
2398.92
 21
980.7
 31
0.0
  0
TEXT
  8
0
  6
CONTINUOUS
 62
     2
 10
1898.37
 20
1226.7
 30
13.2
 40
21.0
  1
モ　トル仕様
 50
0.0
 41
0.9
 51
0.0
  7
KANJI59
  0
TEXT
  8
0
  6
CONTINUOUS
 62
     2
 10
1898.37
 20
1004.7
 30
1.2
 40
21.0
  1
ブレ　キ
 50
0.0
 41
0.9
 51
0.0
  7
KANJI60
  0
LINE
  8
0
  6
CONTINUOUS
 62
     2
 10
1896.72
 20
954.9
 30
0.0
 11
1896.72
 21
942.3
 31
0.0
  0
TEXT
  8
0
  6
CONTINUOUS
 62
     2
 10
2208.42
 20
1286.7
 30
9.0
 40
21.0
  1
推力リミッタ
 50
0.0
 41
0.9
 51
0.0
  7
KANJI61
  0
TEXT
  8
0
  6
CONTINUOUS
 62
     2
 10
2265.42
 20
1034.7
 30
1.8
 40
18.0
  1
Ｅ
 50
0.0
 41
0.9
 51
0.0
  7
KANJI62
  0
TEXT
  8
0
  6
CONTINUOUS
 62
     2
 10
2221.92
 20
949.5
 30
12.0
 40
21.0
  1
同時切り
 50
0.0
 41
0.9
 51
0.0
  7
KANJI63
  0
TEXT
  8
0
  6
CONTINUOUS
 62
     2
 10
1948.92
 20
991.5
 30
141.36
 40
22.8
  1
形式
 50
0.0
 41
0.9
 51
0.0
  7
KANJI55
  0
TEXT
  8
0
  6
CONTINUOUS
 62
     2
 10
1948.92
 20
949.5
 30
33.439782857
 40
22.8
  1
操作方式
 50
0.0
 41
0.9
 51
0.0
  7
KANJI53
  0
LINE
  8
0
  6
CONTINUOUS
 62
     2
 10
1896.72
 20
1190.1
 30
0.0
 11
1896.72
 21
1176.3
 31
0.0
  0
TEXT
  8
0
  6
CONTINUOUS
 62
     2
 10
1948.92
 20
1201.5
 30
3.0
 40
22.8
  1
出力　相数　極数
 50
0.0
 41
0.9
 51
0.0
  7
KANJI64
  0
TEXT
  8
0
  6
CONTINUOUS
 62
     2
 10
1906.92
 20
1411.5
 30
12.0
 40
22.8
  1
公称速度
 50
0.0
 41
0.9
 51
0.0
  7
KANJI65
  0
TEXT
  8
0
  6
CONTINUOUS
 62
     2
 10
2030.82
 20
1410.3
 30
0.0
 40
21.0
  1
（５０／６０Ｈｚ）
 50
0.0
 41
0.628571429
 51
0.0
  7
KANJI66
  0
TEXT
  8
0
  6
CONTINUOUS
 62
     2
 10
2151.42
 20
991.95
 30
3.3
 40
20.4
  1
スプリング制動式電磁ブレーキ
 50
0.0
 41
0.705882353
 51
0.0
  7
KANJI67
  0
TEXT
  8
0
  6
CONTINUOUS
 62
     2
 10
2370.42
 20
1159.5
 30
0.216
 40
18.0
  1
Ｖ
 50
0.0
 41
0.8
 51
0.0
  7
KANJI68
  0
TEXT
  8
0
  6
CONTINUOUS
 62
     2
 10
2359.62
 20
1117.5
 30
0.216
 40
18.0
  1
Ｈｚ
 50
0.0
 41
0.8
 51
0.0
  7
KANJI68
  0
TEXT
  8
0
  6
CONTINUOUS
 62
     2
 10
2370.42
 20
1075.5
 30
0.216
 40
18.0
  1
Ａ
 50
0.0
 41
0.8
 51
0.0
  7
KANJI68
  0
TEXT
  8
0
  6
CONTINUOUS
 62
     2
 10
2291.52
 20
1202.7
 30
1.8
 40
18.0
  1
３φ
 50
0.0
 41
0.9
 51
0.0
  7
KANJI62
  0
TEXT
  8
0
  6
CONTINUOUS
 62
     2
 10
2351.52
 20
1202.7
 30
1.8
 40
18.0
  1
４Ｐ
 50
0.0
 41
0.9
 51
0.0
  7
KANJI62
  0
TEXT
  8
0
  6
CONTINUOUS
 62
     2
 10
2149.92
 20
1244.7
 30
1.2
 40
19.2
  1
マンセル　７．５ＧＹ　５／４．５
 50
0.0
 41
0.71875
 51
0.0
  7
KANJI69
  0
TEXT
  8
0
  6
CONTINUOUS
 62
     2
 10
2149.92
 20
1160.7
 30
1.8
 40
18.0
  1
　　　　　　　／　　　
 50
0.0
 41
0.9
 51
0.0
  7
KANJI62
  0
TEXT
  8
0
  6
CONTINUOUS
 62
     2
 10
2149.92
 20
1118.7
 30
1.8
 40
18.0
  1
　　　　５０／　６０
 50
0.0
 41
0.9
 51
0.0
  7
KANJI62
  0
TEXT
  8
0
  6
CONTINUOUS
 62
     2
 10
2149.92
 20
1076.7
 30
1.8
 40
18.0
  1
　　　　　　　／　　　
 50
0.0
 41
0.9
 51
0.0
  7
KANJI62
  0
TEXT
  8
0
  6
CONTINUOUS
 62
     2
 10
2354.52
 20
1455.9
 30
0.1536
 40
19.2
  1
ｍｍ
 50
0.0
 41
0.8
 51
0.0
  7
KANJI70
  0
TEXT
  8
0
  6
CONTINUOUS
 62
     2
 10
2208.42
 20
1328.7
 30
9.0
 40
21.0
  1
全閉屋内形
 50
0.0
 41
0.9
 51
0.0
  7
KANJI61
  0
TEXT
  8
0
  6
CONTINUOUS
 62
     2
 10
2315.52
 20
1412.7
 30
0.0
 40
21.0
  1
ｍｍ／ｓｅｃ
 50
0.0
 41
0.571428571
 51
0.0
  7
KANJI71
  0
TEXT
  8
0
  6
CONTINUOUS
 62
     2
 10
2155.92
 20
1202.7
 30
1.8
 40
18.0
  1
　０．６ＫＷ
 50
0.0
 41
0.9
 51
0.0
  7
KANJI62
  0
TEXT
  8
0
  6
CONTINUOUS
 62
     2
 10
2163.42
 20
1536.6
 30
1.2
 40
18.0
  1
ＭＣＬＣ１－　
 50
0.0
 41
0.833333333
 51
0.0
  7
KANJI72
  0
TEXT
  8
0
  6
CONTINUOUS
 62
     2
 10
2193.72
 20
1496.7
 30
1.8
 40
18.0
  1
９．８ＫＮ（１ｔｏｎ）
 50
0.0
 41
0.9
 51
0.0
  7
KANJI62
  0
TEXT
  8
0
  6
CONTINUOUS
 62
     2
 10
2152.92
 20
1412.7
 30
1.8
 40
18.0
  1
　２５／　３０
 50
0.0
 41
0.9
 51
0.0
  7
KANJI62
  0
LINE
  8
0
  6
CONTINUOUS
 62
     1
 10
1873.92
 20
1628.7
 30
0.0
 11
1873.92
 21
770.7
 31
0.0
  0
LINE
  8
0
  6
CONTINUOUS
 62
     2
 10
2149.92
 20
1568.7
 30
0.0
 11
2149.92
 21
770.7
 31
0.0
  0
LINE
  8
0
  6
CONTINUOUS
 62
     1
 10
2398.92
 20
1628.7
 30
0.0
 11
2398.92
 21
770.7
 31
0.0
  0
LINE
  8
0
  6
CONTINUOUS
 62
     1
 10
1873.92
 20
770.7
 30
0.0
 11
2398.92
 21
770.7
 31
0.0
  0
LINE
  8
0
  6
CONTINUOUS
 62
     2
 10
1873.92
 20
812.7
 30
0.0
 11
2398.92
 21
812.7
 31
0.0
  0
TEXT
  8
0
  6
CONTINUOUS
 62
     2
 10
2343.72
 20
782.88
 30
0.0
 40
21.0
  1
ｋｇ
 50
0.0
 41
0.9
 51
0.0
  7
KANJI73
  0
TEXT
  8
0
  6
CONTINUOUS
 62
     2
 10
1905.72
 20
781.5
 30
6.0
 40
21.0
  1
概算重量（１台当り）
 50
0.0
 41
0.857142857
 51
0.0
  7
KANJI74
  0
TEXT
  8
0
  6
CONTINUOUS
 62
     2
 10
2182.92
 20
1370.7
 30
0.0
 40
18.0
  1
３９Ｎ・ｍ（４ｋｇ・ｍ）
 50
0.0
 41
0.833333333
 51
0.0
  7
KANJI75
  0
ENDSEC
  0
EOF
