  0
SECTION
  2
HEADER
  9
$ACADVER
  1
AC1009
  9
$DWGCODEPAGE
  3
dos932
  9
$EXTMIN
 10
0.0
 20
0.0
 30
0.0
  9
$EXTMAX
 10
2520.0
 20
1782.0
 30
0.0
  9
$LIMMIN
 10
0.0
 20
0.0
  9
$LIMMAX
 10
2520.0
 20
1782.0
  9
$LTSCALE
 40
1.0
  9
$PDMODE
 70
     0
  0
ENDSEC
  0
SECTION
  2
TABLES
  0
TABLE
  2
VPORT
 70
     1
  0
VPORT
  2
*ACTIVE
 70
     0
 10
0.0
 20
0.0
 11
1.0
 21
1.0
 12
1260.0
 22
891.0
 13
0.0
 23
0.0
 14
10.0
 24
10.0
 15
10.0
 25
10.0
 16
0.0
 26
0.0
 36
1.0
 17
0.0
 27
0.0
 37
0.0
 40
2520.0
 41
1.414141414
 42
50.0
 43
0.0
 44
0.0
 50
0.0
 51
0.0
 71
     0
 72
  1000
 73
     1
 74
     3
 75
     0
 76
     0
 77
     0
 78
     0
  0
ENDTAB
  0
TABLE
  2
LTYPE
 70
     7
  0
LTYPE
  2
CONTINUOUS
 70
    64
  3
Solid line
 72
    65
 73
     0
 40
0.0
  0
LTYPE
  2
LTYPE1
 70
    64
  3
HIDDEN
 72
    65
 73
     2
 40
18.0
 49
10.8
 49
-7.2
  0
LTYPE
  2
LTYPE2
 70
    64
  3
CENTER
 72
    65
 73
     4
 40
60.0
 49
42.0
 49
-6.0
 49
6.0
 49
-6.0
  0
LTYPE
  2
LTYPE3
 70
    64
  3
CENTER
 72
    65
 73
     4
 40
120.0
 49
84.0
 49
-12.0
 49
12.0
 49
-12.0
  0
LTYPE
  2
LTYPE4
 70
    64
  3
CENTER
 72
    65
 73
     4
 40
90.0
 49
63.0
 49
-9.0
 49
9.0
 49
-9.0
  0
LTYPE
  2
LTYPE5
 70
    64
  3
PHANTOM
 72
    65
 73
     6
 40
90.0
 49
67.5
 49
-4.5
 49
4.5
 49
-4.5
 49
4.5
 49
-4.5
  0
LTYPE
  2
LTYPE6
 70
    64
  3
CENTER
 72
    65
 73
     4
 40
54.0
 49
37.8
 49
-5.4
 49
5.4
 49
-5.4
  0
ENDTAB
  0
TABLE
  2
LAYER
 70
   128
  0
LAYER
  2
0
 70
     0
 62
     7
  6
CONTINUOUS
  0
LAYER
  2
2
 70
     0
 62
     7
  6
CONTINUOUS
  0
LAYER
  2
3
 70
     0
 62
     7
  6
CONTINUOUS
  0
LAYER
  2
4
 70
     0
 62
     7
  6
CONTINUOUS
  0
LAYER
  2
5
 70
     0
 62
     7
  6
CONTINUOUS
  0
LAYER
  2
6
 70
     0
 62
     7
  6
CONTINUOUS
  0
LAYER
  2
7
 70
     0
 62
     7
  6
CONTINUOUS
  0
LAYER
  2
8
 70
     0
 62
     7
  6
CONTINUOUS
  0
LAYER
  2
9
 70
     0
 62
     7
  6
CONTINUOUS
  0
LAYER
  2
10
 70
     0
 62
     7
  6
CONTINUOUS
  0
LAYER
  2
11
 70
     0
 62
     7
  6
CONTINUOUS
  0
LAYER
  2
12
 70
     0
 62
     7
  6
CONTINUOUS
  0
LAYER
  2
13
 70
     0
 62
     7
  6
CONTINUOUS
  0
LAYER
  2
14
 70
     0
 62
     7
  6
CONTINUOUS
  0
LAYER
  2
15
 70
     0
 62
     7
  6
CONTINUOUS
  0
LAYER
  2
16
 70
     0
 62
     7
  6
CONTINUOUS
  0
LAYER
  2
17
 70
     0
 62
     7
  6
CONTINUOUS
  0
LAYER
  2
18
 70
     0
 62
     7
  6
CONTINUOUS
  0
LAYER
  2
19
 70
     0
 62
     7
  6
CONTINUOUS
  0
LAYER
  2
20
 70
     0
 62
     7
  6
CONTINUOUS
  0
LAYER
  2
21
 70
     0
 62
     7
  6
CONTINUOUS
  0
LAYER
  2
22
 70
     0
 62
     7
  6
CONTINUOUS
  0
LAYER
  2
23
 70
     0
 62
     7
  6
CONTINUOUS
  0
LAYER
  2
24
 70
     0
 62
     7
  6
CONTINUOUS
  0
LAYER
  2
25
 70
     0
 62
     7
  6
CONTINUOUS
  0
LAYER
  2
26
 70
     0
 62
     7
  6
CONTINUOUS
  0
LAYER
  2
27
 70
     0
 62
     7
  6
CONTINUOUS
  0
LAYER
  2
28
 70
     0
 62
     7
  6
CONTINUOUS
  0
LAYER
  2
29
 70
     0
 62
     7
  6
CONTINUOUS
  0
LAYER
  2
30
 70
     0
 62
     7
  6
CONTINUOUS
  0
LAYER
  2
31
 70
     0
 62
     7
  6
CONTINUOUS
  0
LAYER
  2
32
 70
     0
 62
     7
  6
CONTINUOUS
  0
LAYER
  2
33
 70
     0
 62
     7
  6
CONTINUOUS
  0
LAYER
  2
34
 70
     0
 62
     7
  6
CONTINUOUS
  0
LAYER
  2
35
 70
     0
 62
     7
  6
CONTINUOUS
  0
LAYER
  2
36
 70
     0
 62
     7
  6
CONTINUOUS
  0
LAYER
  2
37
 70
     0
 62
     7
  6
CONTINUOUS
  0
LAYER
  2
38
 70
     0
 62
     7
  6
CONTINUOUS
  0
LAYER
  2
39
 70
     0
 62
     7
  6
CONTINUOUS
  0
LAYER
  2
40
 70
     0
 62
     7
  6
CONTINUOUS
  0
LAYER
  2
41
 70
     0
 62
     7
  6
CONTINUOUS
  0
LAYER
  2
42
 70
     0
 62
     7
  6
CONTINUOUS
  0
LAYER
  2
43
 70
     0
 62
     7
  6
CONTINUOUS
  0
LAYER
  2
44
 70
     0
 62
     7
  6
CONTINUOUS
  0
LAYER
  2
45
 70
     0
 62
     7
  6
CONTINUOUS
  0
LAYER
  2
46
 70
     0
 62
     7
  6
CONTINUOUS
  0
LAYER
  2
47
 70
     0
 62
     7
  6
CONTINUOUS
  0
LAYER
  2
48
 70
     0
 62
     7
  6
CONTINUOUS
  0
LAYER
  2
49
 70
     0
 62
     7
  6
CONTINUOUS
  0
LAYER
  2
50
 70
     0
 62
     7
  6
CONTINUOUS
  0
LAYER
  2
51
 70
     0
 62
     7
  6
CONTINUOUS
  0
LAYER
  2
52
 70
     0
 62
     7
  6
CONTINUOUS
  0
LAYER
  2
53
 70
     0
 62
     7
  6
CONTINUOUS
  0
LAYER
  2
54
 70
     0
 62
     7
  6
CONTINUOUS
  0
LAYER
  2
55
 70
     0
 62
     7
  6
CONTINUOUS
  0
LAYER
  2
56
 70
     0
 62
     7
  6
CONTINUOUS
  0
LAYER
  2
57
 70
     0
 62
     7
  6
CONTINUOUS
  0
LAYER
  2
58
 70
     0
 62
     7
  6
CONTINUOUS
  0
LAYER
  2
59
 70
     0
 62
     7
  6
CONTINUOUS
  0
LAYER
  2
60
 70
     0
 62
     7
  6
CONTINUOUS
  0
LAYER
  2
61
 70
     0
 62
     7
  6
CONTINUOUS
  0
LAYER
  2
62
 70
     0
 62
     7
  6
CONTINUOUS
  0
LAYER
  2
63
 70
     0
 62
     7
  6
CONTINUOUS
  0
LAYER
  2
64
 70
     0
 62
     7
  6
CONTINUOUS
  0
LAYER
  2
65
 70
     0
 62
     7
  6
CONTINUOUS
  0
LAYER
  2
66
 70
     0
 62
     7
  6
CONTINUOUS
  0
LAYER
  2
67
 70
     0
 62
     7
  6
CONTINUOUS
  0
LAYER
  2
68
 70
     0
 62
     7
  6
CONTINUOUS
  0
LAYER
  2
69
 70
     0
 62
     7
  6
CONTINUOUS
  0
LAYER
  2
70
 70
     0
 62
     7
  6
CONTINUOUS
  0
LAYER
  2
71
 70
     0
 62
     7
  6
CONTINUOUS
  0
LAYER
  2
72
 70
     0
 62
     7
  6
CONTINUOUS
  0
LAYER
  2
73
 70
     0
 62
     7
  6
CONTINUOUS
  0
LAYER
  2
74
 70
     0
 62
     7
  6
CONTINUOUS
  0
LAYER
  2
75
 70
     0
 62
     7
  6
CONTINUOUS
  0
LAYER
  2
76
 70
     0
 62
     7
  6
CONTINUOUS
  0
LAYER
  2
77
 70
     0
 62
     7
  6
CONTINUOUS
  0
LAYER
  2
78
 70
     0
 62
     7
  6
CONTINUOUS
  0
LAYER
  2
79
 70
     0
 62
     7
  6
CONTINUOUS
  0
LAYER
  2
80
 70
     0
 62
     7
  6
CONTINUOUS
  0
LAYER
  2
81
 70
     0
 62
     7
  6
CONTINUOUS
  0
LAYER
  2
82
 70
     0
 62
     7
  6
CONTINUOUS
  0
LAYER
  2
83
 70
     0
 62
     7
  6
CONTINUOUS
  0
LAYER
  2
84
 70
     0
 62
     7
  6
CONTINUOUS
  0
LAYER
  2
85
 70
     0
 62
     7
  6
CONTINUOUS
  0
LAYER
  2
86
 70
     0
 62
     7
  6
CONTINUOUS
  0
LAYER
  2
87
 70
     0
 62
     7
  6
CONTINUOUS
  0
LAYER
  2
88
 70
     0
 62
     7
  6
CONTINUOUS
  0
LAYER
  2
89
 70
     0
 62
     7
  6
CONTINUOUS
  0
LAYER
  2
90
 70
     0
 62
     7
  6
CONTINUOUS
  0
LAYER
  2
91
 70
     0
 62
     7
  6
CONTINUOUS
  0
LAYER
  2
92
 70
     0
 62
     7
  6
CONTINUOUS
  0
LAYER
  2
93
 70
     0
 62
     7
  6
CONTINUOUS
  0
LAYER
  2
94
 70
     0
 62
     7
  6
CONTINUOUS
  0
LAYER
  2
95
 70
     0
 62
     7
  6
CONTINUOUS
  0
LAYER
  2
96
 70
     0
 62
     7
  6
CONTINUOUS
  0
LAYER
  2
97
 70
     0
 62
     7
  6
CONTINUOUS
  0
LAYER
  2
98
 70
     0
 62
     7
  6
CONTINUOUS
  0
LAYER
  2
99
 70
     0
 62
     7
  6
CONTINUOUS
  0
LAYER
  2
100
 70
     0
 62
     7
  6
CONTINUOUS
  0
LAYER
  2
101
 70
     0
 62
     7
  6
CONTINUOUS
  0
LAYER
  2
102
 70
     0
 62
     7
  6
CONTINUOUS
  0
LAYER
  2
103
 70
     0
 62
     7
  6
CONTINUOUS
  0
LAYER
  2
104
 70
     0
 62
     7
  6
CONTINUOUS
  0
LAYER
  2
105
 70
     0
 62
     7
  6
CONTINUOUS
  0
LAYER
  2
106
 70
     0
 62
     7
  6
CONTINUOUS
  0
LAYER
  2
107
 70
     0
 62
     7
  6
CONTINUOUS
  0
LAYER
  2
108
 70
     0
 62
     7
  6
CONTINUOUS
  0
LAYER
  2
109
 70
     0
 62
     7
  6
CONTINUOUS
  0
LAYER
  2
110
 70
     0
 62
     7
  6
CONTINUOUS
  0
LAYER
  2
111
 70
     0
 62
     7
  6
CONTINUOUS
  0
LAYER
  2
112
 70
     0
 62
     7
  6
CONTINUOUS
  0
LAYER
  2
113
 70
     0
 62
     7
  6
CONTINUOUS
  0
LAYER
  2
114
 70
     0
 62
     7
  6
CONTINUOUS
  0
LAYER
  2
115
 70
     0
 62
     7
  6
CONTINUOUS
  0
LAYER
  2
116
 70
     0
 62
     7
  6
CONTINUOUS
  0
LAYER
  2
117
 70
     0
 62
     7
  6
CONTINUOUS
  0
LAYER
  2
118
 70
     0
 62
     7
  6
CONTINUOUS
  0
LAYER
  2
119
 70
     0
 62
     7
  6
CONTINUOUS
  0
LAYER
  2
120
 70
     0
 62
     7
  6
CONTINUOUS
  0
LAYER
  2
121
 70
     0
 62
     7
  6
CONTINUOUS
  0
LAYER
  2
122
 70
     0
 62
     7
  6
CONTINUOUS
  0
LAYER
  2
123
 70
     0
 62
     7
  6
CONTINUOUS
  0
LAYER
  2
124
 70
     0
 62
     7
  6
CONTINUOUS
  0
LAYER
  2
125
 70
     0
 62
     7
  6
CONTINUOUS
  0
LAYER
  2
126
 70
     0
 62
     7
  6
CONTINUOUS
  0
LAYER
  2
127
 70
     0
 62
     7
  6
CONTINUOUS
  0
LAYER
  2
128
 70
     0
 62
     7
  6
CONTINUOUS
  0
ENDTAB
  0
TABLE
  2
STYLE
 70
    81
  0
STYLE
  2
STANDARD
 70
     0
 40
0.0
 41
1.0
 50
0.0
 71
     0
 42
0.2
  3
txt.shx
  4
extfont.shx
  0
STYLE
  2
KANJI0
 70
     0
 40
15.5999988
 41
0.75
 50
0.0
 71
     0
 42
15.5999988
  3
txt.shx
  4
extfont.shx
  0
STYLE
  2
KANJI1
 70
     0
 40
11.999997477
 41
0.6
 50
0.0
 71
     0
 42
11.999997477
  3
txt.shx
  4
extfont.shx
  0
STYLE
  2
KANJI2
 70
     0
 40
14.399996972
 41
0.9
 50
0.0
 71
     0
 42
14.399996972
  3
txt.shx
  4
extfont.shx
  0
STYLE
  2
KANJI3
 70
     0
 40
17.999996215
 41
0.9
 50
0.0
 71
     0
 42
17.999996215
  3
txt.shx
  4
extfont.shx
  0
STYLE
  2
KANJI4
 70
     0
 40
10.3999992
 41
0.6
 50
0.0
 71
     0
 42
10.3999992
  3
txt.shx
  4
extfont.shx
  0
STYLE
  2
KANJI5
 70
     0
 40
12.47999904
 41
0.6
 50
0.0
 71
     0
 42
12.47999904
  3
txt.shx
  4
extfont.shx
  0
STYLE
  2
KANJI6
 70
     0
 40
18.1999986
 41
0.42031746
 50
0.0
 71
     0
 42
18.1999986
  3
txt.shx
  4
extfont.shx
  0
STYLE
  2
KANJI7
 70
     0
 40
31.1999976
 41
0.9
 50
0.0
 71
     0
 42
31.1999976
  3
txt.shx
  4
extfont.shx
  0
STYLE
  2
KANJI8
 70
     0
 40
21.6
 41
1.111111111
 50
0.0
 71
     0
 42
21.6
  3
txt.shx
  4
extfont.shx
  0
STYLE
  2
KANJI9
 70
     0
 40
10.3999992
 41
0.8
 50
0.0
 71
     0
 42
10.3999992
  3
txt.shx
  4
extfont.shx
  0
STYLE
  2
KANJI10
 70
     0
 40
12.47999904
 41
0.8
 50
0.0
 71
     0
 42
12.47999904
  3
txt.shx
  4
extfont.shx
  0
STYLE
  2
KANJI11
 70
     0
 40
30.0
 41
1.0
 50
0.0
 71
     0
 42
30.0
  3
txt.shx
  4
extfont.shx
  0
STYLE
  2
KANJI12
 70
     0
 40
30.0
 41
1.0
 50
0.0
 71
     0
 42
30.0
  3
txt.shx
  4
extfont.shx
  0
STYLE
  2
KANJI13
 70
     0
 40
30.0
 41
0.8
 50
0.0
 71
     0
 42
30.0
  3
txt.shx
  4
extfont.shx
  0
STYLE
  2
KANJI14
 70
     0
 40
24.0
 41
1.0
 50
0.0
 71
     0
 42
24.0
  3
txt.shx
  4
extfont.shx
  0
STYLE
  2
KANJI15
 70
     0
 40
21.0
 41
0.857142857
 50
0.0
 71
     0
 42
21.0
  3
txt.shx
  4
extfont.shx
  0
STYLE
  2
KANJI16
 70
     0
 40
27.0
 41
0.666666667
 50
0.0
 71
     0
 42
27.0
  3
txt.shx
  4
extfont.shx
  0
STYLE
  2
KANJI17
 70
     0
 40
21.0
 41
0.793650794
 50
0.0
 71
     0
 42
21.0
  3
txt.shx
  4
extfont.shx
  0
STYLE
  2
KANJI18
 70
     0
 40
30.0
 41
0.8
 50
0.0
 71
     0
 42
30.0
  3
txt.shx
  4
extfont.shx
  0
STYLE
  2
KANJI19
 70
     0
 40
18.0
 41
0.9
 50
0.0
 71
     0
 42
18.0
  3
txt.shx
  4
extfont.shx
  0
STYLE
  2
KANJI20
 70
     0
 40
18.0
 41
0.9
 50
0.0
 71
     0
 42
18.0
  3
txt.shx
  4
extfont.shx
  0
STYLE
  2
KANJI21
 70
     0
 40
13.86
 41
0.9
 50
0.0
 71
     0
 42
13.86
  3
txt.shx
  4
extfont.shx
  0
STYLE
  2
KANJI22
 70
     0
 40
24.0
 41
0.9
 50
0.0
 71
     0
 42
24.0
  3
txt.shx
  4
extfont.shx
  0
STYLE
  2
KANJI23
 70
     0
 40
21.0
 41
0.857142857
 50
0.0
 71
     0
 42
21.0
  3
txt.shx
  4
extfont.shx
  0
STYLE
  2
KANJI24
 70
     0
 40
15.0
 41
0.9
 50
0.0
 71
     0
 42
15.0
  3
txt.shx
  4
extfont.shx
  0
STYLE
  2
KANJI25
 70
     0
 40
18.0
 41
0.766666667
 50
0.0
 71
     0
 42
18.0
  3
txt.shx
  4
extfont.shx
  0
STYLE
  2
KANJI26
 70
     0
 40
10.0
 41
0.85
 50
0.0
 71
     0
 42
10.0
  3
txt.shx
  4
extfont.shx
  0
STYLE
  2
KANJI27
 70
     0
 40
10.0
 41
0.75
 50
0.0
 71
     0
 42
10.0
  3
txt.shx
  4
extfont.shx
  0
STYLE
  2
KANJI28
 70
     0
 40
15.0
 41
0.9
 50
0.0
 71
     0
 42
15.0
  3
txt.shx
  4
extfont.shx
  0
STYLE
  2
KANJI29
 70
     0
 40
20.0
 41
0.925
 50
0.0
 71
     0
 42
20.0
  3
txt.shx
  4
extfont.shx
  0
STYLE
  2
KANJI30
 70
     0
 40
12.0
 41
0.9
 50
0.0
 71
     0
 42
12.0
  3
txt.shx
  4
extfont.shx
  0
STYLE
  2
KANJI31
 70
     0
 40
16.17
 41
0.9
 50
0.0
 71
     0
 42
16.17
  3
txt.shx
  4
extfont.shx
  0
STYLE
  2
KANJI32
 70
     0
 40
15.6
 41
0.925
 50
0.0
 71
     0
 42
15.6
  3
txt.shx
  4
extfont.shx
  0
STYLE
  2
KANJI33
 70
     0
 40
10.933904043
 41
0.9
 50
0.0
 71
     0
 42
10.933904043
  3
txt.shx
  4
extfont.shx
  0
STYLE
  2
KANJI34
 70
     0
 40
15.185977837
 41
0.66671875
 50
0.0
 71
     0
 42
15.185977837
  3
txt.shx
  4
extfont.shx
  0
STYLE
  2
KANJI35
 70
     0
 40
18.223173404
 41
0.9
 50
0.0
 71
     0
 42
18.223173404
  3
txt.shx
  4
extfont.shx
  0
STYLE
  2
KANJI36
 70
     0
 40
14.578538724
 41
0.9
 50
0.0
 71
     0
 42
14.578538724
  3
txt.shx
  4
extfont.shx
  0
STYLE
  2
KANJI37
 70
     0
 40
11.661
 41
0.822608696
 50
0.0
 71
     0
 42
11.661
  3
txt.shx
  4
extfont.shx
  0
STYLE
  2
KANJI38
 70
     0
 40
13.182
 41
0.85
 50
0.0
 71
     0
 42
13.182
  3
txt.shx
  4
extfont.shx
  0
STYLE
  2
KANJI39
 70
     0
 40
11.8638
 41
0.726495726
 50
0.0
 71
     0
 42
11.8638
  3
txt.shx
  4
extfont.shx
  0
STYLE
  2
KANJI40
 70
     4
 40
55.0
 41
0.440318182
 50
0.0
 71
     0
 42
55.0
  3
txt.shx
  4
extfont.shx
  0
STYLE
  2
KANJI41
 70
     0
 40
17.740702234
 41
0.880962996
 50
0.0
 71
     0
 42
17.740702234
  3
txt.shx
  4
extfont.shx
  0
STYLE
  2
KANJI42
 70
     0
 40
11.7
 41
0.8
 50
0.0
 71
     0
 42
11.7
  3
txt.shx
  4
extfont.shx
  0
STYLE
  2
KANJI43
 70
     0
 40
15.0
 41
0.911
 50
0.0
 71
     0
 42
15.0
  3
txt.shx
  4
extfont.shx
  0
STYLE
  2
KANJI44
 70
     0
 40
20.0
 41
0.925
 50
0.0
 71
     0
 42
20.0
  3
txt.shx
  4
extfont.shx
  0
STYLE
  2
KANJI45
 70
     0
 40
15.0
 41
0.92
 50
0.0
 71
     0
 42
15.0
  3
txt.shx
  4
extfont.shx
  0
STYLE
  2
KANJI46
 70
     0
 40
15.36
 41
0.9
 50
0.0
 71
     0
 42
15.36
  3
txt.shx
  4
extfont.shx
  0
STYLE
  2
KANJI47
 70
     0
 40
14.4
 41
0.9
 50
0.0
 71
     0
 42
14.4
  3
txt.shx
  4
extfont.shx
  0
STYLE
  2
KANJI48
 70
     0
 40
14.4
 41
0.9
 50
0.0
 71
     0
 42
14.4
  3
txt.shx
  4
extfont.shx
  0
STYLE
  2
KANJI49
 70
     0
 40
16.8
 41
0.9
 50
0.0
 71
     0
 42
16.8
  3
txt.shx
  4
extfont.shx
  0
STYLE
  2
KANJI50
 70
     0
 40
12.96
 41
0.740740741
 50
0.0
 71
     0
 42
12.96
  3
txt.shx
  4
extfont.shx
  0
STYLE
  2
KANJI51
 70
     0
 40
16.8
 41
0.857142857
 50
0.0
 71
     0
 42
16.8
  3
txt.shx
  4
extfont.shx
  0
STYLE
  2
KANJI52
 70
     0
 40
14.4
 41
0.833333333
 50
0.0
 71
     0
 42
14.4
  3
txt.shx
  4
extfont.shx
  0
STYLE
  2
KANJI53
 70
     0
 40
21.0
 41
0.571428571
 50
0.0
 71
     0
 42
21.0
  3
txt.shx
  4
extfont.shx
  0
STYLE
  2
KANJI54
 70
     0
 40
22.8
 41
0.9
 50
0.0
 71
     0
 42
22.8
  3
txt.shx
  4
extfont.shx
  0
STYLE
  2
KANJI55
 70
     0
 40
22.8
 41
0.9
 50
0.0
 71
     0
 42
22.8
  3
txt.shx
  4
extfont.shx
  0
STYLE
  2
KANJI56
 70
     0
 40
27.0
 41
0.9
 50
0.0
 71
     0
 42
27.0
  3
txt.shx
  4
extfont.shx
  0
STYLE
  2
KANJI57
 70
     0
 40
22.8
 41
0.9
 50
0.0
 71
     0
 42
22.8
  3
txt.shx
  4
extfont.shx
  0
STYLE
  2
KANJI58
 70
     0
 40
22.8
 41
0.9
 50
0.0
 71
     0
 42
22.8
  3
txt.shx
  4
extfont.shx
  0
STYLE
  2
KANJI59
 70
     0
 40
22.8
 41
0.9
 50
0.0
 71
     0
 42
22.8
  3
txt.shx
  4
extfont.shx
  0
STYLE
  2
KANJI60
 70
     0
 40
22.8
 41
0.9
 50
0.0
 71
     0
 42
22.8
  3
txt.shx
  4
extfont.shx
  0
STYLE
  2
KANJI61
 70
     0
 40
22.8
 41
0.9
 50
0.0
 71
     0
 42
22.8
  3
txt.shx
  4
extfont.shx
  0
STYLE
  2
KANJI62
 70
     0
 40
22.8
 41
0.9
 50
0.0
 71
     0
 42
22.8
  3
txt.shx
  4
extfont.shx
  0
STYLE
  2
KANJI63
 70
     4
 40
21.0
 41
0.9
 50
0.0
 71
     0
 42
21.0
  3
txt.shx
  4
extfont.shx
  0
STYLE
  2
KANJI64
 70
     4
 40
21.0
 41
0.9
 50
0.0
 71
     0
 42
21.0
  3
txt.shx
  4
extfont.shx
  0
STYLE
  2
KANJI65
 70
     0
 40
21.0
 41
0.9
 50
0.0
 71
     0
 42
21.0
  3
txt.shx
  4
extfont.shx
  0
STYLE
  2
KANJI66
 70
     0
 40
18.0
 41
0.9
 50
0.0
 71
     0
 42
18.0
  3
txt.shx
  4
extfont.shx
  0
STYLE
  2
KANJI67
 70
     0
 40
21.0
 41
0.9
 50
0.0
 71
     0
 42
21.0
  3
txt.shx
  4
extfont.shx
  0
STYLE
  2
KANJI68
 70
     0
 40
22.8
 41
0.9
 50
0.0
 71
     0
 42
22.8
  3
txt.shx
  4
extfont.shx
  0
STYLE
  2
KANJI69
 70
     0
 40
22.8
 41
0.9
 50
0.0
 71
     0
 42
22.8
  3
txt.shx
  4
extfont.shx
  0
STYLE
  2
KANJI70
 70
     0
 40
21.0
 41
0.628571429
 50
0.0
 71
     0
 42
21.0
  3
txt.shx
  4
extfont.shx
  0
STYLE
  2
KANJI71
 70
     0
 40
20.4
 41
0.705882353
 50
0.0
 71
     0
 42
20.4
  3
txt.shx
  4
extfont.shx
  0
STYLE
  2
KANJI72
 70
     0
 40
18.0
 41
0.8
 50
0.0
 71
     0
 42
18.0
  3
txt.shx
  4
extfont.shx
  0
STYLE
  2
KANJI73
 70
     0
 40
19.2
 41
0.71875
 50
0.0
 71
     0
 42
19.2
  3
txt.shx
  4
extfont.shx
  0
STYLE
  2
KANJI74
 70
     0
 40
19.2
 41
0.8
 50
0.0
 71
     0
 42
19.2
  3
txt.shx
  4
extfont.shx
  0
STYLE
  2
KANJI75
 70
     0
 40
21.0
 41
0.571428571
 50
0.0
 71
     0
 42
21.0
  3
txt.shx
  4
extfont.shx
  0
STYLE
  2
KANJI76
 70
     0
 40
18.0
 41
0.833333333
 50
0.0
 71
     0
 42
18.0
  3
txt.shx
  4
extfont.shx
  0
STYLE
  2
KANJI77
 70
     0
 40
21.0
 41
0.9
 50
0.0
 71
     0
 42
21.0
  3
txt.shx
  4
extfont.shx
  0
STYLE
  2
KANJI78
 70
     0
 40
21.0
 41
0.857142857
 50
0.0
 71
     0
 42
21.0
  3
txt.shx
  4
extfont.shx
  0
STYLE
  2
KANJI79
 70
     0
 40
18.0
 41
0.833333333
 50
0.0
 71
     0
 42
18.0
  3
txt.shx
  4
extfont.shx
  0
ENDTAB
  0
TABLE
  2
VIEW
 70
     0
  0
ENDTAB
  0
ENDSEC
  0
SECTION
  2
BLOCKS
  0
ENDSEC
  0
SECTION
  2
ENTITIES
  0
POLYLINE
  8
0
  6
CONTINUOUS
 62
     6
 66
     1
  0
VERTEX
  8
0
  6
CONTINUOUS
 62
     6
 10
71.92
 20
65.7
 30
0.0
  0
VERTEX
  8
0
  6
CONTINUOUS
 62
     6
 10
71.92
 20
1679.7
 30
0.0
  0
VERTEX
  8
0
  6
CONTINUOUS
 62
     6
 10
2393.92
 20
1679.7
 30
0.0
  0
SEQEND
  0
LINE
  8
0
  6
CONTINUOUS
 62
     6
 10
77.919998738
 20
71.699998738
 30
0.0
 11
467.919916738
 21
71.699998738
 31
0.0
  0
LINE
  8
0
  6
CONTINUOUS
 62
     6
 10
77.919998738
 20
71.699998738
 30
0.0
 11
77.919998738
 21
155.699981077
 31
0.0
  0
LINE
  8
0
  6
CONTINUOUS
 62
     6
 10
77.919998738
 20
113.699989908
 30
0.0
 11
467.919916738
 21
113.699989908
 31
0.0
  0
LINE
  8
0
  6
CONTINUOUS
 62
     4
 10
3.6199996
 20
70.8999996
 30
0.0
 11
66.0199948
 21
70.8999996
 31
0.0
  0
LINE
  8
0
  6
CONTINUOUS
 62
     4
 10
3.6199996
 20
102.0999972
 30
0.0
 11
66.0199948
 21
102.0999972
 31
0.0
  0
LINE
  8
0
  6
CONTINUOUS
 62
     4
 10
3.6199996
 20
133.2999948
 30
0.0
 11
66.0199948
 21
133.2999948
 31
0.0
  0
LINE
  8
0
  6
CONTINUOUS
 62
     4
 10
3.6199996
 20
164.4999924
 30
0.0
 11
66.0199948
 21
164.4999924
 31
0.0
  0
LINE
  8
0
  6
CONTINUOUS
 62
     4
 10
3.6199996
 20
195.69999
 30
0.0
 11
66.0199948
 21
195.69999
 31
0.0
  0
LINE
  8
0
  6
CONTINUOUS
 62
     4
 10
3.6199996
 20
226.8999876
 30
0.0
 11
66.0199948
 21
226.8999876
 31
0.0
  0
LINE
  8
0
  6
CONTINUOUS
 62
     4
 10
3.6199996
 20
258.0999852
 30
0.0
 11
66.0199948
 21
258.0999852
 31
0.0
  0
LINE
  8
0
  6
CONTINUOUS
 62
     4
 10
3.6199996
 20
289.2999828
 30
0.0
 11
66.0199948
 21
289.2999828
 31
0.0
  0
LINE
  8
0
  6
CONTINUOUS
 62
     4
 10
3.6199996
 20
320.4999804
 30
0.0
 11
66.0199948
 21
320.4999804
 31
0.0
  0
LINE
  8
0
  6
CONTINUOUS
 62
     4
 10
3.6199996
 20
351.699978
 30
0.0
 11
66.0199948
 21
351.699978
 31
0.0
  0
LINE
  8
0
  6
CONTINUOUS
 62
     4
 10
66.0199948
 20
70.8999996
 30
0.0
 11
66.0199948
 21
351.699978
 31
0.0
  0
LINE
  8
0
  6
CONTINUOUS
 62
     4
 10
34.8199972
 20
70.8999996
 30
0.0
 11
34.8199972
 21
320.4999804
 31
0.0
  0
TEXT
  8
0
  6
CONTINUOUS
 62
     4
 10
14.27999878
 20
79.9999989
 30
1.55999988
 40
15.5999988
  1
計
 50
0.0
 41
0.75
 51
0.0
  7
KANJI0
  0
TEXT
  8
0
  6
CONTINUOUS
 62
     4
 10
14.27999878
 20
142.91999406
 30
1.55999988
 40
15.5999988
  1
設
 50
0.0
 41
0.75
 51
0.0
  7
KANJI0
  0
TEXT
  8
0
  6
CONTINUOUS
 62
     4
 10
14.27999878
 20
173.5999917
 30
1.55999988
 40
15.5999988
  1
管
 50
0.0
 41
0.75
 51
0.0
  7
KANJI0
  0
TEXT
  8
0
  6
CONTINUOUS
 62
     4
 10
14.27999878
 20
204.7999893
 30
1.55999988
 40
15.5999988
  1
製
 50
0.0
 41
0.75
 51
0.0
  7
KANJI0
  0
TEXT
  8
0
  6
CONTINUOUS
 62
     4
 10
14.27999878
 20
235.9999869
 30
1.55999988
 40
15.5999988
  1
資
 50
0.0
 41
0.75
 51
0.0
  7
KANJI0
  0
TEXT
  8
0
  6
CONTINUOUS
 62
     4
 10
14.27999878
 20
267.1999845
 30
1.55999988
 40
15.5999988
  1
営
 50
0.0
 41
0.75
 51
0.0
  7
KANJI0
  0
TEXT
  8
0
  6
CONTINUOUS
 62
     4
 10
14.27999878
 20
298.3999821
 30
1.55999988
 40
15.5999988
  1
客
 50
0.0
 41
0.75
 51
0.0
  7
KANJI0
  0
TEXT
  8
0
  6
CONTINUOUS
 62
     4
 10
14.0199988
 20
330.8999796
 30
1.55999988
 40
15.5999988
  1
出　図
 50
0.0
 41
0.75
 51
0.0
  7
KANJI0
  0
LINE
  8
0
  6
CONTINUOUS
 62
     4
 10
3.6199996
 20
70.8999996
 30
0.0
 11
3.6199996
 21
351.699978
 31
0.0
  0
LINE
  8
0
  6
CONTINUOUS
 62
     6
 10
2393.92
 20
65.7
 30
0.0
 11
71.92
 21
65.7
 31
0.0
  0
TEXT
  8
0
  6
CONTINUOUS
 62
     4
 10
89.919996215
 20
95.699993692
 30
1.199999748
 40
11.999997477
  1
ＰＡＲＴＳ　ＬＩＳＴ
 50
0.0
 41
0.6
 51
0.0
  7
KANJI1
  0
TEXT
  8
0
  6
CONTINUOUS
 62
     4
 10
89.919996215
 20
77.699997477
 30
1.439999697
 40
14.399996972
  1
部品表
 50
0.0
 41
0.9
 51
0.0
  7
KANJI2
  0
TEXT
  8
0
  6
CONTINUOUS
 62
     3
 10
89.919996215
 20
125.699987385
 30
1.799999622
 40
17.999996215
  1
ＰＬ
 50
0.0
 41
0.9
 51
0.0
  7
KANJI3
  0
TEXT
  8
0
  6
CONTINUOUS
 62
     4
 10
359.919939446
 20
95.699993692
 30
1.199999748
 40
11.999997477
  1
Ｎ０．
 50
0.0
 41
0.6
 51
0.0
  7
KANJI1
  0
TEXT
  8
0
  6
CONTINUOUS
 62
     4
 10
359.919939446
 20
77.699997477
 30
1.439999697
 40
14.399996972
  1
項番
 50
0.0
 41
0.9
 51
0.0
  7
KANJI2
  0
LINE
  8
0
  6
CONTINUOUS
 62
     6
 10
347.919941969
 20
71.699998738
 30
0.0
 11
347.919941969
 21
155.699981077
 31
0.0
  0
LINE
  8
0
  6
CONTINUOUS
 62
     6
 10
2393.92
 20
1679.7
 30
0.0
 11
2393.92
 21
65.7
 31
0.0
  0
LINE
  8
0
  6
CONTINUOUS
 62
     6
 10
1587.920062
 20
70.8999996
 30
0.0
 11
1587.920062
 21
403.699974
 31
0.0
  0
LINE
  8
0
  6
CONTINUOUS
 62
     6
 10
2388.7200004
 20
70.8999996
 30
0.0
 11
2388.7200004
 21
403.699974
 31
0.0
  0
LINE
  8
0
  6
CONTINUOUS
 62
     4
 10
1777.7200474
 20
70.8999996
 30
0.0
 11
1777.7200474
 21
403.699974
 31
0.0
  0
LINE
  8
0
  6
CONTINUOUS
 62
     4
 10
1587.920062
 20
112.4999964
 30
0.0
 11
1777.7200474
 21
112.4999964
 31
0.0
  0
TEXT
  8
0
  6
CONTINUOUS
 62
     4
 10
1598.3200612
 20
94.2999978
 30
1.03999992
 40
10.3999992
  1
ＳＣＡＬＥ
 50
0.0
 41
0.6
 51
0.0
  7
KANJI4
  0
TEXT
  8
0
  6
CONTINUOUS
 62
     4
 10
1598.3200612
 20
78.699999
 30
1.247999904
 40
12.47999904
  1
尺度
 50
0.0
 41
0.6
 51
0.0
  7
KANJI5
  0
LINE
  8
0
  6
CONTINUOUS
 62
     6
 10
1177.1200936
 20
112.4999964
 30
0.0
 11
1587.920062
 21
112.4999964
 31
0.0
  0
LINE
  8
0
  6
CONTINUOUS
 62
     6
 10
1177.1200936
 20
70.8999996
 30
0.0
 11
2388.7200004
 21
70.8999996
 31
0.0
  0
TEXT
  8
0
  6
CONTINUOUS
 62
     6
 10
1782.920047
 20
94.2999978
 30
0.0
 40
18.1999986
  1
ＵＮＩＴＥＣ　ＩＮＤＵＳＴＲＹ　ＣＯ．，ＬＴＤ．
 50
0.0
 41
0.42031746
 51
0.0
  7
KANJI6
  0
TEXT
  8
0
  6
CONTINUOUS
 62
     6
 10
2038.175027365
 20
87.53999832
 30
3.11999976
 40
31.1999976
  1
ユニテック工業株式会社
 50
0.0
 41
0.9
 51
0.0
  7
KANJI7
  0
LINE
  8
0
  6
CONTINUOUS
 62
     6
 10
1996.575030565
 20
98.45999748
 30
0.0
 11
1982.847031621
 21
98.45999748
 31
0.0
  0
LINE
  8
0
  6
CONTINUOUS
 62
     6
 10
1996.575030565
 20
100.955997288
 30
0.0
 11
1982.847031621
 21
100.955997288
 31
0.0
  0
LINE
  8
0
  6
CONTINUOUS
 62
     6
 10
1996.575030565
 20
98.45999748
 30
0.0
 11
2010.303029509
 21
98.45999748
 31
0.0
  0
LINE
  8
0
  6
CONTINUOUS
 62
     6
 10
1996.575030565
 20
100.955997288
 30
0.0
 11
2010.303029509
 21
100.955997288
 31
0.0
  0
LINE
  8
0
  6
CONTINUOUS
 62
     6
 10
2010.303029509
 20
100.955997288
 30
0.0
 11
2010.303029509
 21
98.45999748
 31
0.0
  0
ARC
  8
0
  6
CONTINUOUS
 62
     6
 10
2013.423029269
 20
99.707997384
 30
0.0
 40
12.47999904
 50
185.739170477
 51
90.0
  0
ARC
  8
0
  6
CONTINUOUS
 62
     6
 10
2013.423029269
 20
99.707997384
 30
0.0
 40
14.975998848
 50
184.780191847
 51
90.0
  0
LINE
  8
0
  6
CONTINUOUS
 62
     6
 10
1982.847031621
 20
98.45999748
 30
0.0
 11
1982.847031621
 21
100.955997288
 31
0.0
  0
ARC
  8
0
  6
CONTINUOUS
 62
     6
 10
1979.727031861
 20
99.707997384
 30
0.0
 40
12.47999904
 50
90.0
 51
354.260829523
  0
ARC
  8
0
  6
CONTINUOUS
 62
     6
 10
1979.727031861
 20
99.707997384
 30
0.0
 40
14.975998848
 50
90.0
 51
355.219808153
  0
LINE
  8
0
  6
CONTINUOUS
 62
     6
 10
1994.703030709
 20
114.683996232
 30
0.0
 11
1994.703030709
 21
112.187996424
 31
0.0
  0
LINE
  8
0
  6
CONTINUOUS
 62
     6
 10
1979.727031861
 20
112.187996424
 30
0.0
 11
1994.703030709
 21
112.187996424
 31
0.0
  0
LINE
  8
0
  6
CONTINUOUS
 62
     6
 10
1998.447030421
 20
114.683996232
 30
0.0
 11
1998.447030421
 21
112.187996424
 31
0.0
  0
LINE
  8
0
  6
CONTINUOUS
 62
     6
 10
2013.423029269
 20
112.187996424
 30
0.0
 11
1998.447030421
 21
112.187996424
 31
0.0
  0
TEXT
  8
0
  6
CONTINUOUS
 62
     4
 10
1309.7200834
 20
94.2999978
 30
1.03999992
 40
10.3999992
  1
ＢＹ
 50
0.0
 41
0.6
 51
0.0
  7
KANJI4
  0
TEXT
  8
0
  6
CONTINUOUS
 62
     4
 10
1424.1200746
 20
94.2999978
 30
1.03999992
 40
10.3999992
  1
ＤＥＳＣＲＩＰＴＩＯＮ
 50
0.0
 41
0.6
 51
0.0
  7
KANJI4
  0
TEXT
  8
0
  6
CONTINUOUS
 62
     4
 10
1309.7200834
 20
78.699999
 30
1.247999904
 40
12.47999904
  1
担当
 50
0.0
 41
0.6
 51
0.0
  7
KANJI5
  0
TEXT
  8
0
  6
CONTINUOUS
 62
     4
 10
1439.7200734
 20
78.699999
 30
1.247999904
 40
12.47999904
  1
記　　　　事
 50
0.0
 41
0.6
 51
0.0
  7
KANJI5
  0
LINE
  8
0
  6
CONTINUOUS
 62
     4
 10
1199.2200919
 20
104.699997
 30
0.0
 11
1182.3200932
 21
78.699999
 31
0.0
  0
TEXT
  8
0
  6
CONTINUOUS
 62
     4
 10
1242.1200886
 20
94.2999978
 30
1.03999992
 40
10.3999992
  1
ＤＡＴＥ
 50
0.0
 41
0.6
 51
0.0
  7
KANJI4
  0
TEXT
  8
0
  6
CONTINUOUS
 62
     4
 10
1249.920088
 20
78.699999
 30
1.247999904
 40
12.47999904
  1
日付
 50
0.0
 41
0.6
 51
0.0
  7
KANJI5
  0
LINE
  8
0
  6
CONTINUOUS
 62
     4
 10
1182.3200932
 20
78.699999
 30
0.0
 11
1216.1200906
 21
78.699999
 31
0.0
  0
LINE
  8
0
  6
CONTINUOUS
 62
     4
 10
1199.2200919
 20
104.699997
 30
0.0
 11
1216.1200906
 21
78.699999
 31
0.0
  0
LINE
  8
0
  6
CONTINUOUS
 62
     6
 10
1177.1200936
 20
70.8999996
 30
0.0
 11
1177.1200936
 21
112.4999964
 31
0.0
  0
LINE
  8
0
  6
CONTINUOUS
 62
     4
 10
1221.3200902
 20
70.8999996
 30
0.0
 11
1221.3200902
 21
112.4999964
 31
0.0
  0
LINE
  8
0
  6
CONTINUOUS
 62
     4
 10
1294.1200846
 20
70.8999996
 30
0.0
 11
1294.1200846
 21
112.4999964
 31
0.0
  0
LINE
  8
0
  6
CONTINUOUS
 62
     4
 10
1340.920081
 20
70.8999996
 30
0.0
 11
1340.920081
 21
112.4999964
 31
0.0
  0
TEXT
  8
0
  6
CONTINUOUS
 62
     4
 10
1598.3200612
 20
302.2999818
 30
1.03999992
 40
10.3999992
  1
ＣＯＤＥ
 50
0.0
 41
0.6
 51
0.0
  7
KANJI4
  0
LINE
  8
0
  6
CONTINUOUS
 62
     4
 10
1587.920062
 20
320.4999804
 30
0.0
 11
2388.7200004
 21
320.4999804
 31
0.0
  0
TEXT
  8
0
  6
CONTINUOUS
 62
     4
 10
1598.3200612
 20
286.699983
 30
1.247999904
 40
12.47999904
  1
分類
 50
0.0
 41
0.6
 51
0.0
  7
KANJI5
  0
TEXT
  8
0
  6
CONTINUOUS
 62
     4
 10
1606.42
 20
326.7
 30
6.0
 40
21.6
  1
ご注文主
 50
0.0
 41
1.111111111
 51
0.0
  7
KANJI8
  0
TEXT
  8
0
  6
CONTINUOUS
 62
     4
 10
1598.3200612
 20
177.4999914
 30
1.03999992
 40
10.3999992
  1
ＤＲＡＷＮ
 50
0.0
 41
0.6
 51
0.0
  7
KANJI4
  0
TEXT
  8
0
  6
CONTINUOUS
 62
     4
 10
1598.3200612
 20
219.0999882
 30
1.03999992
 40
10.3999992
  1
ＤＥＳＩＧＮ
 50
0.0
 41
0.6
 51
0.0
  7
KANJI4
  0
TEXT
  8
0
  6
CONTINUOUS
 62
     4
 10
1598.3200612
 20
260.699985
 30
1.03999992
 40
10.3999992
  1
ＣＨＥＣＫ
 50
0.0
 41
0.6
 51
0.0
  7
KANJI4
  0
LINE
  8
0
  6
CONTINUOUS
 62
     4
 10
1587.920062
 20
237.2999868
 30
0.0
 11
1777.7200474
 21
237.2999868
 31
0.0
  0
LINE
  8
0
  6
CONTINUOUS
 62
     4
 10
1587.920062
 20
195.69999
 30
0.0
 11
1777.7200474
 21
195.69999
 31
0.0
  0
LINE
  8
0
  6
CONTINUOUS
 62
     4
 10
1587.920062
 20
278.8999836
 30
0.0
 11
1777.7200474
 21
278.8999836
 31
0.0
  0
TEXT
  8
0
  6
CONTINUOUS
 62
     4
 10
1598.3200612
 20
203.4999894
 30
1.247999904
 40
12.47999904
  1
設計
 50
0.0
 41
0.6
 51
0.0
  7
KANJI5
  0
TEXT
  8
0
  6
CONTINUOUS
 62
     4
 10
1598.3200612
 20
245.0999862
 30
1.247999904
 40
12.47999904
  1
検図
 50
0.0
 41
0.6
 51
0.0
  7
KANJI5
  0
LINE
  8
0
  6
CONTINUOUS
 62
     4
 10
1793.06004622
 20
278.8999836
 30
0.0
 11
2388.7200004
 21
278.8999836
 31
0.0
  0
LINE
  8
0
  6
CONTINUOUS
 62
     4
 10
1777.7200474
 20
195.69999
 30
0.0
 11
2388.7200004
 21
195.69999
 31
0.0
  0
TEXT
  8
0
  6
CONTINUOUS
 62
     4
 10
1788.1200466
 20
177.4999914
 30
1.03999992
 40
10.3999992
  1
ＤＲＡＷＩＮＧ　ＮＯ．
 50
0.0
 41
0.8
 51
0.0
  7
KANJI9
  0
TEXT
  8
0
  6
CONTINUOUS
 62
     4
 10
1788.1200466
 20
219.0999882
 30
1.03999992
 40
10.3999992
  1
ＭＦＧ　ＮＯ．
 50
0.0
 41
0.8
 51
0.0
  7
KANJI9
  0
TEXT
  8
0
  6
CONTINUOUS
 62
     4
 10
1788.1200466
 20
260.699985
 30
1.03999992
 40
10.3999992
  1
ＴＹＰＥ
 50
0.0
 41
0.8
 51
0.0
  7
KANJI9
  0
LINE
  8
0
  6
CONTINUOUS
 62
     4
 10
1793.3200462
 20
237.2999868
 30
0.0
 11
2032.5200278
 21
237.2999868
 31
0.0
  0
TEXT
  8
0
  6
CONTINUOUS
 62
     4
 10
1788.1200466
 20
159.2999928
 30
1.247999904
 40
12.47999904
  1
図　面　番　号
 50
0.0
 41
0.8
 51
0.0
  7
KANJI10
  0
TEXT
  8
0
  6
CONTINUOUS
 62
     4
 10
1788.1200466
 20
200.8999896
 30
1.247999904
 40
12.47999904
  1
製番
 50
0.0
 41
0.8
 51
0.0
  7
KANJI10
  0
TEXT
  8
0
  6
CONTINUOUS
 62
     4
 10
1788.1200466
 20
242.4999864
 30
1.247999904
 40
12.47999904
  1
機種
 50
0.0
 41
0.8
 51
0.0
  7
KANJI10
  0
LINE
  8
0
  6
CONTINUOUS
 62
     4
 10
1587.920062
 20
154.0999932
 30
0.0
 11
1777.7200474
 21
154.0999932
 31
0.0
  0
TEXT
  8
0
  6
CONTINUOUS
 62
     4
 10
1598.3200612
 20
135.8999946
 30
1.03999992
 40
10.3999992
  1
ＤＡＴＥ
 50
0.0
 41
0.6
 51
0.0
  7
KANJI4
  0
TEXT
  8
0
  6
CONTINUOUS
 62
     4
 10
1598.3200612
 20
120.2999958
 30
1.247999904
 40
12.47999904
  1
日付
 50
0.0
 41
0.6
 51
0.0
  7
KANJI5
  0
TEXT
  8
0
  6
CONTINUOUS
 62
     4
 10
1598.3200612
 20
161.8999926
 30
1.247999904
 40
12.47999904
  1
作図
 50
0.0
 41
0.6
 51
0.0
  7
KANJI5
  0
LINE
  8
0
  6
CONTINUOUS
 62
     4
 10
1777.7200474
 20
135.8999946
 30
0.0
 11
2388.7200004
 21
135.8999946
 31
0.0
  0
LINE
  8
0
  6
LTYPE1
 62
     4
 10
2214.5200138
 20
143.699994
 30
0.0
 11
2214.5200138
 21
185.2999908
 31
0.0
  0
LINE
  8
0
  6
LTYPE1
 62
     4
 10
2178.1200166
 20
143.699994
 30
0.0
 11
2178.1200166
 21
185.2999908
 31
0.0
  0
LINE
  8
0
  6
LTYPE1
 62
     4
 10
2141.7200194
 20
143.699994
 30
0.0
 11
2141.7200194
 21
185.2999908
 31
0.0
  0
LINE
  8
0
  6
LTYPE1
 62
     4
 10
2105.3200222
 20
143.699994
 30
0.0
 11
2105.3200222
 21
185.2999908
 31
0.0
  0
LINE
  8
0
  6
LTYPE1
 62
     4
 10
2068.920025
 20
143.699994
 30
0.0
 11
2068.920025
 21
185.2999908
 31
0.0
  0
LINE
  8
0
  6
LTYPE1
 62
     4
 10
2032.5200278
 20
143.699994
 30
0.0
 11
2032.5200278
 21
185.2999908
 31
0.0
  0
LINE
  8
0
  6
LTYPE1
 62
     4
 10
1996.1200306
 20
143.699994
 30
0.0
 11
1996.1200306
 21
185.2999908
 31
0.0
  0
LINE
  8
0
  6
LTYPE1
 62
     4
 10
1959.7200334
 20
143.699994
 30
0.0
 11
1959.7200334
 21
185.2999908
 31
0.0
  0
LINE
  8
0
  6
LTYPE1
 62
     4
 10
1959.7200334
 20
185.2999908
 30
0.0
 11
2214.5200138
 21
185.2999908
 31
0.0
  0
LINE
  8
0
  6
LTYPE1
 62
     4
 10
1959.7200334
 20
143.699994
 30
0.0
 11
2214.5200138
 21
143.699994
 31
0.0
  0
LINE
  8
0
  6
CONTINUOUS
 62
     4
 10
2235.3200122
 20
165.7999923
 30
0.0
 11
2245.7200114
 21
165.7999923
 31
0.0
  0
LINE
  8
0
  6
CONTINUOUS
 62
     4
 10
2300.3200072
 20
150.1999935
 30
0.0
 11
2263.92001
 21
150.1999935
 31
0.0
  0
LINE
  8
0
  6
CONTINUOUS
 62
     4
 10
2263.92001
 20
150.1999935
 30
0.0
 11
2282.1200086
 21
181.3999911
 31
0.0
  0
LINE
  8
0
  6
CONTINUOUS
 62
     4
 10
2282.1200086
 20
181.3999911
 30
0.0
 11
2300.3200072
 21
150.1999935
 31
0.0
  0
TEXT
  8
0
  6
CONTINUOUS
 62
     4
 10
2048.1200266
 20
260.699985
 30
1.03999992
 40
10.3999992
  1
ＴＩＴＬＥ
 50
0.0
 41
0.8
 51
0.0
  7
KANJI9
  0
TEXT
  8
0
  6
CONTINUOUS
 62
     4
 10
2048.1200266
 20
242.4999864
 30
1.247999904
 40
12.47999904
  1
名称
 50
0.0
 41
0.8
 51
0.0
  7
KANJI10
  0
TEXT
  8
0
  6
CONTINUOUS
 62
     2
 10
2132.92
 20
203.7
 30
15.0
 40
30.0
  1
外形寸法図
 50
0.0
 41
1.0
 51
0.0
  7
KANJI11
  0
TEXT
  8
0
  6
CONTINUOUS
 62
     2
 10
2096.92
 20
239.7
 30
4.285714286
 40
30.0
  1
マイティシリンダ
 50
0.0
 41
1.0
 51
0.0
  7
KANJI12
  0
TEXT
  8
0
  6
CONTINUOUS
 62
     2
 10
1928.2200334
 20
149.699994
 30
1.8
 40
30.0
  1
Ａ
 50
0.0
 41
0.8
 51
0.0
  7
KANJI13
  0
CIRCLE
  8
0
  6
CONTINUOUS
 62
     2
 10
1889.2200334
 20
214.199994
 30
0.0
 40
15.0
  0
TEXT
  8
0
  6
CONTINUOUS
 62
     2
 10
1877.9700334
 20
202.949994
 30
1.8
 40
24.0
  1
Ｓ
 50
0.0
 41
1.0
 51
0.0
  7
KANJI14
  0
LINE
  8
0
  6
CONTINUOUS
 62
     6
 10
1994.703030709
 20
114.683996232
 30
0.0
 11
1979.727031861
 21
114.683996232
 31
0.0
  0
LINE
  8
0
  6
CONTINUOUS
 62
     6
 10
1998.447030421
 20
114.683996232
 30
0.0
 11
2013.423029269
 21
114.683996232
 31
0.0
  0
TEXT
  8
0
  6
CONTINUOUS
 62
     2
 10
1654.9200334
 20
164.699994
 30
6.0
 40
21.0
  1
岡田
 50
0.0
 41
0.857142857
 51
0.0
  7
KANJI15
  0
LINE
  8
0
  6
CONTINUOUS
 62
     4
 10
2388.7200004
 20
362.0999772
 30
0.0
 11
2388.7200004
 21
403.699974
 31
0.0
  0
LINE
  8
0
  6
CONTINUOUS
 62
     6
 10
1588.670062
 20
362.0999772
 30
0.0
 11
2389.4700004
 21
362.0999772
 31
0.0
  0
LINE
  8
0
  6
CONTINUOUS
 62
     6
 10
1587.920062
 20
403.699974
 30
0.0
 11
2388.7200004
 21
403.699974
 31
0.0
  0
TEXT
  8
0
  6
CONTINUOUS
 62
     4
 10
1606.42
 20
368.2999968
 30
6.0
 40
21.6
  1
ご用途
 50
0.0
 41
1.111111111
 51
0.0
  7
KANJI8
  0
TEXT
  8
0
  6
CONTINUOUS
 62
     2
 10
1697.92
 20
77.7
 30
1.8
 40
27.0
  1
１／６
 50
0.0
 41
0.666666667
 51
0.0
  7
KANJI16
  0
LINE
  8
0
  6
CONTINUOUS
 62
     6
 10
77.919998738
 20
155.699981077
 30
0.0
 11
467.919916738
 21
155.699981077
 31
0.0
  0
LINE
  8
0
  6
CONTINUOUS
 62
     6
 10
467.919916738
 20
71.699998738
 30
0.0
 11
467.919916738
 21
155.699981077
 31
0.0
  0
TEXT
  8
0
  6
CONTINUOUS
 62
     2
 10
1850.92
 20
245.7
 30
0.0
 40
21.0
  1
ＭＣＬＢ０５－ＪＬ
 50
0.0
 41
0.793650794
 51
0.0
  7
KANJI17
  0
TEXT
  8
0
  6
CONTINUOUS
 62
     2
 10
1965.7200334
 20
149.699994
 30
13.0
 40
30.0
  1
３００２４２０
 50
0.0
 41
0.8
 51
0.0
  7
KANJI18
  0
TEXT
  8
0
  6
CONTINUOUS
 62
     2
 10
165.4
 20
20.4
 30
0.0
 40
18.0
  1
ＦＤ　Ｎｏ．ＭＣ１９０
 50
0.0
 41
0.9
 51
0.0
  7
KANJI19
  0
LINE
  8
0
  6
CONTINUOUS
 62
     2
 10
1602.5
 20
722.0
 30
0.0
 11
1647.372218677
 21
722.0
 31
0.0
  0
LINE
  8
0
  6
CONTINUOUS
 62
     2
 10
1639.872218677
 20
722.0
 30
0.0
 11
1636.636980613
 21
709.925927171
 31
0.0
  0
LINE
  8
0
  6
CONTINUOUS
 62
     2
 10
1639.872218677
 20
722.0
 30
0.0
 11
1643.10745674
 21
709.925927171
 31
0.0
  0
LINE
  8
0
  6
CONTINUOUS
 62
     2
 10
1639.872218677
 20
722.0
 30
0.0
 11
1639.872218677
 21
611.0
 31
0.0
  0
LINE
  8
0
  6
CONTINUOUS
 62
     2
 10
1639.872218677
 20
611.0
 30
0.0
 11
1643.10745674
 21
623.074072829
 31
0.0
  0
LINE
  8
0
  6
CONTINUOUS
 62
     2
 10
1639.872218677
 20
611.0
 30
0.0
 11
1636.636980613
 21
623.074072829
 31
0.0
  0
LINE
  8
0
  6
CONTINUOUS
 62
     2
 10
1639.872218677
 20
722.0
 30
0.0
 11
1643.10745674
 21
734.074072829
 31
0.0
  0
LINE
  8
0
  6
CONTINUOUS
 62
     2
 10
1639.872218677
 20
722.0
 30
0.0
 11
1636.636980613
 21
734.074072829
 31
0.0
  0
LINE
  8
0
  6
CONTINUOUS
 62
     2
 10
1563.5
 20
732.0
 30
0.0
 11
1610.0
 21
732.0
 31
0.0
  0
LINE
  8
0
  6
CONTINUOUS
 62
     2
 10
1602.5
 20
732.0
 30
0.0
 11
1605.735238064
 21
744.074072829
 31
0.0
  0
LINE
  8
0
  6
CONTINUOUS
 62
     2
 10
1602.5
 20
732.0
 30
0.0
 11
1599.264761936
 21
744.074072829
 31
0.0
  0
LINE
  8
0
  6
CONTINUOUS
 62
     2
 10
1602.5
 20
712.0
 30
0.0
 11
1599.264761936
 21
699.925927171
 31
0.0
  0
LINE
  8
0
  6
CONTINUOUS
 62
     2
 10
1602.5
 20
712.0
 30
0.0
 11
1605.735238064
 21
699.925927171
 31
0.0
  0
LINE
  8
0
  6
CONTINUOUS
 62
     2
 10
1563.5
 20
712.0
 30
0.0
 11
1610.0
 21
712.0
 31
0.0
  0
LINE
  8
0
  6
LTYPE2
 62
     2
 10
1470.4
 20
857.0
 30
0.0
 11
1482.4
 21
857.0
 31
0.0
  0
LINE
  8
0
  6
LTYPE2
 62
     2
 10
1476.0
 20
972.0
 30
0.0
 11
1476.0
 21
903.0
 31
0.0
  0
LINE
  8
0
  6
CONTINUOUS
 62
     2
 10
1639.872218677
 20
857.0
 30
0.0
 11
1636.636980613
 21
844.925927171
 31
0.0
  0
LINE
  8
0
  6
CONTINUOUS
 62
     2
 10
1639.872218677
 20
857.0
 30
0.0
 11
1643.10745674
 21
844.925927171
 31
0.0
  0
LINE
  8
0
  6
CONTINUOUS
 62
     2
 10
1619.0
 20
857.0
 30
0.0
 11
1647.372218677
 21
857.0
 31
0.0
  0
LINE
  8
0
  6
LTYPE3
 62
     2
 10
1607.872218677
 20
857.0
 30
0.0
 11
1641.0
 21
857.0
 31
0.0
  0
LINE
  8
0
  6
CONTINUOUS
 62
     2
 10
1639.872218677
 20
722.0
 30
0.0
 11
1639.872218677
 21
857.0
 31
0.0
  0
LINE
  8
0
  6
LTYPE4
 62
     2
 10
1386.3
 20
857.0
 30
0.0
 11
1571.4
 21
857.0
 31
0.0
  0
ARC
  8
0
  6
CONTINUOUS
 62
     1
 10
1532.0
 20
913.0
 30
0.0
 40
5.0
 50
0.0
 51
90.0
  0
ARC
  8
0
  6
CONTINUOUS
 62
     1
 10
1420.0
 20
913.0
 30
0.0
 40
5.0
 50
90.0
 51
180.0
  0
LINE
  8
0
  6
CONTINUOUS
 62
     1
 10
1537.0
 20
801.0
 30
0.0
 11
1537.0
 21
913.0
 31
0.0
  0
ARC
  8
0
  6
CONTINUOUS
 62
     1
 10
1532.0
 20
801.0
 30
0.0
 40
5.0
 50
270.0
 51
0.0
  0
CIRCLE
  8
0
  6
CONTINUOUS
 62
     1
 10
1476.0
 20
857.0
 30
0.0
 40
57.0
  0
CIRCLE
  8
0
  6
CONTINUOUS
 62
     1
 10
1476.0
 20
857.0
 30
0.0
 40
42.0
  0
CIRCLE
  8
0
  6
CONTINUOUS
 62
     1
 10
1476.0
 20
857.0
 30
0.0
 40
36.5
  0
CIRCLE
  8
0
  6
CONTINUOUS
 62
     1
 10
1476.0
 20
857.0
 30
0.0
 40
15.5
  0
LINE
  8
0
  6
CONTINUOUS
 62
     1
 10
1480.952830189
 20
873.784500979
 30
0.0
 11
1505.330188679
 21
866.591143417
 31
0.0
  0
LINE
  8
0
  6
CONTINUOUS
 62
     1
 10
1480.952830189
 20
840.215499021
 30
0.0
 11
1505.330188679
 21
847.408856583
 31
0.0
  0
ARC
  8
0
  6
CONTINUOUS
 62
     1
 10
1502.5
 20
857.0
 30
0.0
 40
10.0
 50
0.0
 51
150.0
  0
ARC
  8
0
  6
CONTINUOUS
 62
     1
 10
1502.5
 20
857.0
 30
0.0
 40
10.0
 50
210.0
 51
0.0
  0
LINE
  8
0
  6
CONTINUOUS
 62
     1
 10
1490.671400751
 20
852.0
 30
0.0
 11
1493.839745962
 21
852.0
 31
0.0
  0
LINE
  8
0
  6
CONTINUOUS
 62
     1
 10
1490.671400751
 20
862.0
 30
0.0
 11
1493.839745962
 21
862.0
 31
0.0
  0
ARC
  8
0
  6
LTYPE4
 62
     2
 10
1476.0
 20
857.0
 30
0.0
 40
26.5
 50
345.963756532
 51
14.715071651
  0
LINE
  8
0
  6
CONTINUOUS
 62
     1
 10
1471.047169811
 20
873.784500979
 30
0.0
 11
1446.669811321
 21
866.591143417
 31
0.0
  0
LINE
  8
0
  6
CONTINUOUS
 62
     1
 10
1471.047169811
 20
840.215499021
 30
0.0
 11
1446.669811321
 21
847.408856583
 31
0.0
  0
ARC
  8
0
  6
CONTINUOUS
 62
     1
 10
1449.5
 20
857.0
 30
0.0
 40
10.0
 50
30.0
 51
180.0
  0
ARC
  8
0
  6
CONTINUOUS
 62
     1
 10
1449.5
 20
857.0
 30
0.0
 40
10.0
 50
180.0
 51
330.0
  0
LINE
  8
0
  6
CONTINUOUS
 62
     1
 10
1461.328599249
 20
852.0
 30
0.0
 11
1458.160254038
 21
852.0
 31
0.0
  0
LINE
  8
0
  6
CONTINUOUS
 62
     1
 10
1461.328599249
 20
862.0
 30
0.0
 11
1458.160254038
 21
862.0
 31
0.0
  0
ARC
  8
0
  6
LTYPE4
 62
     2
 10
1476.0
 20
857.0
 30
0.0
 40
26.5
 50
165.284928349
 51
194.036243468
  0
ARC
  8
0
  6
CONTINUOUS
 62
     1
 10
1476.0
 20
857.0
 30
0.0
 40
17.5
 50
16.601549599
 51
163.398450401
  0
ARC
  8
0
  6
CONTINUOUS
 62
     1
 10
1476.0
 20
857.0
 30
0.0
 40
17.5
 50
196.601549599
 51
343.398450401
  0
ARC
  8
0
  6
LTYPE4
 62
     2
 10
1476.0
 20
857.0
 30
0.0
 40
51.0
 50
34.902495616
 51
52.696051722
  0
LINE
  8
0
  6
LTYPE4
 62
     2
 10
1508.0
 20
889.0
 30
0.0
 11
1517.0
 21
898.0
 31
0.0
  0
ARC
  8
0
  6
LTYPE4
 62
     2
 10
1476.0
 20
857.0
 30
0.0
 40
25.0
 50
63.434948823
 51
114.623564786
  0
ARC
  8
0
  6
LTYPE4
 62
     2
 10
1476.0
 20
857.0
 30
0.0
 40
25.0
 50
245.376435214
 51
296.565051177
  0
ARC
  8
0
  6
LTYPE4
 62
     2
 10
1476.0
 20
857.0
 30
0.0
 40
51.0
 50
124.902495616
 51
142.696051722
  0
LINE
  8
0
  6
LTYPE4
 62
     2
 10
1444.0
 20
889.0
 30
0.0
 11
1435.0
 21
898.0
 31
0.0
  0
ARC
  8
0
  6
LTYPE4
 62
     2
 10
1476.0
 20
857.0
 30
0.0
 40
51.0
 50
307.303948278
 51
325.097504384
  0
LINE
  8
0
  6
LTYPE4
 62
     2
 10
1508.0
 20
825.0
 30
0.0
 11
1517.0
 21
816.0
 31
0.0
  0
ARC
  8
0
  6
LTYPE4
 62
     2
 10
1476.0
 20
857.0
 30
0.0
 40
51.0
 50
217.303948278
 51
235.097504384
  0
LINE
  8
0
  6
LTYPE4
 62
     2
 10
1444.0
 20
825.0
 30
0.0
 11
1435.0
 21
816.0
 31
0.0
  0
LINE
  8
0
  6
LTYPE4
 62
     2
 10
1518.0
 20
908.0
 30
0.0
 11
1535.0
 21
908.0
 31
0.0
  0
LINE
  8
0
  6
LTYPE4
 62
     2
 10
1527.0
 20
916.0
 30
0.0
 11
1527.0
 21
899.5
 31
0.0
  0
LINE
  8
0
  6
LTYPE4
 62
     2
 10
1434.0
 20
908.0
 30
0.0
 11
1417.0
 21
908.0
 31
0.0
  0
LINE
  8
0
  6
LTYPE4
 62
     2
 10
1425.0
 20
916.0
 30
0.0
 11
1425.0
 21
899.5
 31
0.0
  0
LINE
  8
0
  6
LTYPE4
 62
     2
 10
1518.0
 20
806.0
 30
0.0
 11
1535.0
 21
806.0
 31
0.0
  0
LINE
  8
0
  6
LTYPE4
 62
     2
 10
1527.0
 20
798.0
 30
0.0
 11
1527.0
 21
814.5
 31
0.0
  0
LINE
  8
0
  6
CONTINUOUS
 62
     1
 10
1506.0
 20
927.0
 30
0.0
 11
1506.0
 21
930.0
 31
0.0
  0
ARC
  8
0
  6
CONTINUOUS
 62
     1
 10
1502.0
 20
924.0
 30
0.0
 40
3.0
 50
90.0
 51
180.0
  0
LINE
  8
0
  6
CONTINUOUS
 62
     1
 10
1499.0
 20
913.153619242
 30
0.0
 11
1499.0
 21
924.0
 31
0.0
  0
ARC
  8
0
  6
CONTINUOUS
 62
     1
 10
1495.0
 20
913.153619242
 30
0.0
 40
4.0
 50
304.936144888
 51
0.0
  0
ARC
  8
0
  6
CONTINUOUS
 62
     1
 10
1450.0
 20
924.0
 30
0.0
 40
3.0
 50
0.0
 51
90.0
  0
LINE
  8
0
  6
CONTINUOUS
 62
     1
 10
1453.0
 20
913.153619242
 30
0.0
 11
1453.0
 21
924.0
 31
0.0
  0
ARC
  8
0
  6
CONTINUOUS
 62
     1
 10
1457.0
 20
913.153619242
 30
0.0
 40
4.0
 50
180.0
 51
235.063855112
  0
LINE
  8
0
  6
CONTINUOUS
 62
     1
 10
1499.0
 20
918.0
 30
0.0
 11
1532.0
 21
918.0
 31
0.0
  0
LINE
  8
0
  6
CONTINUOUS
 62
     1
 10
1420.0
 20
918.0
 30
0.0
 11
1453.0
 21
918.0
 31
0.0
  0
CIRCLE
  8
0
  6
CONTINUOUS
 62
     1
 10
1476.0
 20
952.0
 30
0.0
 40
17.0
  0
LINE
  8
0
  6
LTYPE4
 62
     2
 10
1453.0
 20
952.0
 30
0.0
 11
1499.0
 21
952.0
 31
0.0
  0
ARC
  8
0
  6
CONTINUOUS
 62
     1
 10
1434.0
 20
974.020045888
 30
0.0
 40
2.0
 50
90.0
 51
180.0
  0
ARC
  8
0
  6
CONTINUOUS
 62
     1
 10
1442.0
 20
980.0
 30
0.0
 40
2.0
 50
90.0
 51
180.0
  0
LINE
  8
0
  6
CONTINUOUS
 62
     1
 10
1442.0
 20
982.0
 30
0.0
 11
1510.0
 21
982.0
 31
0.0
  0
ARC
  8
0
  6
CONTINUOUS
 62
     1
 10
1510.0
 20
980.0
 30
0.0
 40
2.0
 50
0.0
 51
90.0
  0
LINE
  8
0
  6
CONTINUOUS
 62
     1
 10
1518.0
 20
976.020045888
 30
0.0
 11
1434.0
 21
976.020045888
 31
0.0
  0
ARC
  8
0
  6
CONTINUOUS
 62
     1
 10
1518.0
 20
974.020045888
 30
0.0
 40
2.0
 50
0.0
 51
90.0
  0
ARC
  8
0
  6
CONTINUOUS
 62
     1
 10
1434.0
 20
978.020045888
 30
0.0
 40
2.0
 50
90.0
 51
180.0
  0
ARC
  8
0
  6
CONTINUOUS
 62
     1
 10
1442.0
 20
971.0
 30
0.0
 40
2.0
 50
90.0
 51
180.0
  0
LINE
  8
0
  6
CONTINUOUS
 62
     1
 10
1442.0
 20
973.0
 30
0.0
 11
1510.0
 21
973.0
 31
0.0
  0
ARC
  8
0
  6
CONTINUOUS
 62
     1
 10
1510.0
 20
971.0
 30
0.0
 40
2.0
 50
0.0
 51
90.0
  0
LINE
  8
0
  6
CONTINUOUS
 62
     1
 10
1518.0
 20
980.020045888
 30
0.0
 11
1434.0
 21
980.020045888
 31
0.0
  0
ARC
  8
0
  6
CONTINUOUS
 62
     1
 10
1518.0
 20
978.020045888
 30
0.0
 40
2.0
 50
0.0
 51
90.0
  0
LINE
  8
0
  6
CONTINUOUS
 62
     1
 10
1446.0
 20
927.0
 30
0.0
 11
1506.0
 21
927.0
 31
0.0
  0
LINE
  8
0
  6
CONTINUOUS
 62
     1
 10
1446.0
 20
927.0
 30
0.0
 11
1446.0
 21
930.0
 31
0.0
  0
LINE
  8
0
  6
CONTINUOUS
 62
     1
 10
1512.0
 20
932.0
 30
0.0
 11
1518.0
 21
932.0
 31
0.0
  0
LINE
  8
0
  6
CONTINUOUS
 62
     1
 10
1520.0
 20
934.0
 30
0.0
 11
1520.0
 21
978.020045888
 31
0.0
  0
ARC
  8
0
  6
CONTINUOUS
 62
     1
 10
1518.0
 20
934.0
 30
0.0
 40
2.0
 50
270.0
 51
0.0
  0
LINE
  8
0
  6
CONTINUOUS
 62
     1
 10
1512.0
 20
932.0
 30
0.0
 11
1512.0
 21
971.0
 31
0.0
  0
ARC
  8
0
  6
CONTINUOUS
 62
     1
 10
1510.0
 20
932.0
 30
0.0
 40
2.0
 50
270.0
 51
0.0
  0
LINE
  8
0
  6
CONTINUOUS
 62
     1
 10
1440.0
 20
932.0
 30
0.0
 11
1440.0
 21
971.0
 31
0.0
  0
LINE
  8
0
  6
CONTINUOUS
 62
     1
 10
1442.0
 20
930.0
 30
0.0
 11
1510.0
 21
930.0
 31
0.0
  0
ARC
  8
0
  6
CONTINUOUS
 62
     1
 10
1442.0
 20
932.0
 30
0.0
 40
2.0
 50
180.0
 51
270.0
  0
LINE
  8
0
  6
CONTINUOUS
 62
     1
 10
1440.0
 20
932.0
 30
0.0
 11
1434.0
 21
932.0
 31
0.0
  0
LINE
  8
0
  6
CONTINUOUS
 62
     1
 10
1432.0
 20
934.0
 30
0.0
 11
1432.0
 21
978.020045888
 31
0.0
  0
ARC
  8
0
  6
CONTINUOUS
 62
     1
 10
1434.0
 20
934.0
 30
0.0
 40
2.0
 50
180.0
 51
270.0
  0
CIRCLE
  8
0
  6
CONTINUOUS
 62
     2
 10
1476.0
 20
952.0
 30
0.0
 40
15.0
  0
CIRCLE
  8
0
  6
CONTINUOUS
 62
     6
 10
1476.0
 20
882.0
 30
0.0
 40
3.999998
  0
LINE
  8
0
  6
CONTINUOUS
 62
     6
 10
1479.999998
 20
884.3058812
 30
0.0
 11
1479.999998
 21
879.6941188
 31
0.0
  0
LINE
  8
0
  6
CONTINUOUS
 62
     6
 10
1479.999998
 20
879.6941188
 30
0.0
 11
1476.0
 21
877.3882376
 31
0.0
  0
LINE
  8
0
  6
CONTINUOUS
 62
     6
 10
1472.000002
 20
884.3058812
 30
0.0
 11
1472.000002
 21
879.6941188
 31
0.0
  0
LINE
  8
0
  6
CONTINUOUS
 62
     6
 10
1472.000002
 20
879.6941188
 30
0.0
 11
1476.0
 21
877.3882376
 31
0.0
  0
LINE
  8
0
  6
CONTINUOUS
 62
     6
 10
1479.999998
 20
884.3058812
 30
0.0
 11
1476.0
 21
886.6117624
 31
0.0
  0
LINE
  8
0
  6
CONTINUOUS
 62
     6
 10
1472.000002
 20
884.3058812
 30
0.0
 11
1476.0
 21
886.6117624
 31
0.0
  0
CIRCLE
  8
0
  6
CONTINUOUS
 62
     6
 10
1476.0
 20
832.0
 30
0.0
 40
3.999998
  0
LINE
  8
0
  6
CONTINUOUS
 62
     6
 10
1479.999998
 20
829.6941188
 30
0.0
 11
1479.999998
 21
834.3058812
 31
0.0
  0
LINE
  8
0
  6
CONTINUOUS
 62
     6
 10
1479.999998
 20
834.3058812
 30
0.0
 11
1476.0
 21
836.6117624
 31
0.0
  0
LINE
  8
0
  6
CONTINUOUS
 62
     6
 10
1472.000002
 20
829.6941188
 30
0.0
 11
1472.000002
 21
834.3058812
 31
0.0
  0
LINE
  8
0
  6
CONTINUOUS
 62
     6
 10
1472.000002
 20
834.3058812
 30
0.0
 11
1476.0
 21
836.6117624
 31
0.0
  0
LINE
  8
0
  6
CONTINUOUS
 62
     6
 10
1479.999998
 20
829.6941188
 30
0.0
 11
1476.0
 21
827.3882376
 31
0.0
  0
LINE
  8
0
  6
CONTINUOUS
 62
     6
 10
1472.000002
 20
829.6941188
 30
0.0
 11
1476.0
 21
827.3882376
 31
0.0
  0
CIRCLE
  8
0
  6
CONTINUOUS
 62
     6
 10
1449.5
 20
857.0
 30
0.0
 40
3.5
  0
LINE
  8
0
  6
CONTINUOUS
 62
     6
 10
1445.992597115
 20
859.025
 30
0.0
 11
1449.5
 21
861.05
 31
0.0
  0
LINE
  8
0
  6
CONTINUOUS
 62
     6
 10
1449.5
 20
861.05
 30
0.0
 11
1453.007402885
 21
859.025
 31
0.0
  0
LINE
  8
0
  6
CONTINUOUS
 62
     6
 10
1453.007402885
 20
859.025
 30
0.0
 11
1453.007402885
 21
854.975
 31
0.0
  0
LINE
  8
0
  6
CONTINUOUS
 62
     6
 10
1445.992597115
 20
854.975
 30
0.0
 11
1445.992597115
 21
859.025
 31
0.0
  0
LINE
  8
0
  6
CONTINUOUS
 62
     6
 10
1453.007402885
 20
854.975
 30
0.0
 11
1449.5
 21
852.95
 31
0.0
  0
LINE
  8
0
  6
CONTINUOUS
 62
     6
 10
1449.5
 20
852.95
 30
0.0
 11
1445.992597115
 21
854.975
 31
0.0
  0
LINE
  8
0
  6
CONTINUOUS
 62
     6
 10
1418.50005
 20
911.74703
 30
0.0
 11
1418.50005
 21
904.25297
 31
0.0
  0
LINE
  8
0
  6
CONTINUOUS
 62
     6
 10
1431.49995
 20
911.74703
 30
0.0
 11
1431.49995
 21
904.25297
 31
0.0
  0
LINE
  8
0
  6
CONTINUOUS
 62
     6
 10
1418.50005
 20
911.74703
 30
0.0
 11
1425.0
 21
915.49406
 31
0.0
  0
LINE
  8
0
  6
CONTINUOUS
 62
     6
 10
1431.49995
 20
911.74703
 30
0.0
 11
1425.0
 21
915.49406
 31
0.0
  0
LINE
  8
0
  6
CONTINUOUS
 62
     6
 10
1418.50005
 20
904.25297
 30
0.0
 11
1425.0
 21
900.50594
 31
0.0
  0
CIRCLE
  8
0
  6
CONTINUOUS
 62
     6
 10
1502.5
 20
857.0
 30
0.0
 40
3.5
  0
LINE
  8
0
  6
CONTINUOUS
 62
     6
 10
1506.007402885
 20
859.025
 30
0.0
 11
1502.5
 21
861.05
 31
0.0
  0
LINE
  8
0
  6
CONTINUOUS
 62
     6
 10
1502.5
 20
861.05
 30
0.0
 11
1498.992597115
 21
859.025
 31
0.0
  0
LINE
  8
0
  6
CONTINUOUS
 62
     6
 10
1498.992597115
 20
859.025
 30
0.0
 11
1498.992597115
 21
854.975
 31
0.0
  0
LINE
  8
0
  6
CONTINUOUS
 62
     6
 10
1498.992597115
 20
854.975
 30
0.0
 11
1502.5
 21
852.95
 31
0.0
  0
LINE
  8
0
  6
CONTINUOUS
 62
     6
 10
1502.5
 20
852.95
 30
0.0
 11
1506.007402885
 21
854.975
 31
0.0
  0
LINE
  8
0
  6
CONTINUOUS
 62
     6
 10
1506.007402885
 20
854.975
 30
0.0
 11
1506.007402885
 21
859.025
 31
0.0
  0
LINE
  8
0
  6
CONTINUOUS
 62
     6
 10
1508.062447841
 20
818.631672959
 30
0.0
 11
1508.062447841
 21
823.243435359
 31
0.0
  0
LINE
  8
0
  6
CONTINUOUS
 62
     6
 10
1516.062443841
 20
823.243435359
 30
0.0
 11
1512.062445841
 21
825.549316559
 31
0.0
  0
LINE
  8
0
  6
CONTINUOUS
 62
     6
 10
1508.062447841
 20
823.243435359
 30
0.0
 11
1512.062445841
 21
825.549316559
 31
0.0
  0
LINE
  8
0
  6
CONTINUOUS
 62
     6
 10
1516.062443841
 20
818.631672959
 30
0.0
 11
1512.062445841
 21
816.325791759
 31
0.0
  0
LINE
  8
0
  6
CONTINUOUS
 62
     6
 10
1508.062447841
 20
818.631672959
 30
0.0
 11
1512.062445841
 21
816.325791759
 31
0.0
  0
LINE
  8
0
  6
CONTINUOUS
 62
     6
 10
1516.062443841
 20
818.631672959
 30
0.0
 11
1516.062443841
 21
823.243435359
 31
0.0
  0
CIRCLE
  8
0
  6
CONTINUOUS
 62
     6
 10
1512.062445841
 20
820.937554159
 30
0.0
 40
3.999998
  0
CIRCLE
  8
0
  6
CONTINUOUS
 62
     6
 10
1425.0
 20
908.0
 30
0.0
 40
6.49995
  0
LINE
  8
0
  6
CONTINUOUS
 62
     6
 10
1431.49995
 20
904.25297
 30
0.0
 11
1425.0
 21
900.50594
 31
0.0
  0
LINE
  8
0
  6
CONTINUOUS
 62
     6
 10
1437.631672959
 20
897.062443841
 30
0.0
 11
1442.243435359
 21
897.062443841
 31
0.0
  0
LINE
  8
0
  6
CONTINUOUS
 62
     6
 10
1442.243435359
 20
897.062443841
 30
0.0
 11
1444.549316559
 21
893.062445841
 31
0.0
  0
LINE
  8
0
  6
CONTINUOUS
 62
     6
 10
1442.243435359
 20
889.062447841
 30
0.0
 11
1444.549316559
 21
893.062445841
 31
0.0
  0
LINE
  8
0
  6
CONTINUOUS
 62
     6
 10
1437.631672959
 20
897.062443841
 30
0.0
 11
1435.325791759
 21
893.062445841
 31
0.0
  0
LINE
  8
0
  6
CONTINUOUS
 62
     6
 10
1437.631672959
 20
889.062447841
 30
0.0
 11
1435.325791759
 21
893.062445841
 31
0.0
  0
LINE
  8
0
  6
CONTINUOUS
 62
     6
 10
1437.631672959
 20
889.062447841
 30
0.0
 11
1442.243435359
 21
889.062447841
 31
0.0
  0
CIRCLE
  8
0
  6
CONTINUOUS
 62
     6
 10
1439.937554159
 20
893.062445841
 30
0.0
 40
3.999998
  0
LINE
  8
0
  6
CONTINUOUS
 62
     6
 10
1516.062443841
 20
895.368327041
 30
0.0
 11
1512.062445841
 21
897.674208241
 31
0.0
  0
LINE
  8
0
  6
CONTINUOUS
 62
     6
 10
1508.062447841
 20
895.368327041
 30
0.0
 11
1512.062445841
 21
897.674208241
 31
0.0
  0
LINE
  8
0
  6
CONTINUOUS
 62
     6
 10
1516.062443841
 20
895.368327041
 30
0.0
 11
1516.062443841
 21
890.756564641
 31
0.0
  0
LINE
  8
0
  6
CONTINUOUS
 62
     6
 10
1516.062443841
 20
890.756564641
 30
0.0
 11
1512.062445841
 21
888.450683441
 31
0.0
  0
LINE
  8
0
  6
CONTINUOUS
 62
     6
 10
1508.062447841
 20
890.756564641
 30
0.0
 11
1512.062445841
 21
888.450683441
 31
0.0
  0
LINE
  8
0
  6
CONTINUOUS
 62
     6
 10
1508.062447841
 20
895.368327041
 30
0.0
 11
1508.062447841
 21
890.756564641
 31
0.0
  0
CIRCLE
  8
0
  6
CONTINUOUS
 62
     6
 10
1512.062445841
 20
893.062445841
 30
0.0
 40
3.999998
  0
LINE
  8
0
  6
CONTINUOUS
 62
     6
 10
1520.50005
 20
911.74703
 30
0.0
 11
1520.50005
 21
904.25297
 31
0.0
  0
LINE
  8
0
  6
CONTINUOUS
 62
     6
 10
1520.50005
 20
904.25297
 30
0.0
 11
1527.0
 21
900.50594
 31
0.0
  0
LINE
  8
0
  6
CONTINUOUS
 62
     6
 10
1533.49995
 20
911.74703
 30
0.0
 11
1533.49995
 21
904.25297
 31
0.0
  0
LINE
  8
0
  6
CONTINUOUS
 62
     6
 10
1533.49995
 20
911.74703
 30
0.0
 11
1527.0
 21
915.49406
 31
0.0
  0
LINE
  8
0
  6
CONTINUOUS
 62
     6
 10
1520.50005
 20
911.74703
 30
0.0
 11
1527.0
 21
915.49406
 31
0.0
  0
LINE
  8
0
  6
CONTINUOUS
 62
     6
 10
1533.49995
 20
904.25297
 30
0.0
 11
1527.0
 21
900.50594
 31
0.0
  0
CIRCLE
  8
0
  6
CONTINUOUS
 62
     6
 10
1527.0
 20
908.0
 30
0.0
 40
6.49995
  0
LINE
  8
0
  6
CONTINUOUS
 62
     6
 10
1437.631672959
 20
816.937556159
 30
0.0
 11
1442.243435359
 21
816.937556159
 31
0.0
  0
LINE
  8
0
  6
CONTINUOUS
 62
     6
 10
1442.243435359
 20
816.937556159
 30
0.0
 11
1444.549316559
 21
820.937554159
 31
0.0
  0
LINE
  8
0
  6
CONTINUOUS
 62
     6
 10
1442.243435359
 20
824.937552159
 30
0.0
 11
1444.549316559
 21
820.937554159
 31
0.0
  0
LINE
  8
0
  6
CONTINUOUS
 62
     6
 10
1437.631672959
 20
824.937552159
 30
0.0
 11
1442.243435359
 21
824.937552159
 31
0.0
  0
LINE
  8
0
  6
CONTINUOUS
 62
     6
 10
1437.631672959
 20
816.937556159
 30
0.0
 11
1435.325791759
 21
820.937554159
 31
0.0
  0
LINE
  8
0
  6
CONTINUOUS
 62
     6
 10
1437.631672959
 20
824.937552159
 30
0.0
 11
1435.325791759
 21
820.937554159
 31
0.0
  0
CIRCLE
  8
0
  6
CONTINUOUS
 62
     6
 10
1439.937554159
 20
820.937554159
 30
0.0
 40
3.999998
  0
LINE
  8
0
  6
CONTINUOUS
 62
     6
 10
1520.50005
 20
802.25297
 30
0.0
 11
1520.50005
 21
809.74703
 31
0.0
  0
LINE
  8
0
  6
CONTINUOUS
 62
     6
 10
1520.50005
 20
802.25297
 30
0.0
 11
1527.0
 21
798.50594
 31
0.0
  0
LINE
  8
0
  6
CONTINUOUS
 62
     6
 10
1533.49995
 20
802.25297
 30
0.0
 11
1533.49995
 21
809.74703
 31
0.0
  0
LINE
  8
0
  6
CONTINUOUS
 62
     6
 10
1533.49995
 20
802.25297
 30
0.0
 11
1527.0
 21
798.50594
 31
0.0
  0
LINE
  8
0
  6
CONTINUOUS
 62
     6
 10
1533.49995
 20
809.74703
 30
0.0
 11
1527.0
 21
813.49406
 31
0.0
  0
LINE
  8
0
  6
CONTINUOUS
 62
     6
 10
1520.50005
 20
809.74703
 30
0.0
 11
1527.0
 21
813.49406
 31
0.0
  0
CIRCLE
  8
0
  6
CONTINUOUS
 62
     6
 10
1527.0
 20
806.0
 30
0.0
 40
6.49995
  0
ARC
  8
0
  6
CONTINUOUS
 62
     1
 10
1476.0
 20
857.0
 30
0.0
 40
78.0
 50
111.47510714
 51
128.551225557
  0
ARC
  8
0
  6
CONTINUOUS
 62
     1
 10
1476.0
 20
857.0
 30
0.0
 40
78.0
 50
51.448774443
 51
66.075051195
  0
ARC
  8
0
  6
LTYPE1
 62
     1
 10
1476.0
 20
857.0
 30
0.0
 40
78.0
 50
68.603831123
 51
108.944549929
  0
LINE
  8
2
  6
CONTINUOUS
 62
     2
 10
1626.0
 20
611.0
 30
0.0
 11
1688.0
 21
611.0
 31
0.0
  0
LINE
  8
2
  6
CONTINUOUS
 62
     2
 10
1678.0
 20
611.0
 30
0.0
 11
1681.235238064
 21
623.074072829
 31
0.0
  0
LINE
  8
2
  6
CONTINUOUS
 62
     2
 10
1678.0
 20
611.0
 30
0.0
 11
1674.764761936
 21
623.074072829
 31
0.0
  0
LINE
  8
2
  6
CONTINUOUS
 62
     2
 10
1678.0
 20
611.0
 30
0.0
 11
1678.0
 21
982.0
 31
0.0
  0
LINE
  8
2
  6
CONTINUOUS
 62
     2
 10
1678.0
 20
982.0
 30
0.0
 11
1674.764761936
 21
969.925927171
 31
0.0
  0
LINE
  8
2
  6
CONTINUOUS
 62
     2
 10
1678.0
 20
982.0
 30
0.0
 11
1681.235238064
 21
969.925927171
 31
0.0
  0
LINE
  8
2
  6
CONTINUOUS
 62
     2
 10
1515.000015259
 20
982.0
 30
0.0
 11
1688.0
 21
982.0
 31
0.0
  0
LINE
  8
2
  6
CONTINUOUS
 62
     2
 10
1633.872218677
 20
857.0
 30
0.0
 11
1649.872218677
 21
857.0
 31
0.0
  0
LINE
  8
2
  6
CONTINUOUS
 62
     2
 10
1639.872218677
 20
857.0
 30
0.0
 11
1643.10745674
 21
869.074072829
 31
0.0
  0
LINE
  8
2
  6
CONTINUOUS
 62
     2
 10
1639.872218677
 20
857.0
 30
0.0
 11
1636.636980613
 21
869.074072829
 31
0.0
  0
LINE
  8
2
  6
CONTINUOUS
 62
     2
 10
1639.872218677
 20
857.0
 30
0.0
 11
1639.872218677
 21
982.0
 31
0.0
  0
LINE
  8
2
  6
CONTINUOUS
 62
     2
 10
1639.872218677
 20
982.0
 30
0.0
 11
1636.636980613
 21
969.925927171
 31
0.0
  0
LINE
  8
2
  6
CONTINUOUS
 62
     2
 10
1639.872218677
 20
982.0
 30
0.0
 11
1643.10745674
 21
969.925927171
 31
0.0
  0
LINE
  8
2
  6
CONTINUOUS
 62
     2
 10
1611.872218677
 20
982.0
 30
0.0
 11
1649.872218677
 21
982.0
 31
0.0
  0
ARC
  8
0
  6
CONTINUOUS
 62
     1
 10
1405.0
 20
650.5
 30
0.0
 40
6.0
 50
180.0
 51
270.0
  0
ARC
  8
0
  6
CONTINUOUS
 62
     1
 10
1547.0
 20
650.5
 30
0.0
 40
6.0
 50
270.0
 51
0.0
  0
LINE
  8
0
  6
CONTINUOUS
 62
     1
 10
1556.0
 20
701.0
 30
0.0
 11
1556.0
 21
743.0
 31
0.0
  0
LINE
  8
0
  6
CONTINUOUS
 62
     1
 10
1556.0
 20
743.0
 30
0.0
 11
1522.733285782
 21
747.0
 31
0.0
  0
ARC
  8
0
  6
CONTINUOUS
 62
     1
 10
1428.0
 20
659.5
 30
0.0
 40
3.0
 50
90.0
 51
180.0
  0
LINE
  8
0
  6
CONTINUOUS
 62
     1
 10
1425.0
 20
613.0
 30
0.0
 11
1425.0
 21
659.5
 31
0.0
  0
ARC
  8
0
  6
CONTINUOUS
 62
     1
 10
1426.0
 20
613.0
 30
0.0
 40
1.0
 50
180.0
 51
270.0
  0
ARC
  8
0
  6
CONTINUOUS
 62
     1
 10
1429.0
 20
612.0
 30
0.0
 40
1.0
 50
180.0
 51
270.0
  0
ARC
  8
0
  6
CONTINUOUS
 62
     1
 10
1524.0
 20
659.5
 30
0.0
 40
3.0
 50
0.0
 51
90.0
  0
LINE
  8
0
  6
CONTINUOUS
 62
     1
 10
1527.0
 20
613.0
 30
0.0
 11
1527.0
 21
659.5
 31
0.0
  0
ARC
  8
0
  6
CONTINUOUS
 62
     1
 10
1526.0
 20
613.0
 30
0.0
 40
1.0
 50
270.0
 51
0.0
  0
ARC
  8
0
  6
CONTINUOUS
 62
     1
 10
1523.0
 20
612.0
 30
0.0
 40
1.0
 50
270.0
 51
0.0
  0
LINE
  8
0
  6
CONTINUOUS
 62
     1
 10
1527.0
 20
618.0
 30
0.0
 11
1425.0
 21
618.0
 31
0.0
  0
LINE
  8
0
  6
CONTINUOUS
 62
     1
 10
1527.0
 20
619.5
 30
0.0
 11
1425.0
 21
619.5
 31
0.0
  0
LINE
  8
0
  6
CONTINUOUS
 62
     1
 10
1428.0
 20
662.5
 30
0.0
 11
1524.0
 21
662.5
 31
0.0
  0
LINE
  8
0
  6
CONTINUOUS
 62
     1
 10
1523.0
 20
611.0
 30
0.0
 11
1429.0
 21
611.0
 31
0.0
  0
LINE
  8
0
  6
CONTINUOUS
 62
     1
 10
1526.0
 20
612.0
 30
0.0
 11
1426.0
 21
612.0
 31
0.0
  0
LINE
  8
0
  6
CONTINUOUS
 62
     1
 10
1431.0
 20
664.0
 30
0.0
 11
1521.0
 21
664.0
 31
0.0
  0
ARC
  8
0
  6
CONTINUOUS
 62
     1
 10
1530.0
 20
776.0
 30
0.0
 40
5.0
 50
0.0
 51
90.0
  0
CIRCLE
  8
0
  6
CONTINUOUS
 62
     1
 10
1523.0
 20
769.0
 30
0.0
 40
9.0
  0
ARC
  8
0
  6
CONTINUOUS
 62
     1
 10
1530.0
 20
668.0
 30
0.0
 40
5.0
 50
270.0
 51
360.0
  0
ARC
  8
0
  6
CONTINUOUS
 62
     1
 10
1422.0
 20
668.0
 30
0.0
 40
5.0
 50
180.0
 51
270.0
  0
LINE
  8
0
  6
CONTINUOUS
 62
     1
 10
1535.0
 20
745.525046491
 30
0.0
 11
1535.0
 21
776.0
 31
0.0
  0
LINE
  8
0
  6
CONTINUOUS
 62
     1
 10
1535.0
 20
698.474953509
 30
0.0
 11
1535.0
 21
668.0
 31
0.0
  0
LINE
  8
0
  6
CONTINUOUS
 62
     1
 10
1521.0
 20
663.0
 30
0.0
 11
1530.0
 21
663.0
 31
0.0
  0
LINE
  8
0
  6
CONTINUOUS
 62
     1
 10
1431.0
 20
663.0
 30
0.0
 11
1422.0
 21
663.0
 31
0.0
  0
ARC
  8
0
  6
CONTINUOUS
 62
     1
 10
1429.0
 20
675.0
 30
0.0
 40
9.0
 50
77.327684064
 51
282.116861929
  0
ARC
  8
0
  6
CONTINUOUS
 62
     1
 10
1523.0
 20
675.0
 30
0.0
 40
9.0
 50
257.883138071
 51
102.672315936
  0
LINE
  8
0
  6
CONTINUOUS
 62
     1
 10
1503.5
 20
747.0
 30
0.0
 11
1488.5
 21
747.0
 31
0.0
  0
LINE
  8
0
  6
CONTINUOUS
 62
     1
 10
1508.0
 20
700.0
 30
0.0
 11
1508.0
 21
744.0
 31
0.0
  0
LINE
  8
0
  6
CONTINUOUS
 62
     1
 10
1514.0
 20
709.5
 30
0.0
 11
1514.0
 21
734.5
 31
0.0
  0
LINE
  8
0
  6
CONTINUOUS
 62
     1
 10
1514.0
 20
734.5
 30
0.0
 11
1508.0
 21
734.5
 31
0.0
  0
LINE
  8
0
  6
CONTINUOUS
 62
     1
 10
1514.0
 20
709.5
 30
0.0
 11
1508.0
 21
709.5
 31
0.0
  0
LINE
  8
0
  6
CONTINUOUS
 62
     1
 10
1508.0
 20
744.0
 30
0.0
 11
1503.5
 21
744.0
 31
0.0
  0
LINE
  8
0
  6
CONTINUOUS
 62
     1
 10
1508.0
 20
700.0
 30
0.0
 11
1503.5
 21
700.0
 31
0.0
  0
CIRCLE
  8
0
  6
CONTINUOUS
 62
     1
 10
1510.0
 20
722.0
 30
0.0
 40
2.0
  0
LINE
  8
0
  6
CONTINUOUS
 62
     1
 10
1444.0
 20
700.0
 30
0.0
 11
1444.0
 21
744.0
 31
0.0
  0
LINE
  8
0
  6
CONTINUOUS
 62
     1
 10
1438.0
 20
709.5
 30
0.0
 11
1438.0
 21
734.5
 31
0.0
  0
LINE
  8
0
  6
CONTINUOUS
 62
     1
 10
1438.0
 20
734.5
 30
0.0
 11
1444.0
 21
734.5
 31
0.0
  0
LINE
  8
0
  6
CONTINUOUS
 62
     1
 10
1438.0
 20
709.5
 30
0.0
 11
1444.0
 21
709.5
 31
0.0
  0
LINE
  8
0
  6
CONTINUOUS
 62
     1
 10
1444.0
 20
744.0
 30
0.0
 11
1448.5
 21
744.0
 31
0.0
  0
LINE
  8
0
  6
CONTINUOUS
 62
     1
 10
1444.0
 20
700.0
 30
0.0
 11
1448.5
 21
700.0
 31
0.0
  0
CIRCLE
  8
0
  6
CONTINUOUS
 62
     1
 10
1442.0
 20
722.0
 30
0.0
 40
2.0
  0
LINE
  8
0
  6
CONTINUOUS
 62
     1
 10
1488.5
 20
709.5
 30
0.0
 11
1463.5
 21
709.5
 31
0.0
  0
LINE
  8
0
  6
CONTINUOUS
 62
     1
 10
1488.5
 20
734.5
 30
0.0
 11
1463.5
 21
734.5
 31
0.0
  0
LINE
  8
0
  6
CONTINUOUS
 62
     1
 10
1463.5
 20
709.5
 30
0.0
 11
1488.5
 21
709.5
 31
0.0
  0
LINE
  8
0
  6
CONTINUOUS
 62
     1
 10
1463.5
 20
734.5
 30
0.0
 11
1488.5
 21
734.5
 31
0.0
  0
LINE
  8
0
  6
CONTINUOUS
 62
     1
 10
1448.5
 20
747.0
 30
0.0
 11
1488.5
 21
747.0
 31
0.0
  0
LINE
  8
0
  6
CONTINUOUS
 62
     1
 10
1503.5
 20
697.0
 30
0.0
 11
1503.5
 21
747.0
 31
0.0
  0
LINE
  8
0
  6
CONTINUOUS
 62
     1
 10
1448.5
 20
697.0
 30
0.0
 11
1503.5
 21
697.0
 31
0.0
  0
LINE
  8
0
  6
CONTINUOUS
 62
     1
 10
1488.5
 20
697.0
 30
0.0
 11
1488.5
 21
747.0
 31
0.0
  0
LINE
  8
0
  6
CONTINUOUS
 62
     1
 10
1463.5
 20
697.0
 30
0.0
 11
1463.5
 21
747.0
 31
0.0
  0
LINE
  8
0
  6
CONTINUOUS
 62
     1
 10
1448.5
 20
697.0
 30
0.0
 11
1448.5
 21
747.0
 31
0.0
  0
LINE
  8
0
  6
CONTINUOUS
 62
     1
 10
1527.0
 20
644.5
 30
0.0
 11
1547.0
 21
644.5
 31
0.0
  0
LINE
  8
0
  6
CONTINUOUS
 62
     1
 10
1405.0
 20
644.5
 30
0.0
 11
1425.0
 21
644.5
 31
0.0
  0
LINE
  8
0
  6
CONTINUOUS
 62
     1
 10
1553.0
 20
650.5
 30
0.0
 11
1553.0
 21
700.639279073
 31
0.0
  0
LINE
  8
0
  6
CONTINUOUS
 62
     1
 10
1399.0
 20
650.5
 30
0.0
 11
1399.0
 21
700.639279073
 31
0.0
  0
LINE
  8
0
  6
LTYPE1
 62
     2
 10
1421.0
 20
712.0
 30
0.0
 11
1421.0
 21
732.0
 31
0.0
  0
LINE
  8
0
  6
LTYPE1
 62
     2
 10
1421.0
 20
732.0
 30
0.0
 11
1396.0
 21
732.0
 31
0.0
  0
LINE
  8
0
  6
LTYPE1
 62
     2
 10
1421.0
 20
712.0
 30
0.0
 11
1396.0
 21
712.0
 31
0.0
  0
LINE
  8
0
  6
LTYPE1
 62
     2
 10
1531.0
 20
712.0
 30
0.0
 11
1531.0
 21
732.0
 31
0.0
  0
LINE
  8
0
  6
LTYPE1
 62
     2
 10
1531.0
 20
732.0
 30
0.0
 11
1556.0
 21
732.0
 31
0.0
  0
LINE
  8
0
  6
LTYPE1
 62
     2
 10
1531.0
 20
712.0
 30
0.0
 11
1556.0
 21
712.0
 31
0.0
  0
LINE
  8
0
  6
LTYPE2
 62
     2
 10
1521.0
 20
607.3
 30
0.0
 11
1521.0
 21
626.0
 31
0.0
  0
LINE
  8
0
  6
LTYPE2
 62
     2
 10
1431.0
 20
607.3
 30
0.0
 11
1431.0
 21
626.0
 31
0.0
  0
LINE
  8
0
  6
LTYPE2
 62
     2
 10
1441.4
 20
769.0
 30
0.0
 11
1417.6
 21
769.0
 31
0.0
  0
LINE
  8
0
  6
LTYPE2
 62
     2
 10
1429.0
 20
757.665527109
 30
0.0
 11
1429.0
 21
779.765527109
 31
0.0
  0
LINE
  8
0
  6
LTYPE2
 62
     2
 10
1510.6
 20
769.0
 30
0.0
 11
1534.4
 21
769.0
 31
0.0
  0
LINE
  8
0
  6
LTYPE2
 62
     2
 10
1523.0
 20
757.665527109
 30
0.0
 11
1523.0
 21
779.765527109
 31
0.0
  0
LINE
  8
0
  6
LTYPE2
 62
     2
 10
1510.6
 20
675.0
 30
0.0
 11
1534.4
 21
675.0
 31
0.0
  0
LINE
  8
0
  6
LTYPE2
 62
     2
 10
1441.4
 20
675.0
 30
0.0
 11
1417.6
 21
675.0
 31
0.0
  0
LINE
  8
0
  6
LTYPE2
 62
     2
 10
1429.0
 20
665.15
 30
0.0
 11
1429.0
 21
688.25
 31
0.0
  0
LINE
  8
0
  6
LTYPE2
 62
     2
 10
1510.6
 20
675.0
 30
0.0
 11
1534.4
 21
675.0
 31
0.0
  0
LINE
  8
0
  6
LTYPE2
 62
     2
 10
1523.0
 20
665.15
 30
0.0
 11
1523.0
 21
688.25
 31
0.0
  0
LINE
  8
0
  6
LTYPE3
 62
     2
 10
1509.9
 20
718.0
 30
0.0
 11
1509.9
 21
726.2
 31
0.0
  0
LINE
  8
0
  6
LTYPE1
 62
     2
 10
1508.0
 20
734.5
 30
0.0
 11
1488.5
 21
734.5
 31
0.0
  0
LINE
  8
0
  6
LTYPE1
 62
     2
 10
1508.0
 20
709.5
 30
0.0
 11
1488.5
 21
709.5
 31
0.0
  0
LINE
  8
0
  6
LTYPE3
 62
     2
 10
1442.1
 20
718.0
 30
0.0
 11
1442.1
 21
726.2
 31
0.0
  0
LINE
  8
0
  6
LTYPE1
 62
     2
 10
1444.0
 20
734.5
 30
0.0
 11
1463.5
 21
734.5
 31
0.0
  0
LINE
  8
0
  6
LTYPE1
 62
     2
 10
1444.0
 20
709.5
 30
0.0
 11
1463.5
 21
709.5
 31
0.0
  0
LINE
  8
0
  6
CONTINUOUS
 62
     2
 10
1530.5
 20
611.0
 30
0.0
 11
1632.372218677
 21
611.0
 31
0.0
  0
LINE
  8
0
  6
CONTINUOUS
 62
     2
 10
1399.0
 20
643.0
 30
0.0
 11
1399.0
 21
555.3
 31
0.0
  0
LINE
  8
0
  6
CONTINUOUS
 62
     2
 10
1553.0
 20
643.0
 30
0.0
 11
1553.0
 21
555.3
 31
0.0
  0
LINE
  8
0
  6
CONTINUOUS
 62
     2
 10
1396.0
 20
693.5
 30
0.0
 11
1396.0
 21
514.8375
 31
0.0
  0
LINE
  8
0
  6
CONTINUOUS
 62
     2
 10
1556.0
 20
693.5
 30
0.0
 11
1556.0
 21
514.8375
 31
0.0
  0
CIRCLE
  8
0
  6
CONTINUOUS
 62
     2
 10
1476.0
 20
636.5
 30
0.0
 40
10.4775
  0
CIRCLE
  8
0
  6
CONTINUOUS
 62
     2
 10
1476.0
 20
636.5
 30
0.0
 40
9.3155
  0
LINE
  8
0
  6
LTYPE4
 62
     2
 10
1495.9
 20
636.5
 30
0.0
 11
1455.2
 21
636.5
 31
0.0
  0
ARC
  8
0
  6
CONTINUOUS
 62
     1
 10
1429.0
 20
769.0
 30
0.0
 40
9.0
 50
4.497151615
 51
179.370401392
  0
ARC
  8
0
  6
CONTINUOUS
 62
     1
 10
1429.0
 20
769.0
 30
0.0
 40
9.0
 50
0.0
 51
4.497151615
  0
ARC
  8
0
  6
CONTINUOUS
 62
     1
 10
1476.0
 20
722.0
 30
0.0
 40
55.0
 50
46.933927913
 51
47.005647371
  0
LINE
  8
0
  6
CONTINUOUS
 62
     1
 10
1521.0
 20
662.5
 30
0.0
 11
1521.0
 21
690.377223398
 31
0.0
  0
LINE
  8
0
  6
CONTINUOUS
 62
     1
 10
1556.0
 20
701.0
 30
0.0
 11
1525.0
 21
697.272550418
 31
0.0
  0
LINE
  8
0
  6
LTYPE1
 62
     2
 10
1396.0
 20
743.0
 30
0.0
 11
1429.266714218
 21
747.0
 31
0.0
  0
LINE
  8
0
  6
CONTINUOUS
 62
     2
 10
1305.087188375
 20
678.12609696
 30
0.0
 11
1305.087188375
 21
583.6
 31
0.0
  0
LINE
  8
0
  6
CONTINUOUS
 62
     2
 10
1305.087188375
 20
591.1
 30
0.0
 11
1317.161261203
 21
587.864761936
 31
0.0
  0
LINE
  8
0
  6
CONTINUOUS
 62
     2
 10
1305.087188375
 20
591.1
 30
0.0
 11
1317.161261203
 21
594.335238064
 31
0.0
  0
LINE
  8
0
  6
CONTINUOUS
 62
     2
 10
1305.087188375
 20
591.1
 30
0.0
 11
1476.0
 21
591.1
 31
0.0
  0
LINE
  8
0
  6
CONTINUOUS
 62
     2
 10
1476.0
 20
591.1
 30
0.0
 11
1463.925927171
 21
594.335238064
 31
0.0
  0
LINE
  8
0
  6
CONTINUOUS
 62
     2
 10
1476.0
 20
591.1
 30
0.0
 11
1463.925927171
 21
587.864761936
 31
0.0
  0
LINE
  8
0
  6
LTYPE2
 62
     2
 10
1476.0
 20
992.0
 30
0.0
 11
1476.0
 21
586.5
 31
0.0
  0
LINE
  8
0
  6
CONTINUOUS
 62
     1
 10
1422.0
 20
781.0
 30
0.0
 11
1530.0
 21
781.0
 31
0.0
  0
LINE
  8
0
  6
CONTINUOUS
 62
     1
 10
1553.0
 20
743.360720927
 30
0.0
 11
1553.0
 21
869.449899598
 31
0.0
  0
ARC
  8
0
  6
CONTINUOUS
 62
     1
 10
1476.0
 20
857.0
 30
0.0
 40
78.0
 50
9.184497773
 51
38.928347994
  0
ARC
  8
0
  6
CONTINUOUS
 62
     1
 10
1476.0
 20
857.0
 30
0.0
 40
78.0
 50
141.071652006
 51
170.815502227
  0
LINE
  8
0
  6
CONTINUOUS
 62
     2
 10
1399.0
 20
562.8
 30
0.0
 11
1411.074072829
 21
559.564761936
 31
0.0
  0
LINE
  8
0
  6
CONTINUOUS
 62
     2
 10
1399.0
 20
562.8
 30
0.0
 11
1411.074072829
 21
566.035238064
 31
0.0
  0
LINE
  8
0
  6
CONTINUOUS
 62
     2
 10
1399.0
 20
562.8
 30
0.0
 11
1553.0
 21
562.8
 31
0.0
  0
LINE
  8
0
  6
CONTINUOUS
 62
     2
 10
1553.0
 20
562.8
 30
0.0
 11
1540.925927171
 21
566.035238064
 31
0.0
  0
LINE
  8
0
  6
CONTINUOUS
 62
     2
 10
1553.0
 20
562.8
 30
0.0
 11
1540.925927171
 21
559.564761936
 31
0.0
  0
LINE
  8
0
  6
CONTINUOUS
 62
     2
 10
1396.0
 20
522.3375
 30
0.0
 11
1408.074072829
 21
519.102261936
 31
0.0
  0
LINE
  8
0
  6
CONTINUOUS
 62
     2
 10
1396.0
 20
522.3375
 30
0.0
 11
1408.074072829
 21
525.572738064
 31
0.0
  0
LINE
  8
0
  6
CONTINUOUS
 62
     2
 10
1396.0
 20
522.3375
 30
0.0
 11
1556.0
 21
522.3375
 31
0.0
  0
LINE
  8
0
  6
CONTINUOUS
 62
     2
 10
1556.0
 20
522.3375
 30
0.0
 11
1543.925927171
 21
525.572738064
 31
0.0
  0
LINE
  8
0
  6
CONTINUOUS
 62
     2
 10
1556.0
 20
522.3375
 30
0.0
 11
1543.925927171
 21
519.102261936
 31
0.0
  0
TEXT
  8
0
  6
CONTINUOUS
 62
     2
 10
1454.25
 20
567.8
 30
0.0
 40
18.0
  1
１５４
 50
0.0
 41
0.9
 51
0.0
  7
KANJI20
  0
TEXT
  8
0
  6
CONTINUOUS
 62
     2
 10
1454.25
 20
527.3375
 30
0.0
 40
18.0
  1
１６０
 50
0.0
 41
0.9
 51
0.0
  7
KANJI20
  0
TEXT
  8
0
  6
CONTINUOUS
 62
     2
 10
1634.872218677
 20
644.75
 30
0.0
 40
18.0
  1
１１１
 50
90.0
 41
0.9
 51
0.0
  7
KANJI20
  0
TEXT
  8
0
  6
CONTINUOUS
 62
     2
 10
1597.222218677
 20
737.75
 30
0.0
 40
18.0
  1
φ２０Ｈ１０深さ２５
 50
90.0
 41
0.9
 51
0.0
  7
KANJI20
  0
TEXT
  8
0
  6
CONTINUOUS
 62
     2
 10
1634.872218677
 20
778.25
 30
0.0
 40
18.0
  1
１３５
 50
90.0
 41
0.9
 51
0.0
  7
KANJI20
  0
TEXT
  8
2
  6
CONTINUOUS
 62
     2
 10
1673.0
 20
771.0
 30
0.0
 40
18.0
  1
３７１
 50
90.0
 41
0.9
 51
0.0
  7
KANJI20
  0
TEXT
  8
2
  6
CONTINUOUS
 62
     3
 10
1634.872218677
 20
894.0
 30
0.0
 40
18.0
  1
１２５
 50
90.0
 41
0.9
 51
0.0
  7
KANJI20
  0
TEXT
  8
0
  6
CONTINUOUS
 62
     2
 10
1343.043594187
 20
596.1
 30
0.0
 40
18.0
  1
１７５
 50
0.0
 41
0.9
 51
0.0
  7
KANJI20
  0
LINE
  8
0
  6
CONTINUOUS
 62
     2
 10
1602.5
 20
898.0
 30
0.0
 11
1602.5
 21
693.25
 31
0.0
  0
LINE
  8
0
  6
CONTINUOUS
 62
     1
 10
1512.37
 20
1668.9
 30
0.0
 11
1512.37
 21
1548.78
 31
0.0
  0
LINE
  8
0
  6
CONTINUOUS
 62
     2
 10
1443.07
 20
1668.9
 30
0.0
 11
1443.07
 21
1548.78
 31
0.0
  0
LINE
  8
0
  6
CONTINUOUS
 62
     2
 10
1373.77
 20
1668.9
 30
0.0
 11
1373.77
 21
1548.78
 31
0.0
  0
LINE
  8
0
  6
CONTINUOUS
 62
     1
 10
1281.37
 20
1668.9
 30
0.0
 11
1281.37
 21
1548.78
 31
0.0
  0
LINE
  8
0
  6
CONTINUOUS
 62
     1
 10
1281.37
 20
1668.9
 30
0.0
 11
1512.37
 21
1668.9
 31
0.0
  0
LINE
  8
0
  6
CONTINUOUS
 62
     1
 10
1281.37
 20
1631.94
 30
0.0
 11
1512.37
 21
1631.94
 31
0.0
  0
LINE
  8
0
  6
CONTINUOUS
 62
     2
 10
1281.37
 20
1604.22
 30
0.0
 11
1512.37
 21
1604.22
 31
0.0
  0
LINE
  8
0
  6
CONTINUOUS
 62
     2
 10
1281.37
 20
1576.5
 30
0.0
 11
1512.37
 21
1576.5
 31
0.0
  0
LINE
  8
0
  6
CONTINUOUS
 62
     1
 10
1281.37
 20
1548.78
 30
0.0
 11
1512.37
 21
1548.78
 31
0.0
  0
TEXT
  8
0
  6
CONTINUOUS
 62
     2
 10
1452.31
 20
1652.73
 30
1.386
 40
13.86
  1
起動電流
 50
0.0
 41
0.9
 51
0.0
  7
KANJI21
  0
TEXT
  8
0
  6
CONTINUOUS
 62
     2
 10
1452.31
 20
1636.56
 30
1.386
 40
13.86
  1
　　　Ａ
 50
0.0
 41
0.9
 51
0.0
  7
KANJI21
  0
TEXT
  8
0
  6
CONTINUOUS
 62
     2
 10
1383.01
 20
1652.73
 30
1.386
 40
13.86
  1
定格電流
 50
0.0
 41
0.9
 51
0.0
  7
KANJI21
  0
TEXT
  8
0
  6
CONTINUOUS
 62
     2
 10
1383.01
 20
1636.56
 30
1.386
 40
13.86
  1
　　　Ａ
 50
0.0
 41
0.9
 51
0.0
  7
KANJI21
  0
TEXT
  8
0
  6
CONTINUOUS
 62
     2
 10
1289.224
 20
1583.43
 30
1.386
 40
13.86
  1
２００／６０
 50
0.0
 41
0.9
 51
0.0
  7
KANJI21
  0
TEXT
  8
0
  6
CONTINUOUS
 62
     2
 10
1289.224
 20
1652.73
 30
1.386
 40
13.86
  1
電圧／周波数
 50
0.0
 41
0.9
 51
0.0
  7
KANJI21
  0
TEXT
  8
0
  6
CONTINUOUS
 62
     2
 10
1289.224
 20
1636.56
 30
1.386
 40
13.86
  1
　Ｖ／Ｈｚ
 50
0.0
 41
0.9
 51
0.0
  7
KANJI21
  0
TEXT
  8
0
  6
CONTINUOUS
 62
     2
 10
1289.224
 20
1611.15
 30
1.386
 40
13.86
  1
２００／５０
 50
0.0
 41
0.9
 51
0.0
  7
KANJI21
  0
TEXT
  8
0
  6
CONTINUOUS
 62
     2
 10
1289.224
 20
1555.71
 30
1.386
 40
13.86
  1
２２０／６０
 50
0.0
 41
0.9
 51
0.0
  7
KANJI21
  0
LINE
  8
0
  6
CONTINUOUS
 62
     1
 10
1235.17
 20
1668.9
 30
0.0
 11
1235.17
 21
1548.78
 31
0.0
  0
LINE
  8
0
  6
CONTINUOUS
 62
     2
 10
1165.87
 20
1668.9
 30
0.0
 11
1165.87
 21
1548.78
 31
0.0
  0
LINE
  8
0
  6
CONTINUOUS
 62
     2
 10
1096.57
 20
1668.9
 30
0.0
 11
1096.57
 21
1548.78
 31
0.0
  0
LINE
  8
0
  6
CONTINUOUS
 62
     1
 10
1004.17
 20
1668.9
 30
0.0
 11
1004.17
 21
1548.78
 31
0.0
  0
LINE
  8
0
  6
CONTINUOUS
 62
     1
 10
1004.17
 20
1668.9
 30
0.0
 11
1235.17
 21
1668.9
 31
0.0
  0
LINE
  8
0
  6
CONTINUOUS
 62
     1
 10
1004.17
 20
1631.94
 30
0.0
 11
1235.17
 21
1631.94
 31
0.0
  0
LINE
  8
0
  6
CONTINUOUS
 62
     2
 10
1004.17
 20
1604.22
 30
0.0
 11
1235.17
 21
1604.22
 31
0.0
  0
LINE
  8
0
  6
CONTINUOUS
 62
     2
 10
1004.17
 20
1576.5
 30
0.0
 11
1235.17
 21
1576.5
 31
0.0
  0
LINE
  8
0
  6
CONTINUOUS
 62
     1
 10
1004.17
 20
1548.78
 30
0.0
 11
1235.17
 21
1548.78
 31
0.0
  0
TEXT
  8
0
  6
CONTINUOUS
 62
     2
 10
1175.11
 20
1652.73
 30
1.386
 40
13.86
  1
起動電流
 50
0.0
 41
0.9
 51
0.0
  7
KANJI21
  0
TEXT
  8
0
  6
CONTINUOUS
 62
     2
 10
1175.11
 20
1636.56
 30
1.386
 40
13.86
  1
　　　Ａ
 50
0.0
 41
0.9
 51
0.0
  7
KANJI21
  0
TEXT
  8
0
  6
CONTINUOUS
 62
     2
 10
1105.81
 20
1652.73
 30
1.386
 40
13.86
  1
定格電流
 50
0.0
 41
0.9
 51
0.0
  7
KANJI21
  0
TEXT
  8
0
  6
CONTINUOUS
 62
     2
 10
1105.81
 20
1636.56
 30
1.386
 40
13.86
  1
　　　Ａ
 50
0.0
 41
0.9
 51
0.0
  7
KANJI21
  0
TEXT
  8
0
  6
CONTINUOUS
 62
     2
 10
1012.024
 20
1652.73
 30
1.386
 40
13.86
  1
電圧／周波数
 50
0.0
 41
0.9
 51
0.0
  7
KANJI21
  0
TEXT
  8
0
  6
CONTINUOUS
 62
     2
 10
1012.024
 20
1636.56
 30
1.386
 40
13.86
  1
　Ｖ／Ｈｚ
 50
0.0
 41
0.9
 51
0.0
  7
KANJI21
  0
TEXT
  8
0
  6
CONTINUOUS
 62
     2
 10
1012.024
 20
1611.15
 30
1.386
 40
13.86
  1
４００／５０
 50
0.0
 41
0.9
 51
0.0
  7
KANJI21
  0
TEXT
  8
0
  6
CONTINUOUS
 62
     2
 10
1012.024
 20
1583.43
 30
1.386
 40
13.86
  1
４００／６０
 50
0.0
 41
0.9
 51
0.0
  7
KANJI21
  0
TEXT
  8
0
  6
CONTINUOUS
 62
     2
 10
1012.024
 20
1555.71
 30
1.386
 40
13.86
  1
４４０／６０
 50
0.0
 41
0.9
 51
0.0
  7
KANJI21
  0
TEXT
  8
0
  6
CONTINUOUS
 62
     2
 10
1452.31
 20
1611.15
 30
1.386
 40
13.86
  1
　９．２
 50
0.0
 41
0.9
 51
0.0
  7
KANJI21
  0
TEXT
  8
0
  6
CONTINUOUS
 62
     2
 10
1452.31
 20
1583.43
 30
1.386
 40
13.86
  1
　８
 50
0.0
 41
0.9
 51
0.0
  7
KANJI21
  0
TEXT
  8
0
  6
CONTINUOUS
 62
     2
 10
1452.31
 20
1555.71
 30
1.386
 40
13.86
  1
　８．８
 50
0.0
 41
0.9
 51
0.0
  7
KANJI21
  0
TEXT
  8
0
  6
CONTINUOUS
 62
     2
 10
1383.01
 20
1611.15
 30
1.386
 40
13.86
  1
　４．０
 50
0.0
 41
0.9
 51
0.0
  7
KANJI21
  0
TEXT
  8
0
  6
CONTINUOUS
 62
     2
 10
1383.01
 20
1583.43
 30
1.386
 40
13.86
  1
　２．８
 50
0.0
 41
0.9
 51
0.0
  7
KANJI21
  0
TEXT
  8
0
  6
CONTINUOUS
 62
     2
 10
1383.01
 20
1555.71
 30
1.386
 40
13.86
  1
　３．３
 50
0.0
 41
0.9
 51
0.0
  7
KANJI21
  0
TEXT
  8
0
  6
CONTINUOUS
 62
     2
 10
1175.11
 20
1611.15
 30
1.386
 40
13.86
  1
　４．６
 50
0.0
 41
0.9
 51
0.0
  7
KANJI21
  0
TEXT
  8
0
  6
CONTINUOUS
 62
     2
 10
1175.11
 20
1583.43
 30
1.386
 40
13.86
  1
　４
 50
0.0
 41
0.9
 51
0.0
  7
KANJI21
  0
TEXT
  8
0
  6
CONTINUOUS
 62
     2
 10
1175.11
 20
1555.71
 30
1.386
 40
13.86
  1
　４．４
 50
0.0
 41
0.9
 51
0.0
  7
KANJI21
  0
TEXT
  8
0
  6
CONTINUOUS
 62
     2
 10
1105.81
 20
1611.15
 30
1.386
 40
13.86
  1
　２．０
 50
0.0
 41
0.9
 51
0.0
  7
KANJI21
  0
TEXT
  8
0
  6
CONTINUOUS
 62
     2
 10
1105.81
 20
1583.43
 30
1.386
 40
13.86
  1
　１．４
 50
0.0
 41
0.9
 51
0.0
  7
KANJI21
  0
TEXT
  8
0
  6
CONTINUOUS
 62
     2
 10
1105.81
 20
1555.71
 30
1.386
 40
13.86
  1
　１．７
 50
0.0
 41
0.9
 51
0.0
  7
KANJI21
  0
LINE
  8
0
  6
CONTINUOUS
 62
     2
 10
1718.32
 20
700.5
 30
0.0
 11
1862.32
 21
700.5
 31
0.0
  0
TEXT
  8
0
  6
CONTINUOUS
 62
     2
 10
1730.92
 20
708.9
 30
12.0
 40
24.0
  1
特記事項
 50
0.0
 41
0.9
 51
0.0
  7
KANJI22
  0
TEXT
  8
0
  6
CONTINUOUS
 62
     2
 10
1724.92
 20
589.2
 30
1.8
 40
21.0
  1
３．ＬＳユニット
 50
0.0
 41
0.857142857
 51
0.0
  7
KANJI23
  0
TEXT
  8
0
  6
CONTINUOUS
 62
     2
 10
1724.92
 20
664.2
 30
1.8
 40
21.0
  1
１．運転時は必ずピストンロッドの回転防止を行って下さい。
 50
0.0
 41
0.857142857
 51
0.0
  7
KANJI23
  0
TEXT
  8
0
  6
CONTINUOUS
 62
     2
 10
1724.92
 20
626.7
 30
1.8
 40
21.0
  1
２．モートル：全閉自冷かご形３０分定格
 50
0.0
 41
0.857142857
 51
0.0
  7
KANJI23
  0
TEXT
  8
0
  6
CONTINUOUS
 62
     2
 10
1724.92
 20
496.2
 30
1.8
 40
21.0
  1
４．呼称ストロークは、機械的ストロークです。
 50
0.0
 41
0.857142857
 51
0.0
  7
KANJI23
  0
TEXT
  8
0
  6
CONTINUOUS
 62
     2
 10
1724.92
 20
529.2
 30
1.8
 40
21.0
  1
　　ストローク７００ｍｍ以上の場合２ロッド方式となります。
 50
0.0
 41
0.857142857
 51
0.0
  7
KANJI23
  0
TEXT
  8
0
  6
CONTINUOUS
 62
     2
 10
1724.92
 20
559.2
 30
1.8
 40
21.0
  1
　　リミットスイッチ：１ＬＳ１－Ｊｘ２ケ（山武）
 50
0.0
 41
0.857142857
 51
0.0
  7
KANJI23
  0
TEXT
  8
0
  6
CONTINUOUS
 62
     2
 10
1724.92
 20
459.24
 30
1.8
 40
21.0
  1
　　必ず、常用はストローク両端に必ず余裕を取って下さい。
 50
0.0
 41
0.857142857
 51
0.0
  7
KANJI23
  0
TEXT
  8
0
  6
CONTINUOUS
 62
     2
 10
1724.92
 20
421.464
 30
1.8
 40
21.0
  1
　　前後の推奨余裕寸法は、各々１５ｍｍです。
 50
0.0
 41
0.857142857
 51
0.0
  7
KANJI23
  0
LINE
  8
0
  6
CONTINUOUS
 62
     1
 10
1399.0
 20
823.383629889
 30
0.0
 11
1399.0
 21
869.449899598
 31
0.0
  0
LINE
  8
0
  6
CONTINUOUS
 62
     1
 10
1431.0
 20
662.5
 30
0.0
 11
1431.0
 21
683.329180819
 31
0.0
  0
LINE
  8
0
  6
CONTINUOUS
 62
     1
 10
390.0
 20
644.5
 30
0.0
 11
304.0
 21
644.5
 31
0.0
  0
LINE
  8
0
  6
CONTINUOUS
 62
     1
 10
304.0
 20
658.0
 30
0.0
 11
304.0
 21
647.05046
 31
0.0
  0
LINE
  8
0
  6
CONTINUOUS
 62
     1
 10
304.0
 20
658.0
 30
0.0
 11
304.0
 21
668.94954
 31
0.0
  0
LINE
  8
0
  6
CONTINUOUS
 62
     1
 10
295.9789
 20
649.73198
 30
0.0
 11
297.527076294
 21
647.05046
 31
0.0
  0
LINE
  8
0
  6
CONTINUOUS
 62
     1
 10
295.9789
 20
658.0
 30
0.0
 11
295.9789
 21
649.73198
 31
0.0
  0
LINE
  8
0
  6
CONTINUOUS
 62
     1
 10
295.9789
 20
666.26802
 30
0.0
 11
297.527076294
 21
668.94954
 31
0.0
  0
LINE
  8
0
  6
CONTINUOUS
 62
     1
 10
295.9789
 20
658.0
 30
0.0
 11
295.9789
 21
666.26802
 31
0.0
  0
ARC
  8
0
  6
CONTINUOUS
 62
     1
 10
306.433121693
 20
658.0
 30
0.0
 40
10.454221693
 50
148.419912243
 51
211.580087757
  0
ARC
  8
0
  6
CONTINUOUS
 62
     1
 10
299.172013606
 20
649.787845
 30
0.0
 40
3.193602261
 50
121.002313915
 51
182.989498403
  0
LINE
  8
0
  6
CONTINUOUS
 62
     1
 10
295.9789
 20
666.26802
 30
0.0
 11
297.527076294
 21
668.94954
 31
0.0
  0
ARC
  8
0
  6
CONTINUOUS
 62
     1
 10
299.172013606
 20
666.212155
 30
0.0
 40
3.193602261
 50
177.010501597
 51
238.997686085
  0
LINE
  8
0
  6
CONTINUOUS
 62
     1
 10
304.0
 20
647.05046
 30
0.0
 11
297.527076294
 21
647.05046
 31
0.0
  0
LINE
  8
0
  6
CONTINUOUS
 62
     1
 10
304.0
 20
652.52523
 30
0.0
 11
297.527076294
 21
652.52523
 31
0.0
  0
LINE
  8
0
  6
CONTINUOUS
 62
     1
 10
304.0
 20
663.47477
 30
0.0
 11
297.527076294
 21
663.47477
 31
0.0
  0
LINE
  8
0
  6
CONTINUOUS
 62
     1
 10
304.0
 20
668.94954
 30
0.0
 11
297.527076294
 21
668.94954
 31
0.0
  0
LINE
  8
0
  6
CONTINUOUS
 62
     1
 10
304.0
 20
786.0
 30
0.0
 11
304.0
 21
775.05046
 31
0.0
  0
LINE
  8
0
  6
CONTINUOUS
 62
     1
 10
304.0
 20
786.0
 30
0.0
 11
304.0
 21
796.94954
 31
0.0
  0
LINE
  8
0
  6
CONTINUOUS
 62
     1
 10
295.9789
 20
777.73198
 30
0.0
 11
297.527076294
 21
775.05046
 31
0.0
  0
LINE
  8
0
  6
CONTINUOUS
 62
     1
 10
295.9789
 20
786.0
 30
0.0
 11
295.9789
 21
777.73198
 31
0.0
  0
LINE
  8
0
  6
CONTINUOUS
 62
     1
 10
295.9789
 20
794.26802
 30
0.0
 11
297.527076294
 21
796.94954
 31
0.0
  0
LINE
  8
0
  6
CONTINUOUS
 62
     1
 10
295.9789
 20
786.0
 30
0.0
 11
295.9789
 21
794.26802
 31
0.0
  0
ARC
  8
0
  6
CONTINUOUS
 62
     1
 10
306.433121693
 20
786.0
 30
0.0
 40
10.454221693
 50
148.419912243
 51
211.580087757
  0
ARC
  8
0
  6
CONTINUOUS
 62
     1
 10
299.172013606
 20
777.787845
 30
0.0
 40
3.193602261
 50
121.002313915
 51
182.989498403
  0
LINE
  8
0
  6
CONTINUOUS
 62
     1
 10
295.9789
 20
794.26802
 30
0.0
 11
297.527076294
 21
796.94954
 31
0.0
  0
ARC
  8
0
  6
CONTINUOUS
 62
     1
 10
299.172013606
 20
794.212155
 30
0.0
 40
3.193602261
 50
177.010501597
 51
238.997686085
  0
LINE
  8
0
  6
CONTINUOUS
 62
     1
 10
304.0
 20
775.05046
 30
0.0
 11
297.527076294
 21
775.05046
 31
0.0
  0
LINE
  8
0
  6
CONTINUOUS
 62
     1
 10
304.0
 20
780.52523
 30
0.0
 11
297.527076294
 21
780.52523
 31
0.0
  0
LINE
  8
0
  6
CONTINUOUS
 62
     1
 10
304.0
 20
791.47477
 30
0.0
 11
297.527076294
 21
791.47477
 31
0.0
  0
LINE
  8
0
  6
CONTINUOUS
 62
     1
 10
304.0
 20
796.94954
 30
0.0
 11
297.527076294
 21
796.94954
 31
0.0
  0
LINE
  8
0
  6
CONTINUOUS
 62
     1
 10
498.0
 20
664.0
 30
0.0
 11
572.0
 21
664.0
 31
0.0
  0
LINE
  8
0
  6
CONTINUOUS
 62
     1
 10
572.0
 20
664.0
 30
0.0
 11
572.0
 21
775.0
 31
0.0
  0
LINE
  8
0
  6
CONTINUOUS
 62
     1
 10
405.0
 20
665.0
 30
0.0
 11
405.0
 21
779.0
 31
0.0
  0
CIRCLE
  8
0
  6
CONTINUOUS
 62
     1
 10
450.0
 20
722.0
 30
0.0
 40
10.0
  0
CIRCLE
  8
0
  6
CONTINUOUS
 62
     1
 10
450.0
 20
722.0
 30
0.0
 40
21.0
  0
CIRCLE
  8
0
  6
CONTINUOUS
 62
     1
 10
450.0
 20
722.0
 30
0.0
 40
25.0
  0
LINE
  8
0
  6
CONTINUOUS
 62
     1
 10
390.0
 20
779.0
 30
0.0
 11
405.0
 21
779.0
 31
0.0
  0
LINE
  8
0
  6
CONTINUOUS
 62
     1
 10
418.9
 20
775.0
 30
0.0
 11
572.0
 21
775.0
 31
0.0
  0
LINE
  8
0
  6
CONTINUOUS
 62
     1
 10
498.0
 20
664.0
 30
0.0
 11
498.0
 21
716.4
 31
0.0
  0
LINE
  8
0
  6
CONTINUOUS
 62
     1
 10
418.9
 20
669.0
 30
0.0
 11
495.5
 21
669.0
 31
0.0
  0
LINE
  8
0
  6
CONTINUOUS
 62
     1
 10
580.0
 20
662.5
 30
0.0
 11
580.0
 21
661.5
 31
0.0
  0
ARC
  8
0
  6
CONTINUOUS
 62
     1
 10
493.0
 20
659.5
 30
0.0
 40
3.0
 50
90.0
 51
180.0
  0
LINE
  8
0
  6
CONTINUOUS
 62
     1
 10
580.0
 20
661.5
 30
0.0
 11
616.0
 21
661.5
 31
0.0
  0
ARC
  8
0
  6
CONTINUOUS
 62
     1
 10
616.0
 20
658.5
 30
0.0
 40
3.0
 50
0.0
 51
90.0
  0
LINE
  8
0
  6
CONTINUOUS
 62
     1
 10
493.0
 20
662.5
 30
0.0
 11
580.0
 21
662.5
 31
0.0
  0
LINE
  8
0
  6
CONTINUOUS
 62
     1
 10
493.0
 20
664.0
 30
0.0
 11
580.0
 21
664.0
 31
0.0
  0
LINE
  8
0
  6
CONTINUOUS
 62
     1
 10
408.0
 20
767.0
 30
0.0
 11
408.0
 21
777.94954
 31
0.0
  0
LINE
  8
0
  6
CONTINUOUS
 62
     1
 10
408.0
 20
767.0
 30
0.0
 11
408.0
 21
756.05046
 31
0.0
  0
LINE
  8
0
  6
CONTINUOUS
 62
     1
 10
405.0
 20
777.75
 30
0.0
 11
408.0
 21
777.75
 31
0.0
  0
LINE
  8
0
  6
CONTINUOUS
 62
     1
 10
405.0
 20
767.0
 30
0.0
 11
408.000254073
 21
770.000254073
 31
0.0
  0
LINE
  8
0
  6
CONTINUOUS
 62
     1
 10
408.000254073
 20
767.0
 30
0.0
 11
405.0
 21
763.999745927
 31
0.0
  0
LINE
  8
0
  6
CONTINUOUS
 62
     1
 10
405.0
 20
756.25
 30
0.0
 11
408.0
 21
756.25
 31
0.0
  0
LINE
  8
0
  6
CONTINUOUS
 62
     1
 10
408.0
 20
777.75
 30
0.0
 11
419.3
 21
777.75
 31
0.0
  0
LINE
  8
0
  6
CONTINUOUS
 62
     1
 10
419.3
 20
767.0
 30
0.0
 11
419.3
 21
777.75
 31
0.0
  0
LINE
  8
0
  6
CONTINUOUS
 62
     1
 10
419.3
 20
777.75
 30
0.0
 11
420.0
 21
776.537564435
 31
0.0
  0
LINE
  8
0
  6
CONTINUOUS
 62
     1
 10
420.0
 20
767.0
 30
0.0
 11
420.0
 21
776.537564435
 31
0.0
  0
LINE
  8
0
  6
CONTINUOUS
 62
     1
 10
408.0
 20
756.25
 30
0.0
 11
419.3
 21
756.25
 31
0.0
  0
LINE
  8
0
  6
CONTINUOUS
 62
     1
 10
419.3
 20
767.0
 30
0.0
 11
419.3
 21
756.25
 31
0.0
  0
LINE
  8
0
  6
CONTINUOUS
 62
     1
 10
419.3
 20
756.25
 30
0.0
 11
420.0
 21
757.462435565
 31
0.0
  0
LINE
  8
0
  6
CONTINUOUS
 62
     1
 10
420.0
 20
767.0
 30
0.0
 11
420.0
 21
757.462435565
 31
0.0
  0
LINE
  8
0
  6
CONTINUOUS
 62
     1
 10
408.0
 20
677.0
 30
0.0
 11
408.0
 21
666.05046
 31
0.0
  0
LINE
  8
0
  6
CONTINUOUS
 62
     1
 10
408.0
 20
677.0
 30
0.0
 11
408.0
 21
687.94954
 31
0.0
  0
LINE
  8
0
  6
CONTINUOUS
 62
     1
 10
405.0
 20
666.25
 30
0.0
 11
408.0
 21
666.25
 31
0.0
  0
LINE
  8
0
  6
CONTINUOUS
 62
     1
 10
405.0
 20
677.0
 30
0.0
 11
408.000254073
 21
673.999745927
 31
0.0
  0
LINE
  8
0
  6
CONTINUOUS
 62
     1
 10
408.000254073
 20
677.0
 30
0.0
 11
405.0
 21
680.000254073
 31
0.0
  0
LINE
  8
0
  6
CONTINUOUS
 62
     1
 10
405.0
 20
687.75
 30
0.0
 11
408.0
 21
687.75
 31
0.0
  0
LINE
  8
0
  6
CONTINUOUS
 62
     1
 10
408.0
 20
666.25
 30
0.0
 11
419.3
 21
666.25
 31
0.0
  0
LINE
  8
0
  6
CONTINUOUS
 62
     1
 10
419.3
 20
677.0
 30
0.0
 11
419.3
 21
666.25
 31
0.0
  0
LINE
  8
0
  6
CONTINUOUS
 62
     1
 10
419.3
 20
666.25
 30
0.0
 11
420.0
 21
667.462435565
 31
0.0
  0
LINE
  8
0
  6
CONTINUOUS
 62
     1
 10
420.0
 20
677.0
 30
0.0
 11
420.0
 21
667.462435565
 31
0.0
  0
LINE
  8
0
  6
CONTINUOUS
 62
     1
 10
408.0
 20
687.75
 30
0.0
 11
419.3
 21
687.75
 31
0.0
  0
LINE
  8
0
  6
CONTINUOUS
 62
     1
 10
419.3
 20
677.0
 30
0.0
 11
419.3
 21
687.75
 31
0.0
  0
LINE
  8
0
  6
CONTINUOUS
 62
     1
 10
419.3
 20
687.75
 30
0.0
 11
420.0
 21
686.537564435
 31
0.0
  0
LINE
  8
0
  6
CONTINUOUS
 62
     1
 10
420.0
 20
677.0
 30
0.0
 11
420.0
 21
686.537564435
 31
0.0
  0
LINE
  8
0
  6
CONTINUOUS
 62
     1
 10
390.0
 20
665.0
 30
0.0
 11
405.0
 21
665.0
 31
0.0
  0
POINT
  8
0
  6
CONTINUOUS
 62
     1
 10
390.0
 20
665.0
 30
0.0
  0
LINE
  8
0
  6
CONTINUOUS
 62
     1
 10
390.0
 20
665.0
 30
0.0
 11
390.0
 21
779.0
 31
0.0
  0
LINE
  8
0
  6
CONTINUOUS
 62
     1
 10
581.0
 20
671.0
 30
0.0
 11
581.0
 21
773.0
 31
0.0
  0
LINE
  8
0
  6
CONTINUOUS
 62
     1
 10
581.0
 20
773.0
 30
0.0
 11
572.0
 21
773.0
 31
0.0
  0
LINE
  8
0
  6
CONTINUOUS
 62
     1
 10
581.0
 20
671.0
 30
0.0
 11
572.0
 21
671.0
 31
0.0
  0
LINE
  8
0
  6
CONTINUOUS
 62
     1
 10
581.0
 20
769.5
 30
0.0
 11
572.0
 21
769.5
 31
0.0
  0
LINE
  8
0
  6
CONTINUOUS
 62
     1
 10
581.0
 20
674.5
 30
0.0
 11
572.0
 21
674.5
 31
0.0
  0
LINE
  8
0
  6
CONTINUOUS
 62
     1
 10
581.0
 20
718.0
 30
0.0
 11
572.0
 21
718.0
 31
0.0
  0
LINE
  8
0
  6
CONTINUOUS
 62
     1
 10
581.0
 20
726.0
 30
0.0
 11
572.0
 21
726.0
 31
0.0
  0
LINE
  8
0
  6
LTYPE2
 62
     2
 10
329.1
 20
658.0
 30
0.0
 11
294.9
 21
658.0
 31
0.0
  0
LINE
  8
0
  6
LTYPE2
 62
     2
 10
330.1
 20
786.0
 30
0.0
 11
294.9
 21
786.0
 31
0.0
  0
LINE
  8
0
  6
LTYPE2
 62
     2
 10
369.0
 20
767.0
 30
0.0
 11
422.0
 21
767.0
 31
0.0
  0
LINE
  8
0
  6
LTYPE2
 62
     2
 10
450.0
 20
690.5
 30
0.0
 11
450.0
 21
753.5
 31
0.0
  0
LINE
  8
0
  6
LTYPE2
 62
     2
 10
369.0
 20
677.0
 30
0.0
 11
422.0
 21
677.0
 31
0.0
  0
LINE
  8
0
  6
LTYPE1
 62
     2
 10
619.0
 20
645.8
 30
0.0
 11
609.0
 21
645.8
 31
0.0
  0
LINE
  8
0
  6
LTYPE1
 62
     2
 10
619.0
 20
647.0
 30
0.0
 11
609.0
 21
647.0
 31
0.0
  0
LINE
  8
0
  6
LTYPE1
 62
     2
 10
619.0
 20
627.2
 30
0.0
 11
609.0
 21
627.2
 31
0.0
  0
LINE
  8
0
  6
LTYPE1
 62
     2
 10
619.0
 20
626.0
 30
0.0
 11
609.0
 21
626.0
 31
0.0
  0
LINE
  8
0
  6
LTYPE4
 62
     2
 10
625.2
 20
636.5
 30
0.0
 11
605.5
 21
636.5
 31
0.0
  0
LINE
  8
0
  6
LTYPE4
 62
     2
 10
534.0
 20
650.8
 30
0.0
 11
534.0
 21
665.65
 31
0.0
  0
LINE
  8
0
  6
CONTINUOUS
 62
     1
 10
390.0
 20
798.0
 30
0.0
 11
390.0
 21
958.0
 31
0.0
  0
LINE
  8
0
  6
CONTINUOUS
 62
     1
 10
390.0
 20
798.0
 30
0.0
 11
390.0
 21
958.0
 31
0.0
  0
LINE
  8
0
  6
CONTINUOUS
 62
     1
 10
378.0
 20
894.4
 30
0.0
 11
378.0
 21
900.0
 31
0.0
  0
LINE
  8
0
  6
CONTINUOUS
 62
     1
 10
285.0
 20
840.0
 30
0.0
 11
285.0
 21
874.0
 31
0.0
  0
LINE
  8
0
  6
CONTINUOUS
 62
     1
 10
315.0
 20
840.0
 30
0.0
 11
315.0
 21
874.0
 31
0.0
  0
LINE
  8
0
  6
CONTINUOUS
 62
     1
 10
319.0
 20
874.0
 30
0.0
 11
285.0
 21
874.0
 31
0.0
  0
LINE
  8
0
  6
CONTINUOUS
 62
     1
 10
319.0
 20
840.0
 30
0.0
 11
285.0
 21
840.0
 31
0.0
  0
LINE
  8
0
  6
CONTINUOUS
 62
     1
 10
378.0
 20
833.0
 30
0.0
 11
378.0
 21
891.3
 31
0.0
  0
ARC
  8
0
  6
CONTINUOUS
 62
     1
 10
372.0
 20
833.0
 30
0.0
 40
6.0
 50
270.0
 51
0.0
  0
LINE
  8
0
  6
CONTINUOUS
 62
     1
 10
376.0
 20
827.0
 30
0.0
 11
319.0
 21
827.0
 31
0.0
  0
ARC
  8
0
  6
CONTINUOUS
 62
     1
 10
376.0
 20
833.0
 30
0.0
 40
6.0
 50
270.0
 51
0.0
  0
LINE
  8
0
  6
CONTINUOUS
 62
     1
 10
319.0
 20
838.5
 30
0.0
 11
304.0
 21
838.5
 31
0.0
  0
LINE
  8
0
  6
CONTINUOUS
 62
     1
 10
304.0
 20
829.5
 30
0.0
 11
304.0
 21
822.00594
 31
0.0
  0
LINE
  8
0
  6
CONTINUOUS
 62
     1
 10
304.0
 20
829.5
 30
0.0
 11
304.0
 21
836.99406
 31
0.0
  0
LINE
  8
0
  6
CONTINUOUS
 62
     1
 10
298.5001
 20
823.84122
 30
0.0
 11
299.559699402
 21
822.00594
 31
0.0
  0
LINE
  8
0
  6
CONTINUOUS
 62
     1
 10
298.5001
 20
829.5
 30
0.0
 11
298.5001
 21
823.84122
 31
0.0
  0
LINE
  8
0
  6
CONTINUOUS
 62
     1
 10
298.5001
 20
835.15878
 30
0.0
 11
299.559699402
 21
836.99406
 31
0.0
  0
LINE
  8
0
  6
CONTINUOUS
 62
     1
 10
298.5001
 20
829.5
 30
0.0
 11
298.5001
 21
835.15878
 31
0.0
  0
ARC
  8
0
  6
CONTINUOUS
 62
     1
 10
305.655155337
 20
829.5
 30
0.0
 40
7.155055337
 50
148.419912243
 51
211.580087757
  0
ARC
  8
0
  6
CONTINUOUS
 62
     1
 10
300.685523767
 20
823.879455
 30
0.0
 40
2.185758211
 50
121.002313915
 51
182.989498403
  0
LINE
  8
0
  6
CONTINUOUS
 62
     1
 10
298.5001
 20
835.15878
 30
0.0
 11
299.559699402
 21
836.99406
 31
0.0
  0
ARC
  8
0
  6
CONTINUOUS
 62
     1
 10
300.685523767
 20
835.120545
 30
0.0
 40
2.185758211
 50
177.010501597
 51
238.997686085
  0
LINE
  8
0
  6
CONTINUOUS
 62
     1
 10
304.0
 20
822.00594
 30
0.0
 11
299.559699402
 21
822.00594
 31
0.0
  0
LINE
  8
0
  6
CONTINUOUS
 62
     1
 10
304.0
 20
825.75297
 30
0.0
 11
299.559699402
 21
825.75297
 31
0.0
  0
LINE
  8
0
  6
CONTINUOUS
 62
     1
 10
304.0
 20
833.24703
 30
0.0
 11
299.559699402
 21
833.24703
 31
0.0
  0
LINE
  8
0
  6
CONTINUOUS
 62
     1
 10
304.0
 20
836.99406
 30
0.0
 11
299.559699402
 21
836.99406
 31
0.0
  0
LINE
  8
0
  6
CONTINUOUS
 62
     1
 10
347.0
 20
900.0
 30
0.0
 11
319.0
 21
900.0
 31
0.0
  0
ARC
  8
0
  6
CONTINUOUS
 62
     1
 10
347.0
 20
906.0
 30
0.0
 40
6.0
 50
270.0
 51
360.0
  0
LINE
  8
0
  6
CONTINUOUS
 62
     1
 10
378.0
 20
900.0
 30
0.0
 11
347.0
 21
900.0
 31
0.0
  0
LINE
  8
0
  6
LTYPE2
 62
     2
 10
334.6
 20
829.5
 30
0.0
 11
295.3
 21
829.5
 31
0.0
  0
LINE
  8
0
  6
CONTINUOUS
 62
     2
 10
309.5
 20
873.8
 30
0.0
 11
308.019645058
 21
886.212032438
 31
0.0
  0
LINE
  8
0
  6
CONTINUOUS
 62
     2
 10
309.5
 20
873.8
 30
0.0
 11
302.011958794
 21
883.808957933
 31
0.0
  0
LINE
  8
0
  6
CONTINUOUS
 62
     2
 10
285.0
 20
881.5
 30
0.0
 11
285.0
 21
1077.9
 31
0.0
  0
LINE
  8
0
  6
CONTINUOUS
 62
     2
 10
285.0
 20
1070.4
 30
0.0
 11
297.074072829
 21
1067.164761936
 31
0.0
  0
LINE
  8
0
  6
CONTINUOUS
 62
     2
 10
285.0
 20
1070.4
 30
0.0
 11
297.074072829
 21
1073.635238064
 31
0.0
  0
LINE
  8
0
  6
CONTINUOUS
 62
     2
 10
285.0
 20
1070.4
 30
0.0
 11
390.0
 21
1070.4
 31
0.0
  0
LINE
  8
0
  6
CONTINUOUS
 62
     2
 10
390.0
 20
1070.4
 30
0.0
 11
377.925927171
 21
1073.635238064
 31
0.0
  0
LINE
  8
0
  6
CONTINUOUS
 62
     2
 10
390.0
 20
1070.4
 30
0.0
 11
377.925927171
 21
1067.164761936
 31
0.0
  0
LINE
  8
0
  6
CONTINUOUS
 62
     2
 10
309.5
 20
873.8
 30
0.0
 11
269.58
 21
973.6
 31
0.0
  0
LINE
  8
0
  6
CONTINUOUS
 62
     1
 10
390.0
 20
644.5
 30
0.0
 11
390.0
 21
952.0
 31
0.0
  0
LINE
  8
0
  6
CONTINUOUS
 62
     1
 10
319.0
 20
644.5
 30
0.0
 11
319.0
 21
900.0
 31
0.0
  0
LINE
  8
0
  6
CONTINUOUS
 62
     1
 10
304.0
 20
644.5
 30
0.0
 11
304.0
 21
838.5
 31
0.0
  0
LINE
  8
0
  6
CONTINUOUS
 62
     2
 10
390.0
 20
958.5
 30
0.0
 11
390.0
 21
1077.8
 31
0.0
  0
LINE
  8
0
  6
LTYPE2
 62
     2
 10
393.4
 20
857.0
 30
0.0
 11
405.4
 21
857.0
 31
0.0
  0
LINE
  8
0
  6
LTYPE2
 62
     2
 10
393.4
 20
857.0
 30
0.0
 11
405.4
 21
857.0
 31
0.0
  0
LINE
  8
0
  6
CONTINUOUS
 62
     1
 10
413.0
 20
857.0
 30
0.0
 11
413.0
 21
914.0
 31
0.0
  0
ARC
  8
0
  6
CONTINUOUS
 62
     1
 10
408.5
 20
915.5
 30
0.0
 40
1.5
 50
180.0
 51
270.0
  0
LINE
  8
0
  6
CONTINUOUS
 62
     1
 10
407.0
 20
915.5
 30
0.0
 11
407.0
 21
916.5
 31
0.0
  0
ARC
  8
0
  6
CONTINUOUS
 62
     1
 10
405.5
 20
916.5
 30
0.0
 40
1.5
 50
0.0
 51
90.0
  0
LINE
  8
0
  6
CONTINUOUS
 62
     1
 10
562.0
 20
857.0
 30
0.0
 11
562.0
 21
914.0
 31
0.0
  0
ARC
  8
0
  6
CONTINUOUS
 62
     1
 10
565.5
 20
912.5
 30
0.0
 40
1.5
 50
0.0
 51
90.0
  0
LINE
  8
0
  6
CONTINUOUS
 62
     1
 10
407.0
 20
857.0
 30
0.0
 11
407.0
 21
916.1
 31
0.0
  0
LINE
  8
0
  6
CONTINUOUS
 62
     1
 10
567.0
 20
900.070524155
 30
0.0
 11
567.0
 21
912.5
 31
0.0
  0
ARC
  8
0
  6
CONTINUOUS
 62
     1
 10
568.5
 20
900.070524155
 30
0.0
 40
1.5
 50
180.0
 51
251.029592192
  0
LINE
  8
0
  6
CONTINUOUS
 62
     1
 10
583.0
 20
857.0
 30
0.0
 11
583.0
 21
892.429475845
 31
0.0
  0
LINE
  8
0
  6
CONTINUOUS
 62
     1
 10
581.987619653
 20
893.848005744
 30
0.0
 11
568.012380347
 21
898.651994256
 31
0.0
  0
ARC
  8
0
  6
CONTINUOUS
 62
     1
 10
581.5
 20
892.429475845
 30
0.0
 40
1.5
 50
0.0
 51
71.029592192
  0
LINE
  8
0
  6
CONTINUOUS
 62
     1
 10
567.0
 20
857.0
 30
0.0
 11
567.0
 21
900.070524155
 31
0.0
  0
ARC
  8
0
  6
CONTINUOUS
 62
     1
 10
595.0
 20
873.5
 30
0.0
 40
1.0
 50
0.0
 51
90.0
  0
LINE
  8
0
  6
CONTINUOUS
 62
     1
 10
595.0
 20
874.5
 30
0.0
 11
583.0
 21
874.5
 31
0.0
  0
LINE
  8
0
  6
CONTINUOUS
 62
     1
 10
596.0
 20
857.0
 30
0.0
 11
596.0
 21
873.5
 31
0.0
  0
LINE
  8
0
  6
CONTINUOUS
 62
     1
 10
413.0
 20
857.0
 30
0.0
 11
413.0
 21
800.0
 31
0.0
  0
ARC
  8
0
  6
CONTINUOUS
 62
     1
 10
408.5
 20
798.5
 30
0.0
 40
1.5
 50
90.0
 51
180.0
  0
LINE
  8
0
  6
CONTINUOUS
 62
     1
 10
407.0
 20
798.5
 30
0.0
 11
407.0
 21
797.5
 31
0.0
  0
ARC
  8
0
  6
CONTINUOUS
 62
     1
 10
405.5
 20
797.5
 30
0.0
 40
1.5
 50
270.0
 51
0.0
  0
LINE
  8
0
  6
CONTINUOUS
 62
     1
 10
562.0
 20
857.0
 30
0.0
 11
562.0
 21
800.0
 31
0.0
  0
LINE
  8
0
  6
CONTINUOUS
 62
     1
 10
565.5
 20
800.0
 30
0.0
 11
408.5
 21
800.0
 31
0.0
  0
ARC
  8
0
  6
CONTINUOUS
 62
     1
 10
565.5
 20
801.5
 30
0.0
 40
1.5
 50
270.0
 51
0.0
  0
LINE
  8
0
  6
CONTINUOUS
 62
     1
 10
407.0
 20
857.0
 30
0.0
 11
407.0
 21
797.9
 31
0.0
  0
LINE
  8
0
  6
CONTINUOUS
 62
     1
 10
583.0
 20
857.0
 30
0.0
 11
583.0
 21
821.570524155
 31
0.0
  0
ARC
  8
0
  6
CONTINUOUS
 62
     1
 10
581.5
 20
821.570524155
 30
0.0
 40
1.5
 50
288.970407808
 51
0.0
  0
ARC
  8
0
  6
CONTINUOUS
 62
     1
 10
595.0
 20
840.5
 30
0.0
 40
1.0
 50
270.0
 51
0.0
  0
LINE
  8
0
  6
CONTINUOUS
 62
     1
 10
595.0
 20
839.5
 30
0.0
 11
583.0
 21
839.5
 31
0.0
  0
LINE
  8
0
  6
CONTINUOUS
 62
     1
 10
596.0
 20
857.0
 30
0.0
 11
596.0
 21
840.5
 31
0.0
  0
LINE
  8
0
  6
LTYPE4
 62
     2
 10
575.0
 20
893.062445841
 30
0.0
 11
564.0
 21
893.062445841
 31
0.0
  0
LINE
  8
0
  6
CONTINUOUS
 62
     1
 10
567.0
 20
813.929475845
 30
0.0
 11
567.0
 21
801.5
 31
0.0
  0
ARC
  8
0
  6
CONTINUOUS
 62
     1
 10
568.5
 20
813.929475845
 30
0.0
 40
1.5
 50
108.970407808
 51
180.0
  0
LINE
  8
0
  6
CONTINUOUS
 62
     1
 10
581.987619653
 20
820.151994256
 30
0.0
 11
568.012380347
 21
815.348005744
 31
0.0
  0
LINE
  8
0
  6
CONTINUOUS
 62
     1
 10
567.0
 20
857.0
 30
0.0
 11
567.0
 21
813.929475845
 31
0.0
  0
LINE
  8
0
  6
LTYPE4
 62
     2
 10
575.0
 20
820.937554159
 30
0.0
 11
564.0
 21
820.937554159
 31
0.0
  0
LINE
  8
0
  6
CONTINUOUS
 62
     1
 10
512.0
 20
935.0
 30
0.0
 11
512.0
 21
969.0
 31
0.0
  0
LINE
  8
0
  6
CONTINUOUS
 62
     1
 10
512.0
 20
935.0
 30
0.0
 11
486.0
 21
935.0
 31
0.0
  0
LINE
  8
0
  6
CONTINUOUS
 62
     1
 10
512.0
 20
969.0
 30
0.0
 11
486.0
 21
969.0
 31
0.0
  0
LINE
  8
0
  6
LTYPE4
 62
     2
 10
518.929475845
 20
952.0
 30
0.0
 11
478.929475845
 21
952.0
 31
0.0
  0
LINE
  8
0
  6
CONTINUOUS
 62
     1
 10
416.0
 20
927.0
 30
0.0
 11
416.0
 21
930.0
 31
0.0
  0
ARC
  8
0
  6
CONTINUOUS
 62
     1
 10
420.0
 20
924.0
 30
0.0
 40
3.0
 50
0.0
 51
90.0
  0
LINE
  8
0
  6
CONTINUOUS
 62
     1
 10
423.0
 20
917.0
 30
0.0
 11
423.0
 21
924.0
 31
0.0
  0
ARC
  8
0
  6
CONTINUOUS
 62
     1
 10
426.0
 20
917.0
 30
0.0
 40
3.0
 50
180.0
 51
270.0
  0
LINE
  8
0
  6
CONTINUOUS
 62
     1
 10
565.5
 20
914.0
 30
0.0
 11
408.5
 21
914.0
 31
0.0
  0
LINE
  8
0
  6
CONTINUOUS
 62
     1
 10
476.0
 20
927.0
 30
0.0
 11
476.0
 21
930.0
 31
0.0
  0
ARC
  8
0
  6
CONTINUOUS
 62
     1
 10
472.0
 20
924.0
 30
0.0
 40
3.0
 50
90.0
 51
180.0
  0
LINE
  8
0
  6
CONTINUOUS
 62
     1
 10
469.0
 20
917.0
 30
0.0
 11
469.0
 21
924.0
 31
0.0
  0
ARC
  8
0
  6
CONTINUOUS
 62
     1
 10
466.0
 20
917.0
 30
0.0
 40
3.0
 50
270.0
 51
0.0
  0
LINE
  8
0
  6
CONTINUOUS
 62
     1
 10
476.0
 20
927.0
 30
0.0
 11
416.0
 21
927.0
 31
0.0
  0
LINE
  8
0
  6
CONTINUOUS
 62
     1
 10
400.912087912
 20
932.0
 30
0.0
 11
493.0
 21
976.020045888
 31
0.0
  0
LINE
  8
0
  6
CONTINUOUS
 62
     1
 10
399.0
 20
936.0
 30
0.0
 11
491.087912088
 21
980.020045888
 31
0.0
  0
LINE
  8
0
  6
CONTINUOUS
 62
     1
 10
491.087912088
 20
980.020045888
 30
0.0
 11
493.0
 21
976.020045888
 31
0.0
  0
LINE
  8
0
  6
CONTINUOUS
 62
     1
 10
406.0
 20
939.346153846
 30
0.0
 11
406.0
 21
979.0
 31
0.0
  0
ARC
  8
0
  6
CONTINUOUS
 62
     1
 10
409.0
 20
979.0
 30
0.0
 40
3.0
 50
90.0
 51
180.0
  0
LINE
  8
0
  6
CONTINUOUS
 62
     1
 10
406.0
 20
933.0
 30
0.0
 11
406.0
 21
934.4321338
 31
0.0
  0
ARC
  8
0
  6
CONTINUOUS
 62
     1
 10
409.0
 20
933.0
 30
0.0
 40
3.0
 50
180.0
 51
270.0
  0
LINE
  8
0
  6
CONTINUOUS
 62
     1
 10
486.0
 20
933.0
 30
0.0
 11
486.0
 21
972.673892042
 31
0.0
  0
LINE
  8
0
  6
CONTINUOUS
 62
     1
 10
483.0
 20
930.0
 30
0.0
 11
409.0
 21
930.0
 31
0.0
  0
ARC
  8
0
  6
CONTINUOUS
 62
     1
 10
483.0
 20
933.0
 30
0.0
 40
3.0
 50
270.0
 51
0.0
  0
LINE
  8
0
  6
CONTINUOUS
 62
     1
 10
486.0
 20
977.587912088
 30
0.0
 11
486.0
 21
979.0
 31
0.0
  0
LINE
  8
0
  6
CONTINUOUS
 62
     1
 10
483.0
 20
982.0
 30
0.0
 11
409.0
 21
982.0
 31
0.0
  0
ARC
  8
0
  6
CONTINUOUS
 62
     1
 10
483.0
 20
979.0
 30
0.0
 40
3.0
 50
0.0
 51
90.0
  0
LINE
  8
0
  6
LTYPE4
 62
     2
 10
446.0
 20
902.0
 30
0.0
 11
446.0
 21
989.9321338
 31
0.0
  0
LINE
  8
0
  6
CONTINUOUS
 62
     6
 10
568.3
 20
893.062445841
 30
0.0
 11
568.3
 21
888.450565841
 31
0.0
  0
LINE
  8
0
  6
CONTINUOUS
 62
     6
 10
568.3
 20
893.062445841
 30
0.0
 11
568.3
 21
897.674325841
 31
0.0
  0
LINE
  8
0
  6
CONTINUOUS
 62
     6
 10
571.8002
 20
889.580005841
 30
0.0
 11
571.148117512
 21
888.450565841
 31
0.0
  0
LINE
  8
0
  6
CONTINUOUS
 62
     6
 10
571.8002
 20
893.062445841
 30
0.0
 11
571.8002
 21
889.580005841
 31
0.0
  0
LINE
  8
0
  6
CONTINUOUS
 62
     6
 10
571.8002
 20
896.544885841
 30
0.0
 11
571.148117512
 21
897.674325841
 31
0.0
  0
LINE
  8
0
  6
CONTINUOUS
 62
     6
 10
571.8002
 20
893.062445841
 30
0.0
 11
571.8002
 21
896.544885841
 31
0.0
  0
ARC
  8
0
  6
CONTINUOUS
 62
     6
 10
567.396945074
 20
893.062445841
 30
0.0
 40
4.403254926
 50
328.419912243
 51
31.580087757
  0
ARC
  8
0
  6
CONTINUOUS
 62
     6
 10
570.455279868
 20
889.603535841
 30
0.0
 40
1.34512595
 50
357.010501597
 51
58.997686085
  0
LINE
  8
0
  6
CONTINUOUS
 62
     6
 10
571.8002
 20
896.544885841
 30
0.0
 11
571.148117512
 21
897.674325841
 31
0.0
  0
ARC
  8
0
  6
CONTINUOUS
 62
     6
 10
570.455279868
 20
896.521355841
 30
0.0
 40
1.34512595
 50
301.002313915
 51
2.989498403
  0
LINE
  8
0
  6
CONTINUOUS
 62
     6
 10
568.3
 20
888.450565841
 30
0.0
 11
571.148117512
 21
888.450565841
 31
0.0
  0
LINE
  8
0
  6
CONTINUOUS
 62
     6
 10
568.3
 20
890.756505841
 30
0.0
 11
571.148117512
 21
890.756505841
 31
0.0
  0
LINE
  8
0
  6
CONTINUOUS
 62
     6
 10
568.3
 20
895.368385841
 30
0.0
 11
571.148117512
 21
895.368385841
 31
0.0
  0
LINE
  8
0
  6
CONTINUOUS
 62
     6
 10
568.3
 20
897.674325841
 30
0.0
 11
571.148117512
 21
897.674325841
 31
0.0
  0
LINE
  8
0
  6
CONTINUOUS
 62
     6
 10
567.0
 20
888.462445841
 30
0.0
 11
568.3
 21
888.462445841
 31
0.0
  0
LINE
  8
0
  6
CONTINUOUS
 62
     6
 10
567.0
 20
893.062445841
 30
0.0
 11
568.299999554
 21
891.762446287
 31
0.0
  0
LINE
  8
0
  6
CONTINUOUS
 62
     6
 10
568.299999554
 20
893.062445841
 30
0.0
 11
567.0
 21
894.362445394
 31
0.0
  0
LINE
  8
0
  6
CONTINUOUS
 62
     6
 10
567.0
 20
897.662445841
 30
0.0
 11
568.3
 21
897.662445841
 31
0.0
  0
LINE
  8
0
  6
CONTINUOUS
 62
     6
 10
597.0
 20
860.8
 30
0.0
 11
596.0
 21
860.8
 31
0.0
  0
LINE
  8
0
  6
CONTINUOUS
 62
     6
 10
597.0
 20
857.0
 30
0.0
 11
596.0
 21
858.0
 31
0.0
  0
LINE
  8
0
  6
CONTINUOUS
 62
     6
 10
599.482457352
 20
861.05
 30
0.0
 11
597.0
 21
861.05
 31
0.0
  0
LINE
  8
0
  6
CONTINUOUS
 62
     6
 10
599.8
 20
860.5
 30
0.0
 11
599.482457352
 21
861.05
 31
0.0
  0
LINE
  8
0
  6
CONTINUOUS
 62
     6
 10
599.482457352
 20
859.025
 30
0.0
 11
597.0
 21
859.025
 31
0.0
  0
ARC
  8
0
  6
CONTINUOUS
 62
     6
 10
598.027026212
 20
860.0375
 30
0.0
 40
1.772973788
 50
325.174816769
 51
34.825183231
  0
LINE
  8
0
  6
CONTINUOUS
 62
     6
 10
597.0
 20
853.2
 30
0.0
 11
596.0
 21
853.2
 31
0.0
  0
LINE
  8
0
  6
CONTINUOUS
 62
     6
 10
597.0
 20
856.0
 30
0.0
 11
596.0
 21
857.0
 31
0.0
  0
LINE
  8
0
  6
CONTINUOUS
 62
     6
 10
599.8
 20
853.5
 30
0.0
 11
599.482457352
 21
852.95
 31
0.0
  0
LINE
  8
0
  6
CONTINUOUS
 62
     6
 10
599.482457352
 20
852.95
 30
0.0
 11
597.0
 21
852.95
 31
0.0
  0
LINE
  8
0
  6
CONTINUOUS
 62
     6
 10
599.482457352
 20
854.975
 30
0.0
 11
597.0
 21
854.975
 31
0.0
  0
ARC
  8
0
  6
CONTINUOUS
 62
     6
 10
598.027026212
 20
853.9625
 30
0.0
 40
1.772973788
 50
325.174816769
 51
34.825183231
  0
LINE
  8
0
  6
CONTINUOUS
 62
     6
 10
597.0
 20
861.05
 30
0.0
 11
597.0
 21
852.95
 31
0.0
  0
LINE
  8
0
  6
CONTINUOUS
 62
     6
 10
599.8
 20
860.5
 30
0.0
 11
599.8
 21
853.5
 31
0.0
  0
ARC
  8
0
  6
CONTINUOUS
 62
     6
 10
593.184418819
 20
857.0
 30
0.0
 40
6.615581181
 50
342.175912681
 51
17.824087319
  0
LINE
  8
0
  6
CONTINUOUS
 62
     6
 10
568.3
 20
820.937554159
 30
0.0
 11
568.3
 21
825.549434159
 31
0.0
  0
LINE
  8
0
  6
CONTINUOUS
 62
     6
 10
571.8002
 20
824.419994159
 30
0.0
 11
571.148117512
 21
825.549434159
 31
0.0
  0
LINE
  8
0
  6
CONTINUOUS
 62
     6
 10
571.8002
 20
820.937554159
 30
0.0
 11
571.8002
 21
824.419994159
 31
0.0
  0
ARC
  8
0
  6
CONTINUOUS
 62
     6
 10
570.455279868
 20
824.396464159
 30
0.0
 40
1.34512595
 50
301.002313915
 51
2.989498403
  0
LINE
  8
0
  6
CONTINUOUS
 62
     6
 10
568.3
 20
825.549434159
 30
0.0
 11
571.148117512
 21
825.549434159
 31
0.0
  0
LINE
  8
0
  6
CONTINUOUS
 62
     6
 10
567.0
 20
825.537554159
 30
0.0
 11
568.3
 21
825.537554159
 31
0.0
  0
LINE
  8
0
  6
CONTINUOUS
 62
     6
 10
568.3
 20
820.937554159
 30
0.0
 11
568.3
 21
816.325674159
 31
0.0
  0
LINE
  8
0
  6
CONTINUOUS
 62
     6
 10
571.8002
 20
817.455114159
 30
0.0
 11
571.148117512
 21
816.325674159
 31
0.0
  0
LINE
  8
0
  6
CONTINUOUS
 62
     6
 10
571.8002
 20
820.937554159
 30
0.0
 11
571.8002
 21
817.455114159
 31
0.0
  0
ARC
  8
0
  6
CONTINUOUS
 62
     6
 10
567.396945074
 20
820.937554159
 30
0.0
 40
4.403254926
 50
328.419912243
 51
31.580087757
  0
LINE
  8
0
  6
CONTINUOUS
 62
     6
 10
571.8002
 20
817.455114159
 30
0.0
 11
571.148117512
 21
816.325674159
 31
0.0
  0
ARC
  8
0
  6
CONTINUOUS
 62
     6
 10
570.455279868
 20
817.478644159
 30
0.0
 40
1.34512595
 50
357.010501597
 51
58.997686085
  0
LINE
  8
0
  6
CONTINUOUS
 62
     6
 10
568.3
 20
818.631614159
 30
0.0
 11
571.148117512
 21
818.631614159
 31
0.0
  0
LINE
  8
0
  6
CONTINUOUS
 62
     6
 10
568.3
 20
816.325674159
 30
0.0
 11
571.148117512
 21
816.325674159
 31
0.0
  0
LINE
  8
0
  6
CONTINUOUS
 62
     6
 10
567.0
 20
816.337554159
 30
0.0
 11
568.3
 21
816.337554159
 31
0.0
  0
LINE
  8
0
  6
CONTINUOUS
 62
     6
 10
568.3
 20
823.243494159
 30
0.0
 11
571.148117512
 21
823.243494159
 31
0.0
  0
LINE
  8
0
  6
CONTINUOUS
 62
     6
 10
567.0
 20
820.937554159
 30
0.0
 11
568.299999554
 21
822.237553713
 31
0.0
  0
LINE
  8
0
  6
CONTINUOUS
 62
     6
 10
568.299999554
 20
820.937554159
 30
0.0
 11
567.0
 21
819.637554606
 31
0.0
  0
LINE
  8
0
  6
CONTINUOUS
 62
     1
 10
610.5
 20
872.5
 30
0.0
 11
596.0
 21
872.5
 31
0.0
  0
ARC
  8
0
  6
CONTINUOUS
 62
     1
 10
610.5
 20
871.0
 30
0.0
 40
1.5
 50
0.0
 51
90.0
  0
LINE
  8
0
  6
CONTINUOUS
 62
     1
 10
610.5
 20
841.5
 30
0.0
 11
596.0
 21
841.5
 31
0.0
  0
LINE
  8
0
  6
CONTINUOUS
 62
     1
 10
612.0
 20
843.0
 30
0.0
 11
612.0
 21
871.0
 31
0.0
  0
ARC
  8
0
  6
CONTINUOUS
 62
     1
 10
610.5
 20
843.0
 30
0.0
 40
1.5
 50
270.0
 51
0.0
  0
LINE
  8
0
  6
CONTINUOUS
 62
     1
 10
405.5
 20
918.0
 30
0.0
 11
399.0
 21
918.0
 31
0.0
  0
LINE
  8
0
  6
CONTINUOUS
 62
     2
 10
512.0
 20
952.0
 30
0.0
 11
523.068811641
 21
957.807874727
 31
0.0
  0
LINE
  8
0
  6
CONTINUOUS
 62
     2
 10
512.0
 20
952.0
 30
0.0
 11
518.681934708
 21
962.564172876
 31
0.0
  0
LINE
  8
0
  6
CONTINUOUS
 62
     2
 10
512.0
 20
952.0
 30
0.0
 11
541.958113477
 21
979.631269711
 31
0.0
  0
LINE
  8
0
  6
CONTINUOUS
 62
     1
 10
399.0
 20
936.0
 30
0.0
 11
400.912087912
 21
932.0
 31
0.0
  0
LINE
  8
0
  6
CONTINUOUS
 62
     1
 10
405.5
 20
796.0
 30
0.0
 11
399.0
 21
796.0
 31
0.0
  0
LINE
  8
0
  6
CONTINUOUS
 62
     1
 10
399.0
 20
927.0
 30
0.0
 11
399.0
 21
787.1
 31
0.0
  0
LINE
  8
0
  6
CONTINUOUS
 62
     1
 10
399.0
 20
927.0
 30
0.0
 11
390.0
 21
927.0
 31
0.0
  0
TEXT
  8
0
  6
CONTINUOUS
 62
     2
 10
533.6
 20
984.1
 30
1.5
 40
15.0
  1
ＰＦ３／４
 50
0.0
 41
0.9
 51
0.0
  7
KANJI24
  0
LINE
  8
0
  6
CONTINUOUS
 62
     2
 10
541.958113477
 20
979.631269711
 30
0.0
 11
603.2
 21
979.631269711
 31
0.0
  0
LINE
  8
0
  6
CONTINUOUS
 62
     1
 10
399.0
 20
787.1
 30
0.0
 11
390.0
 21
787.1
 31
0.0
  0
LINE
  8
2
  6
CONTINUOUS
 62
     2
 10
390.0
 20
1062.4
 30
0.0
 11
390.0
 21
1080.4
 31
0.0
  0
LINE
  8
2
  6
CONTINUOUS
 62
     2
 10
390.0
 20
1070.4
 30
0.0
 11
402.074072829
 21
1067.164761936
 31
0.0
  0
LINE
  8
2
  6
CONTINUOUS
 62
     2
 10
390.0
 20
1070.4
 30
0.0
 11
402.074072829
 21
1073.635238064
 31
0.0
  0
LINE
  8
2
  6
CONTINUOUS
 62
     2
 10
390.0
 20
1070.4
 30
0.0
 11
612.0
 21
1070.4
 31
0.0
  0
LINE
  8
2
  6
CONTINUOUS
 62
     2
 10
612.0
 20
1070.4
 30
0.0
 11
599.925927171
 21
1073.635238064
 31
0.0
  0
LINE
  8
2
  6
CONTINUOUS
 62
     2
 10
612.0
 20
1070.4
 30
0.0
 11
599.925927171
 21
1067.164761936
 31
0.0
  0
LINE
  8
2
  6
CONTINUOUS
 62
     2
 10
612.0
 20
877.5
 30
0.0
 11
612.0
 21
1080.4
 31
0.0
  0
LINE
  8
2
  6
CONTINUOUS
 62
     2
 10
663.0
 20
914.0
 30
0.0
 11
659.764761936
 21
901.925927171
 31
0.0
  0
LINE
  8
2
  6
CONTINUOUS
 62
     2
 10
663.0
 20
914.0
 30
0.0
 11
666.235238064
 21
901.925927171
 31
0.0
  0
LINE
  8
2
  6
CONTINUOUS
 62
     2
 10
663.0
 20
914.0
 30
0.0
 11
663.0
 21
800.0
 31
0.0
  0
LINE
  8
2
  6
CONTINUOUS
 62
     2
 10
663.0
 20
800.0
 30
0.0
 11
666.235238064
 21
812.074072829
 31
0.0
  0
LINE
  8
2
  6
CONTINUOUS
 62
     2
 10
663.0
 20
800.0
 30
0.0
 11
659.764761936
 21
812.074072829
 31
0.0
  0
LINE
  8
0
  6
CONTINUOUS
 62
     1
 10
356.0
 20
932.0
 30
0.0
 11
390.0
 21
932.0
 31
0.0
  0
LINE
  8
0
  6
CONTINUOUS
 62
     1
 10
353.0
 20
906.0
 30
0.0
 11
353.0
 21
929.0
 31
0.0
  0
ARC
  8
0
  6
CONTINUOUS
 62
     1
 10
356.0
 20
929.0
 30
0.0
 40
3.0
 50
90.0
 51
180.0
  0
LINE
  8
0
  6
CONTINUOUS
 62
     1
 10
382.0
 20
932.0
 30
0.0
 11
377.9
 21
902.4
 31
0.0
  0
LINE
  8
0
  6
CONTINUOUS
 62
     1
 10
366.0
 20
938.0
 30
0.0
 11
375.2
 21
938.0
 31
0.0
  0
CIRCLE
  8
0
  6
CONTINUOUS
 62
     1
 10
366.0
 20
952.0
 30
0.0
 40
12.5
  0
LINE
  8
0
  6
CONTINUOUS
 62
     1
 10
366.0
 20
939.5
 30
0.0
 11
375.2
 21
938.0
 31
0.0
  0
ARC
  8
0
  6
CONTINUOUS
 62
     1
 10
366.0
 20
952.0
 30
0.0
 40
20.5
 50
300.423432294
 51
0.0
  0
ARC
  8
0
  6
CONTINUOUS
 62
     1
 10
376.947984073
 20
933.273488336
 30
0.0
 40
1.2
 50
118.393405187
 51
188.554293104
  0
LINE
  8
0
  6
CONTINUOUS
 62
     1
 10
366.0
 20
938.0
 30
0.0
 11
356.8
 21
938.0
 31
0.0
  0
LINE
  8
0
  6
CONTINUOUS
 62
     1
 10
366.0
 20
939.5
 30
0.0
 11
356.8
 21
938.0
 31
0.0
  0
ARC
  8
0
  6
CONTINUOUS
 62
     1
 10
355.052015927
 20
933.273488336
 30
0.0
 40
1.2
 50
351.445706896
 51
61.606594813
  0
ARC
  8
0
  6
CONTINUOUS
 62
     1
 10
366.0
 20
952.0
 30
0.0
 40
20.5
 50
0.0
 51
239.707348078
  0
LINE
  8
0
  6
CONTINUOUS
 62
     1
 10
356.114285714
 20
932.0
 30
0.0
 11
356.8
 21
938.0
 31
0.0
  0
LINE
  8
0
  6
CONTINUOUS
 62
     1
 10
375.885714286
 20
932.0
 30
0.0
 11
375.2
 21
938.0
 31
0.0
  0
LINE
  8
0
  6
LTYPE2
 62
     2
 10
340.475
 20
952.0
 30
0.0
 11
390.0
 21
952.0
 31
0.0
  0
LINE
  8
0
  6
LTYPE2
 62
     2
 10
366.0
 20
921.4
 30
0.0
 11
366.0
 21
975.4
 31
0.0
  0
LINE
  8
0
  6
CONTINUOUS
 62
     1
 10
382.0
 20
833.0
 30
0.0
 11
382.0
 21
932.0
 31
0.0
  0
TEXT
  8
2
  6
CONTINUOUS
 62
     3
 10
658.0
 20
822.75
 30
1.5
 40
15.0
  1
φ１１４
 50
90.0
 41
0.9
 51
0.0
  7
KANJI24
  0
LINE
  8
2
  6
CONTINUOUS
 62
     2
 10
450.0
 20
701.403252248
 30
0.0
 11
450.0
 21
472.0
 31
0.0
  0
LINE
  8
2
  6
CONTINUOUS
 62
     2
 10
450.0
 20
482.0
 30
0.0
 11
462.074072829
 21
478.764761936
 31
0.0
  0
LINE
  8
2
  6
CONTINUOUS
 62
     2
 10
450.0
 20
482.0
 30
0.0
 11
462.074072829
 21
485.235238064
 31
0.0
  0
LINE
  8
2
  6
CONTINUOUS
 62
     2
 10
450.0
 20
482.0
 30
0.0
 11
976.0
 21
482.0
 31
0.0
  0
LINE
  8
2
  6
CONTINUOUS
 62
     2
 10
450.0
 20
492.5
 30
0.0
 11
450.0
 21
428.5
 31
0.0
  0
LINE
  8
2
  6
CONTINUOUS
 62
     2
 10
450.0
 20
438.5
 30
0.0
 11
437.925927171
 21
441.735238064
 31
0.0
  0
LINE
  8
2
  6
CONTINUOUS
 62
     2
 10
450.0
 20
438.5
 30
0.0
 11
437.925927171
 21
435.264761936
 31
0.0
  0
LINE
  8
2
  6
CONTINUOUS
 62
     2
 10
450.0
 20
438.5
 30
0.0
 11
390.0
 21
438.5
 31
0.0
  0
LINE
  8
2
  6
CONTINUOUS
 62
     2
 10
390.0
 20
438.5
 30
0.0
 11
402.074072829
 21
435.264761936
 31
0.0
  0
LINE
  8
2
  6
CONTINUOUS
 62
     2
 10
390.0
 20
438.5
 30
0.0
 11
402.074072829
 21
441.735238064
 31
0.0
  0
LINE
  8
2
  6
CONTINUOUS
 62
     2
 10
390.0
 20
639.5
 30
0.0
 11
390.0
 21
428.5
 31
0.0
  0
LINE
  8
2
  6
CONTINUOUS
 62
     2
 10
390.0
 20
506.0
 30
0.0
 11
390.0
 21
428.5
 31
0.0
  0
LINE
  8
2
  6
CONTINUOUS
 62
     2
 10
390.0
 20
438.5
 30
0.0
 11
377.925927171
 21
441.735238064
 31
0.0
  0
LINE
  8
2
  6
CONTINUOUS
 62
     2
 10
390.0
 20
438.5
 30
0.0
 11
377.925927171
 21
435.264761936
 31
0.0
  0
LINE
  8
2
  6
CONTINUOUS
 62
     2
 10
390.0
 20
438.5
 30
0.0
 11
304.0
 21
438.5
 31
0.0
  0
LINE
  8
2
  6
CONTINUOUS
 62
     2
 10
304.0
 20
438.5
 30
0.0
 11
316.074072829
 21
435.264761936
 31
0.0
  0
LINE
  8
2
  6
CONTINUOUS
 62
     2
 10
304.0
 20
438.5
 30
0.0
 11
316.074072829
 21
441.735238064
 31
0.0
  0
LINE
  8
2
  6
CONTINUOUS
 62
     2
 10
304.0
 20
639.5
 30
0.0
 11
304.0
 21
428.5
 31
0.0
  0
LINE
  8
2
  6
CONTINUOUS
 62
     2
 10
450.0
 20
442.5
 30
0.0
 11
450.0
 21
428.5
 31
0.0
  0
LINE
  8
2
  6
CONTINUOUS
 62
     2
 10
450.0
 20
438.5
 30
0.0
 11
462.074072829
 21
435.264761936
 31
0.0
  0
LINE
  8
2
  6
CONTINUOUS
 62
     2
 10
450.0
 20
438.5
 30
0.0
 11
462.074072829
 21
441.735238064
 31
0.0
  0
LINE
  8
2
  6
CONTINUOUS
 62
     2
 10
450.0
 20
438.5
 30
0.0
 11
1081.0
 21
438.5
 31
0.0
  0
LINE
  8
2
  6
CONTINUOUS
 62
     2
 10
1081.0
 20
401.5
 30
0.0
 11
304.0
 21
401.5
 31
0.0
  0
LINE
  8
2
  6
CONTINUOUS
 62
     2
 10
304.0
 20
401.5
 30
0.0
 11
316.074072829
 21
398.264761936
 31
0.0
  0
LINE
  8
2
  6
CONTINUOUS
 62
     2
 10
304.0
 20
401.5
 30
0.0
 11
316.074072829
 21
404.735238064
 31
0.0
  0
LINE
  8
2
  6
CONTINUOUS
 62
     2
 10
304.0
 20
442.0
 30
0.0
 11
304.0
 21
391.5
 31
0.0
  0
TEXT
  8
0
  6
CONTINUOUS
 62
     2
 10
315.75
 20
1075.4
 30
0.0
 40
18.0
  1
１１３
 50
0.0
 41
0.9
 51
0.0
  7
KANJI20
  0
TEXT
  8
2
  6
CONTINUOUS
 62
     3
 10
475.5
 20
1075.4
 30
0.0
 40
18.0
  1
２２２
 50
0.0
 41
0.9
 51
0.0
  7
KANJI20
  0
TEXT
  8
2
  6
CONTINUOUS
 62
     3
 10
403.25
 20
443.5
 30
0.0
 40
18.0
  1
６０
 50
0.0
 41
0.9
 51
0.0
  7
KANJI20
  0
TEXT
  8
2
  6
CONTINUOUS
 62
     3
 10
330.25
 20
443.5
 30
0.0
 40
18.0
  1
８６
 50
0.0
 41
0.9
 51
0.0
  7
KANJI20
  0
TEXT
  8
2
  6
CONTINUOUS
 62
     3
 10
667.0
 20
406.5
 30
0.0
 40
18.0
  1
ｍｉｎ．ＡＬ
 50
0.0
 41
0.9
 51
0.0
  7
KANJI20
  0
LINE
  8
0
  6
LTYPE2
 62
     2
 10
624.0
 20
857.0
 30
0.0
 11
275.6
 21
857.0
 31
0.0
  0
TEXT
  8
0
  6
CONTINUOUS
 62
     2
 10
423.540009455
 20
834.0
 30
0.0
 40
18.0
  1
日本電産
 50
0.0
 41
0.9
 51
0.0
  7
KANJI20
  0
TEXT
  8
0
  6
CONTINUOUS
 62
     2
 10
423.540009455
 20
815.0
 30
0.0
 40
18.0
  1
エコノストップモータ
 50
0.0
 41
0.766666667
 51
0.0
  7
KANJI25
  0
LINE
  8
0
  6
CONTINUOUS
 62
     1
 10
1090.482501379
 20
299.1
 30
0.0
 11
1090.482501379
 21
234.4
 31
0.0
  0
LINE
  8
0
  6
CONTINUOUS
 62
     1
 10
1092.482501379
 20
232.4
 30
0.0
 11
1128.482501379
 21
232.4
 31
0.0
  0
ARC
  8
0
  6
CONTINUOUS
 62
     1
 10
1092.482501379
 20
234.4
 30
0.0
 40
2.0
 50
180.0
 51
270.0
  0
LINE
  8
0
  6
CONTINUOUS
 62
     1
 10
1130.482501379
 20
299.1
 30
0.0
 11
1130.482501379
 21
234.4
 31
0.0
  0
ARC
  8
0
  6
CONTINUOUS
 62
     1
 10
1128.482501379
 20
234.4
 30
0.0
 40
2.0
 50
270.0
 51
0.0
  0
ARC
  8
0
  6
CONTINUOUS
 62
     1
 10
1092.482501379
 20
299.1
 30
0.0
 40
2.0
 50
90.0
 51
180.0
  0
LINE
  8
0
  6
CONTINUOUS
 62
     1
 10
1097.782501379
 20
324.5
 30
0.0
 11
1097.782501379
 21
301.1
 31
0.0
  0
LINE
  8
0
  6
CONTINUOUS
 62
     1
 10
1092.482501379
 20
301.1
 30
0.0
 11
1128.482501379
 21
301.1
 31
0.0
  0
ARC
  8
0
  6
CONTINUOUS
 62
     1
 10
1128.482501379
 20
299.1
 30
0.0
 40
2.0
 50
0.0
 51
90.0
  0
ARC
  8
0
  6
CONTINUOUS
 62
     1
 10
1099.782501379
 20
324.5
 30
0.0
 40
2.0
 50
90.0
 51
180.0
  0
ARC
  8
0
  6
CONTINUOUS
 62
     1
 10
1110.482501379
 20
310.8
 30
0.0
 40
6.0
 50
131.983045121
 51
318.016954879
  0
LINE
  8
0
  6
LTYPE2
 62
     2
 10
1104.047829671
 20
304.365328291
 30
0.0
 11
1144.706469589
 21
345.023968209
 31
0.0
  0
LINE
  8
0
  6
CONTINUOUS
 62
     1
 10
1106.469037879
 20
315.260057257
 30
0.0
 11
1134.676916731
 21
340.64342919
 31
0.0
  0
LINE
  8
0
  6
CONTINUOUS
 62
     1
 10
1114.942558636
 20
306.7865365
 30
0.0
 11
1140.325930569
 21
334.994415352
 31
0.0
  0
LINE
  8
0
  6
LTYPE2
 62
     2
 10
1145.130733658
 20
329.891883092
 30
0.0
 11
1128.86727769
 21
346.155339059
 31
0.0
  0
ARC
  8
0
  6
CONTINUOUS
 62
     1
 10
1137.352559064
 20
337.670057685
 30
0.0
 40
8.75
 50
255.219855722
 51
194.780144278
  0
ARC
  8
0
  6
CONTINUOUS
 62
     1
 10
1137.352559064
 20
337.670057685
 30
0.0
 40
4.0
 50
311.983042101
 51
138.016952287
  0
LINE
  8
0
  6
CONTINUOUS
 62
     1
 10
1123.182501379
 20
315.94336985
 30
0.0
 11
1123.182501379
 21
301.1
 31
0.0
  0
LINE
  8
0
  6
CONTINUOUS
 62
     1
 10
1099.782501379
 20
326.5
 30
0.0
 11
1118.959692944
 21
326.5
 31
0.0
  0
LINE
  8
0
  6
LTYPE4
 62
     2
 10
1095.607501379
 20
277.6
 30
0.0
 11
1125.607501379
 21
277.6
 31
0.0
  0
LINE
  8
0
  6
LTYPE4
 62
     2
 10
1125.607501379
 20
277.6
 30
0.0
 11
1125.607501379
 21
287.1
 31
0.0
  0
LINE
  8
0
  6
LTYPE4
 62
     2
 10
1125.607501379
 20
287.1
 30
0.0
 11
1095.607501379
 21
287.1
 31
0.0
  0
LINE
  8
0
  6
LTYPE4
 62
     2
 10
1095.607501379
 20
287.1
 30
0.0
 11
1095.607501379
 21
277.6
 31
0.0
  0
LINE
  8
0
  6
CONTINUOUS
 62
     1
 10
1095.607501379
 20
247.6
 30
0.0
 11
1125.607501379
 21
247.6
 31
0.0
  0
LINE
  8
0
  6
CONTINUOUS
 62
     1
 10
1125.607501379
 20
247.6
 30
0.0
 11
1125.607501379
 21
257.1
 31
0.0
  0
LINE
  8
0
  6
CONTINUOUS
 62
     1
 10
1125.607501379
 20
257.1
 30
0.0
 11
1095.607501379
 21
257.1
 31
0.0
  0
LINE
  8
0
  6
CONTINUOUS
 62
     1
 10
1095.607501379
 20
257.1
 30
0.0
 11
1095.607501379
 21
247.6
 31
0.0
  0
TEXT
  8
0
  6
CONTINUOUS
 62
     2
 10
1094.382501379
 20
290.4
 30
0.0
 40
10.0
  1
４
 50
0.0
 41
0.85
 51
0.0
  7
KANJI26
  0
TEXT
  8
0
  6
CONTINUOUS
 62
     2
 10
1119.382501379
 20
290.4
 30
0.0
 40
10.0
  1
３
 50
0.0
 41
0.85
 51
0.0
  7
KANJI26
  0
POLYLINE
  8
0
  6
CONTINUOUS
 62
     2
 66
     1
 70
     1
  0
VERTEX
  8
0
  6
CONTINUOUS
 62
     2
 10
1105.382501379
 20
289.65
 30
0.0
 42
0.021820078
  0
VERTEX
  8
0
  6
CONTINUOUS
 62
     2
 10
1105.37393945
 20
289.846100421
 30
0.0
 42
0.021820078
  0
VERTEX
  8
0
  6
CONTINUOUS
 62
     2
 10
1105.348318824
 20
290.0407084
 30
0.0
 42
0.021820078
  0
VERTEX
  8
0
  6
CONTINUOUS
 62
     2
 10
1105.305834489
 20
290.232342851
 30
0.0
 42
0.021820078
  0
VERTEX
  8
0
  6
CONTINUOUS
 62
     2
 10
1105.246809776
 20
290.419545322
 30
0.0
 42
0.021820078
  0
VERTEX
  8
0
  6
CONTINUOUS
 62
     2
 10
1105.1716939
 20
290.600891089
 30
0.0
 42
0.021820078
  0
VERTEX
  8
0
  6
CONTINUOUS
 62
     2
 10
1105.081058538
 20
290.775
 30
0.0
 42
0.021820078
  0
VERTEX
  8
0
  6
CONTINUOUS
 62
     2
 10
1104.975593479
 20
290.940546982
 30
0.0
 42
0.021820078
  0
VERTEX
  8
0
  6
CONTINUOUS
 62
     2
 10
1104.856101376
 20
291.096272122
 30
0.0
 42
0.021820078
  0
VERTEX
  8
0
  6
CONTINUOUS
 62
     2
 10
1104.723491637
 20
291.240990258
 30
0.0
 42
0.021820078
  0
VERTEX
  8
0
  6
CONTINUOUS
 62
     2
 10
1104.578773501
 20
291.373599997
 30
0.0
 42
0.021820078
  0
VERTEX
  8
0
  6
CONTINUOUS
 62
     2
 10
1104.423048361
 20
291.4930921
 30
0.0
 42
0.021820078
  0
VERTEX
  8
0
  6
CONTINUOUS
 62
     2
 10
1104.257501379
 20
291.598557159
 30
0.0
 42
0.021820078
  0
VERTEX
  8
0
  6
CONTINUOUS
 62
     2
 10
1104.083392468
 20
291.689192521
 30
0.0
 42
0.021820078
  0
VERTEX
  8
0
  6
CONTINUOUS
 62
     2
 10
1103.902046702
 20
291.764308397
 30
0.0
 42
0.021820078
  0
VERTEX
  8
0
  6
CONTINUOUS
 62
     2
 10
1103.714844231
 20
291.823333109
 30
0.0
 42
0.021820078
  0
VERTEX
  8
0
  6
CONTINUOUS
 62
     2
 10
1103.523209779
 20
291.865817444
 30
0.0
 42
0.021820078
  0
VERTEX
  8
0
  6
CONTINUOUS
 62
     2
 10
1103.328601801
 20
291.891438071
 30
0.0
 42
0.021820078
  0
VERTEX
  8
0
  6
CONTINUOUS
 62
     2
 10
1103.132501379
 20
291.9
 30
0.0
 42
0.021820078
  0
VERTEX
  8
0
  6
CONTINUOUS
 62
     2
 10
1102.936400958
 20
291.891438071
 30
0.0
 42
0.021820078
  0
VERTEX
  8
0
  6
CONTINUOUS
 62
     2
 10
1102.74179298
 20
291.865817444
 30
0.0
 42
0.021820078
  0
VERTEX
  8
0
  6
CONTINUOUS
 62
     2
 10
1102.550158528
 20
291.823333109
 30
0.0
 42
0.021820078
  0
VERTEX
  8
0
  6
CONTINUOUS
 62
     2
 10
1102.362956057
 20
291.764308397
 30
0.0
 42
0.021820078
  0
VERTEX
  8
0
  6
CONTINUOUS
 62
     2
 10
1102.18161029
 20
291.689192521
 30
0.0
 42
0.021820078
  0
VERTEX
  8
0
  6
CONTINUOUS
 62
     2
 10
1102.007501379
 20
291.598557159
 30
0.0
 42
0.021820078
  0
VERTEX
  8
0
  6
CONTINUOUS
 62
     2
 10
1101.841954398
 20
291.4930921
 30
0.0
 42
0.021820078
  0
VERTEX
  8
0
  6
CONTINUOUS
 62
     2
 10
1101.686229258
 20
291.373599997
 30
0.0
 42
0.021820078
  0
VERTEX
  8
0
  6
CONTINUOUS
 62
     2
 10
1101.541511122
 20
291.240990258
 30
0.0
 42
0.021820078
  0
VERTEX
  8
0
  6
CONTINUOUS
 62
     2
 10
1101.408901382
 20
291.096272122
 30
0.0
 42
0.021820078
  0
VERTEX
  8
0
  6
CONTINUOUS
 62
     2
 10
1101.28940928
 20
290.940546982
 30
0.0
 42
0.021820078
  0
VERTEX
  8
0
  6
CONTINUOUS
 62
     2
 10
1101.183944221
 20
290.775
 30
0.0
 42
0.021820078
  0
VERTEX
  8
0
  6
CONTINUOUS
 62
     2
 10
1101.093308859
 20
290.600891089
 30
0.0
 42
0.021820078
  0
VERTEX
  8
0
  6
CONTINUOUS
 62
     2
 10
1101.018192983
 20
290.419545322
 30
0.0
 42
0.021820078
  0
VERTEX
  8
0
  6
CONTINUOUS
 62
     2
 10
1100.95916827
 20
290.232342851
 30
0.0
 42
0.021820078
  0
VERTEX
  8
0
  6
CONTINUOUS
 62
     2
 10
1100.916683935
 20
290.0407084
 30
0.0
 42
0.021820078
  0
VERTEX
  8
0
  6
CONTINUOUS
 62
     2
 10
1100.891063309
 20
289.846100421
 30
0.0
 42
0.021820078
  0
VERTEX
  8
0
  6
CONTINUOUS
 62
     2
 10
1100.882501379
 20
289.65
 30
0.0
 42
0.021820078
  0
VERTEX
  8
0
  6
CONTINUOUS
 62
     2
 10
1100.891063309
 20
289.453899579
 30
0.0
 42
0.021820078
  0
VERTEX
  8
0
  6
CONTINUOUS
 62
     2
 10
1100.916683935
 20
289.2592916
 30
0.0
 42
0.021820078
  0
VERTEX
  8
0
  6
CONTINUOUS
 62
     2
 10
1100.95916827
 20
289.067657149
 30
0.0
 42
0.021820078
  0
VERTEX
  8
0
  6
CONTINUOUS
 62
     2
 10
1101.018192983
 20
288.880454678
 30
0.0
 42
0.021820078
  0
VERTEX
  8
0
  6
CONTINUOUS
 62
     2
 10
1101.093308859
 20
288.699108911
 30
0.0
 42
0.021820078
  0
VERTEX
  8
0
  6
CONTINUOUS
 62
     2
 10
1101.183944221
 20
288.525
 30
0.0
 42
0.021820078
  0
VERTEX
  8
0
  6
CONTINUOUS
 62
     2
 10
1101.28940928
 20
288.359453018
 30
0.0
 42
0.021820078
  0
VERTEX
  8
0
  6
CONTINUOUS
 62
     2
 10
1101.408901382
 20
288.203727878
 30
0.0
 42
0.021820078
  0
VERTEX
  8
0
  6
CONTINUOUS
 62
     2
 10
1101.541511122
 20
288.059009742
 30
0.0
 42
0.021820078
  0
VERTEX
  8
0
  6
CONTINUOUS
 62
     2
 10
1101.686229258
 20
287.926400003
 30
0.0
 42
0.021820078
  0
VERTEX
  8
0
  6
CONTINUOUS
 62
     2
 10
1101.841954398
 20
287.8069079
 30
0.0
 42
0.021820078
  0
VERTEX
  8
0
  6
CONTINUOUS
 62
     2
 10
1102.007501379
 20
287.701442841
 30
0.0
 42
0.021820078
  0
VERTEX
  8
0
  6
CONTINUOUS
 62
     2
 10
1102.18161029
 20
287.610807479
 30
0.0
 42
0.021820078
  0
VERTEX
  8
0
  6
CONTINUOUS
 62
     2
 10
1102.362956057
 20
287.535691603
 30
0.0
 42
0.021820078
  0
VERTEX
  8
0
  6
CONTINUOUS
 62
     2
 10
1102.550158528
 20
287.476666891
 30
0.0
 42
0.021820078
  0
VERTEX
  8
0
  6
CONTINUOUS
 62
     2
 10
1102.74179298
 20
287.434182556
 30
0.0
 42
0.021820078
  0
VERTEX
  8
0
  6
CONTINUOUS
 62
     2
 10
1102.936400958
 20
287.408561929
 30
0.0
 42
0.021820078
  0
VERTEX
  8
0
  6
CONTINUOUS
 62
     2
 10
1103.132501379
 20
287.4
 30
0.0
 42
0.021820078
  0
VERTEX
  8
0
  6
CONTINUOUS
 62
     2
 10
1103.328601801
 20
287.408561929
 30
0.0
 42
0.021820078
  0
VERTEX
  8
0
  6
CONTINUOUS
 62
     2
 10
1103.523209779
 20
287.434182556
 30
0.0
 42
0.021820078
  0
VERTEX
  8
0
  6
CONTINUOUS
 62
     2
 10
1103.714844231
 20
287.476666891
 30
0.0
 42
0.021820078
  0
VERTEX
  8
0
  6
CONTINUOUS
 62
     2
 10
1103.902046702
 20
287.535691603
 30
0.0
 42
0.021820078
  0
VERTEX
  8
0
  6
CONTINUOUS
 62
     2
 10
1104.083392468
 20
287.610807479
 30
0.0
 42
0.021820078
  0
VERTEX
  8
0
  6
CONTINUOUS
 62
     2
 10
1104.257501379
 20
287.701442841
 30
0.0
 42
0.021820078
  0
VERTEX
  8
0
  6
CONTINUOUS
 62
     2
 10
1104.423048361
 20
287.8069079
 30
0.0
 42
0.021820078
  0
VERTEX
  8
0
  6
CONTINUOUS
 62
     2
 10
1104.578773501
 20
287.926400003
 30
0.0
 42
0.021820078
  0
VERTEX
  8
0
  6
CONTINUOUS
 62
     2
 10
1104.723491637
 20
288.059009742
 30
0.0
 42
0.021820078
  0
VERTEX
  8
0
  6
CONTINUOUS
 62
     2
 10
1104.856101376
 20
288.203727878
 30
0.0
 42
0.021820078
  0
VERTEX
  8
0
  6
CONTINUOUS
 62
     2
 10
1104.975593479
 20
288.359453018
 30
0.0
 42
0.021820078
  0
VERTEX
  8
0
  6
CONTINUOUS
 62
     2
 10
1105.081058538
 20
288.525
 30
0.0
 42
0.021820078
  0
VERTEX
  8
0
  6
CONTINUOUS
 62
     2
 10
1105.1716939
 20
288.699108911
 30
0.0
 42
0.021820078
  0
VERTEX
  8
0
  6
CONTINUOUS
 62
     2
 10
1105.246809776
 20
288.880454678
 30
0.0
 42
0.021820078
  0
VERTEX
  8
0
  6
CONTINUOUS
 62
     2
 10
1105.305834489
 20
289.067657149
 30
0.0
 42
0.021820078
  0
VERTEX
  8
0
  6
CONTINUOUS
 62
     2
 10
1105.348318824
 20
289.2592916
 30
0.0
 42
0.021820078
  0
VERTEX
  8
0
  6
CONTINUOUS
 62
     2
 10
1105.37393945
 20
289.453899579
 30
0.0
 42
0.021820078
  0
SEQEND
  8
0
  6
CONTINUOUS
 62
     2
  0
POLYLINE
  8
0
  6
CONTINUOUS
 62
     2
 66
     1
 70
     1
  0
VERTEX
  8
0
  6
CONTINUOUS
 62
     2
 10
1120.382501379
 20
289.65
 30
0.0
 42
0.021820078
  0
VERTEX
  8
0
  6
CONTINUOUS
 62
     2
 10
1120.37393945
 20
289.846100421
 30
0.0
 42
0.021820078
  0
VERTEX
  8
0
  6
CONTINUOUS
 62
     2
 10
1120.348318824
 20
290.0407084
 30
0.0
 42
0.021820078
  0
VERTEX
  8
0
  6
CONTINUOUS
 62
     2
 10
1120.305834489
 20
290.232342851
 30
0.0
 42
0.021820078
  0
VERTEX
  8
0
  6
CONTINUOUS
 62
     2
 10
1120.246809776
 20
290.419545322
 30
0.0
 42
0.021820078
  0
VERTEX
  8
0
  6
CONTINUOUS
 62
     2
 10
1120.1716939
 20
290.600891089
 30
0.0
 42
0.021820078
  0
VERTEX
  8
0
  6
CONTINUOUS
 62
     2
 10
1120.081058538
 20
290.775
 30
0.0
 42
0.021820078
  0
VERTEX
  8
0
  6
CONTINUOUS
 62
     2
 10
1119.975593479
 20
290.940546982
 30
0.0
 42
0.021820078
  0
VERTEX
  8
0
  6
CONTINUOUS
 62
     2
 10
1119.856101376
 20
291.096272122
 30
0.0
 42
0.021820078
  0
VERTEX
  8
0
  6
CONTINUOUS
 62
     2
 10
1119.723491637
 20
291.240990258
 30
0.0
 42
0.021820078
  0
VERTEX
  8
0
  6
CONTINUOUS
 62
     2
 10
1119.578773501
 20
291.373599997
 30
0.0
 42
0.021820078
  0
VERTEX
  8
0
  6
CONTINUOUS
 62
     2
 10
1119.423048361
 20
291.4930921
 30
0.0
 42
0.021820078
  0
VERTEX
  8
0
  6
CONTINUOUS
 62
     2
 10
1119.257501379
 20
291.598557159
 30
0.0
 42
0.021820078
  0
VERTEX
  8
0
  6
CONTINUOUS
 62
     2
 10
1119.083392468
 20
291.689192521
 30
0.0
 42
0.021820078
  0
VERTEX
  8
0
  6
CONTINUOUS
 62
     2
 10
1118.902046702
 20
291.764308397
 30
0.0
 42
0.021820078
  0
VERTEX
  8
0
  6
CONTINUOUS
 62
     2
 10
1118.714844231
 20
291.823333109
 30
0.0
 42
0.021820078
  0
VERTEX
  8
0
  6
CONTINUOUS
 62
     2
 10
1118.523209779
 20
291.865817444
 30
0.0
 42
0.021820078
  0
VERTEX
  8
0
  6
CONTINUOUS
 62
     2
 10
1118.328601801
 20
291.891438071
 30
0.0
 42
0.021820078
  0
VERTEX
  8
0
  6
CONTINUOUS
 62
     2
 10
1118.132501379
 20
291.9
 30
0.0
 42
0.021820078
  0
VERTEX
  8
0
  6
CONTINUOUS
 62
     2
 10
1117.936400958
 20
291.891438071
 30
0.0
 42
0.021820078
  0
VERTEX
  8
0
  6
CONTINUOUS
 62
     2
 10
1117.74179298
 20
291.865817444
 30
0.0
 42
0.021820078
  0
VERTEX
  8
0
  6
CONTINUOUS
 62
     2
 10
1117.550158528
 20
291.823333109
 30
0.0
 42
0.021820078
  0
VERTEX
  8
0
  6
CONTINUOUS
 62
     2
 10
1117.362956057
 20
291.764308397
 30
0.0
 42
0.021820078
  0
VERTEX
  8
0
  6
CONTINUOUS
 62
     2
 10
1117.18161029
 20
291.689192521
 30
0.0
 42
0.021820078
  0
VERTEX
  8
0
  6
CONTINUOUS
 62
     2
 10
1117.007501379
 20
291.598557159
 30
0.0
 42
0.021820078
  0
VERTEX
  8
0
  6
CONTINUOUS
 62
     2
 10
1116.841954398
 20
291.4930921
 30
0.0
 42
0.021820078
  0
VERTEX
  8
0
  6
CONTINUOUS
 62
     2
 10
1116.686229258
 20
291.373599997
 30
0.0
 42
0.021820078
  0
VERTEX
  8
0
  6
CONTINUOUS
 62
     2
 10
1116.541511122
 20
291.240990258
 30
0.0
 42
0.021820078
  0
VERTEX
  8
0
  6
CONTINUOUS
 62
     2
 10
1116.408901382
 20
291.096272122
 30
0.0
 42
0.021820078
  0
VERTEX
  8
0
  6
CONTINUOUS
 62
     2
 10
1116.28940928
 20
290.940546982
 30
0.0
 42
0.021820078
  0
VERTEX
  8
0
  6
CONTINUOUS
 62
     2
 10
1116.183944221
 20
290.775
 30
0.0
 42
0.021820078
  0
VERTEX
  8
0
  6
CONTINUOUS
 62
     2
 10
1116.093308859
 20
290.600891089
 30
0.0
 42
0.021820078
  0
VERTEX
  8
0
  6
CONTINUOUS
 62
     2
 10
1116.018192983
 20
290.419545322
 30
0.0
 42
0.021820078
  0
VERTEX
  8
0
  6
CONTINUOUS
 62
     2
 10
1115.95916827
 20
290.232342851
 30
0.0
 42
0.021820078
  0
VERTEX
  8
0
  6
CONTINUOUS
 62
     2
 10
1115.916683935
 20
290.0407084
 30
0.0
 42
0.021820078
  0
VERTEX
  8
0
  6
CONTINUOUS
 62
     2
 10
1115.891063309
 20
289.846100421
 30
0.0
 42
0.021820078
  0
VERTEX
  8
0
  6
CONTINUOUS
 62
     2
 10
1115.882501379
 20
289.65
 30
0.0
 42
0.021820078
  0
VERTEX
  8
0
  6
CONTINUOUS
 62
     2
 10
1115.891063309
 20
289.453899579
 30
0.0
 42
0.021820078
  0
VERTEX
  8
0
  6
CONTINUOUS
 62
     2
 10
1115.916683935
 20
289.2592916
 30
0.0
 42
0.021820078
  0
VERTEX
  8
0
  6
CONTINUOUS
 62
     2
 10
1115.95916827
 20
289.067657149
 30
0.0
 42
0.021820078
  0
VERTEX
  8
0
  6
CONTINUOUS
 62
     2
 10
1116.018192983
 20
288.880454678
 30
0.0
 42
0.021820078
  0
VERTEX
  8
0
  6
CONTINUOUS
 62
     2
 10
1116.093308859
 20
288.699108911
 30
0.0
 42
0.021820078
  0
VERTEX
  8
0
  6
CONTINUOUS
 62
     2
 10
1116.183944221
 20
288.525
 30
0.0
 42
0.021820078
  0
VERTEX
  8
0
  6
CONTINUOUS
 62
     2
 10
1116.28940928
 20
288.359453018
 30
0.0
 42
0.021820078
  0
VERTEX
  8
0
  6
CONTINUOUS
 62
     2
 10
1116.408901382
 20
288.203727878
 30
0.0
 42
0.021820078
  0
VERTEX
  8
0
  6
CONTINUOUS
 62
     2
 10
1116.541511122
 20
288.059009742
 30
0.0
 42
0.021820078
  0
VERTEX
  8
0
  6
CONTINUOUS
 62
     2
 10
1116.686229258
 20
287.926400003
 30
0.0
 42
0.021820078
  0
VERTEX
  8
0
  6
CONTINUOUS
 62
     2
 10
1116.841954398
 20
287.8069079
 30
0.0
 42
0.021820078
  0
VERTEX
  8
0
  6
CONTINUOUS
 62
     2
 10
1117.007501379
 20
287.701442841
 30
0.0
 42
0.021820078
  0
VERTEX
  8
0
  6
CONTINUOUS
 62
     2
 10
1117.18161029
 20
287.610807479
 30
0.0
 42
0.021820078
  0
VERTEX
  8
0
  6
CONTINUOUS
 62
     2
 10
1117.362956057
 20
287.535691603
 30
0.0
 42
0.021820078
  0
VERTEX
  8
0
  6
CONTINUOUS
 62
     2
 10
1117.550158528
 20
287.476666891
 30
0.0
 42
0.021820078
  0
VERTEX
  8
0
  6
CONTINUOUS
 62
     2
 10
1117.74179298
 20
287.434182556
 30
0.0
 42
0.021820078
  0
VERTEX
  8
0
  6
CONTINUOUS
 62
     2
 10
1117.936400958
 20
287.408561929
 30
0.0
 42
0.021820078
  0
VERTEX
  8
0
  6
CONTINUOUS
 62
     2
 10
1118.132501379
 20
287.4
 30
0.0
 42
0.021820078
  0
VERTEX
  8
0
  6
CONTINUOUS
 62
     2
 10
1118.328601801
 20
287.408561929
 30
0.0
 42
0.021820078
  0
VERTEX
  8
0
  6
CONTINUOUS
 62
     2
 10
1118.523209779
 20
287.434182556
 30
0.0
 42
0.021820078
  0
VERTEX
  8
0
  6
CONTINUOUS
 62
     2
 10
1118.714844231
 20
287.476666891
 30
0.0
 42
0.021820078
  0
VERTEX
  8
0
  6
CONTINUOUS
 62
     2
 10
1118.902046702
 20
287.535691603
 30
0.0
 42
0.021820078
  0
VERTEX
  8
0
  6
CONTINUOUS
 62
     2
 10
1119.083392468
 20
287.610807479
 30
0.0
 42
0.021820078
  0
VERTEX
  8
0
  6
CONTINUOUS
 62
     2
 10
1119.257501379
 20
287.701442841
 30
0.0
 42
0.021820078
  0
VERTEX
  8
0
  6
CONTINUOUS
 62
     2
 10
1119.423048361
 20
287.8069079
 30
0.0
 42
0.021820078
  0
VERTEX
  8
0
  6
CONTINUOUS
 62
     2
 10
1119.578773501
 20
287.926400003
 30
0.0
 42
0.021820078
  0
VERTEX
  8
0
  6
CONTINUOUS
 62
     2
 10
1119.723491637
 20
288.059009742
 30
0.0
 42
0.021820078
  0
VERTEX
  8
0
  6
CONTINUOUS
 62
     2
 10
1119.856101376
 20
288.203727878
 30
0.0
 42
0.021820078
  0
VERTEX
  8
0
  6
CONTINUOUS
 62
     2
 10
1119.975593479
 20
288.359453018
 30
0.0
 42
0.021820078
  0
VERTEX
  8
0
  6
CONTINUOUS
 62
     2
 10
1120.081058538
 20
288.525
 30
0.0
 42
0.021820078
  0
VERTEX
  8
0
  6
CONTINUOUS
 62
     2
 10
1120.1716939
 20
288.699108911
 30
0.0
 42
0.021820078
  0
VERTEX
  8
0
  6
CONTINUOUS
 62
     2
 10
1120.246809776
 20
288.880454678
 30
0.0
 42
0.021820078
  0
VERTEX
  8
0
  6
CONTINUOUS
 62
     2
 10
1120.305834489
 20
289.067657149
 30
0.0
 42
0.021820078
  0
VERTEX
  8
0
  6
CONTINUOUS
 62
     2
 10
1120.348318824
 20
289.2592916
 30
0.0
 42
0.021820078
  0
VERTEX
  8
0
  6
CONTINUOUS
 62
     2
 10
1120.37393945
 20
289.453899579
 30
0.0
 42
0.021820078
  0
SEQEND
  8
0
  6
CONTINUOUS
 62
     2
  0
POLYLINE
  8
0
  6
CONTINUOUS
 62
     2
 66
     1
 70
     1
  0
VERTEX
  8
0
  6
CONTINUOUS
 62
     2
 10
1105.382501379
 20
245.3
 30
0.0
 42
-0.021820078
  0
VERTEX
  8
0
  6
CONTINUOUS
 62
     2
 10
1105.37393945
 20
245.103899579
 30
0.0
 42
-0.021820078
  0
VERTEX
  8
0
  6
CONTINUOUS
 62
     2
 10
1105.348318824
 20
244.9092916
 30
0.0
 42
-0.021820078
  0
VERTEX
  8
0
  6
CONTINUOUS
 62
     2
 10
1105.305834489
 20
244.717657149
 30
0.0
 42
-0.021820078
  0
VERTEX
  8
0
  6
CONTINUOUS
 62
     2
 10
1105.246809776
 20
244.530454678
 30
0.0
 42
-0.021820078
  0
VERTEX
  8
0
  6
CONTINUOUS
 62
     2
 10
1105.1716939
 20
244.349108911
 30
0.0
 42
-0.021820078
  0
VERTEX
  8
0
  6
CONTINUOUS
 62
     2
 10
1105.081058538
 20
244.175
 30
0.0
 42
-0.021820078
  0
VERTEX
  8
0
  6
CONTINUOUS
 62
     2
 10
1104.975593479
 20
244.009453018
 30
0.0
 42
-0.021820078
  0
VERTEX
  8
0
  6
CONTINUOUS
 62
     2
 10
1104.856101376
 20
243.853727878
 30
0.0
 42
-0.021820078
  0
VERTEX
  8
0
  6
CONTINUOUS
 62
     2
 10
1104.723491637
 20
243.709009742
 30
0.0
 42
-0.021820078
  0
VERTEX
  8
0
  6
CONTINUOUS
 62
     2
 10
1104.578773501
 20
243.576400003
 30
0.0
 42
-0.021820078
  0
VERTEX
  8
0
  6
CONTINUOUS
 62
     2
 10
1104.423048361
 20
243.4569079
 30
0.0
 42
-0.021820078
  0
VERTEX
  8
0
  6
CONTINUOUS
 62
     2
 10
1104.257501379
 20
243.351442841
 30
0.0
 42
-0.021820078
  0
VERTEX
  8
0
  6
CONTINUOUS
 62
     2
 10
1104.083392468
 20
243.260807479
 30
0.0
 42
-0.021820078
  0
VERTEX
  8
0
  6
CONTINUOUS
 62
     2
 10
1103.902046702
 20
243.185691603
 30
0.0
 42
-0.021820078
  0
VERTEX
  8
0
  6
CONTINUOUS
 62
     2
 10
1103.714844231
 20
243.126666891
 30
0.0
 42
-0.021820078
  0
VERTEX
  8
0
  6
CONTINUOUS
 62
     2
 10
1103.523209779
 20
243.084182556
 30
0.0
 42
-0.021820078
  0
VERTEX
  8
0
  6
CONTINUOUS
 62
     2
 10
1103.328601801
 20
243.058561929
 30
0.0
 42
-0.021820078
  0
VERTEX
  8
0
  6
CONTINUOUS
 62
     2
 10
1103.132501379
 20
243.05
 30
0.0
 42
-0.021820078
  0
VERTEX
  8
0
  6
CONTINUOUS
 62
     2
 10
1102.936400958
 20
243.058561929
 30
0.0
 42
-0.021820078
  0
VERTEX
  8
0
  6
CONTINUOUS
 62
     2
 10
1102.74179298
 20
243.084182556
 30
0.0
 42
-0.021820078
  0
VERTEX
  8
0
  6
CONTINUOUS
 62
     2
 10
1102.550158528
 20
243.126666891
 30
0.0
 42
-0.021820078
  0
VERTEX
  8
0
  6
CONTINUOUS
 62
     2
 10
1102.362956057
 20
243.185691603
 30
0.0
 42
-0.021820078
  0
VERTEX
  8
0
  6
CONTINUOUS
 62
     2
 10
1102.18161029
 20
243.260807479
 30
0.0
 42
-0.021820078
  0
VERTEX
  8
0
  6
CONTINUOUS
 62
     2
 10
1102.007501379
 20
243.351442841
 30
0.0
 42
-0.021820078
  0
VERTEX
  8
0
  6
CONTINUOUS
 62
     2
 10
1101.841954398
 20
243.4569079
 30
0.0
 42
-0.021820078
  0
VERTEX
  8
0
  6
CONTINUOUS
 62
     2
 10
1101.686229258
 20
243.576400003
 30
0.0
 42
-0.021820078
  0
VERTEX
  8
0
  6
CONTINUOUS
 62
     2
 10
1101.541511122
 20
243.709009742
 30
0.0
 42
-0.021820078
  0
VERTEX
  8
0
  6
CONTINUOUS
 62
     2
 10
1101.408901382
 20
243.853727878
 30
0.0
 42
-0.021820078
  0
VERTEX
  8
0
  6
CONTINUOUS
 62
     2
 10
1101.28940928
 20
244.009453018
 30
0.0
 42
-0.021820078
  0
VERTEX
  8
0
  6
CONTINUOUS
 62
     2
 10
1101.183944221
 20
244.175
 30
0.0
 42
-0.021820078
  0
VERTEX
  8
0
  6
CONTINUOUS
 62
     2
 10
1101.093308859
 20
244.349108911
 30
0.0
 42
-0.021820078
  0
VERTEX
  8
0
  6
CONTINUOUS
 62
     2
 10
1101.018192983
 20
244.530454678
 30
0.0
 42
-0.021820078
  0
VERTEX
  8
0
  6
CONTINUOUS
 62
     2
 10
1100.95916827
 20
244.717657149
 30
0.0
 42
-0.021820078
  0
VERTEX
  8
0
  6
CONTINUOUS
 62
     2
 10
1100.916683935
 20
244.9092916
 30
0.0
 42
-0.021820078
  0
VERTEX
  8
0
  6
CONTINUOUS
 62
     2
 10
1100.891063309
 20
245.103899579
 30
0.0
 42
-0.021820078
  0
VERTEX
  8
0
  6
CONTINUOUS
 62
     2
 10
1100.882501379
 20
245.3
 30
0.0
 42
-0.021820078
  0
VERTEX
  8
0
  6
CONTINUOUS
 62
     2
 10
1100.891063309
 20
245.496100421
 30
0.0
 42
-0.021820078
  0
VERTEX
  8
0
  6
CONTINUOUS
 62
     2
 10
1100.916683935
 20
245.6907084
 30
0.0
 42
-0.021820078
  0
VERTEX
  8
0
  6
CONTINUOUS
 62
     2
 10
1100.95916827
 20
245.882342851
 30
0.0
 42
-0.021820078
  0
VERTEX
  8
0
  6
CONTINUOUS
 62
     2
 10
1101.018192983
 20
246.069545322
 30
0.0
 42
-0.021820078
  0
VERTEX
  8
0
  6
CONTINUOUS
 62
     2
 10
1101.093308859
 20
246.250891089
 30
0.0
 42
-0.021820078
  0
VERTEX
  8
0
  6
CONTINUOUS
 62
     2
 10
1101.183944221
 20
246.425
 30
0.0
 42
-0.021820078
  0
VERTEX
  8
0
  6
CONTINUOUS
 62
     2
 10
1101.28940928
 20
246.590546982
 30
0.0
 42
-0.021820078
  0
VERTEX
  8
0
  6
CONTINUOUS
 62
     2
 10
1101.408901382
 20
246.746272122
 30
0.0
 42
-0.021820078
  0
VERTEX
  8
0
  6
CONTINUOUS
 62
     2
 10
1101.541511122
 20
246.890990258
 30
0.0
 42
-0.021820078
  0
VERTEX
  8
0
  6
CONTINUOUS
 62
     2
 10
1101.686229258
 20
247.023599997
 30
0.0
 42
-0.021820078
  0
VERTEX
  8
0
  6
CONTINUOUS
 62
     2
 10
1101.841954398
 20
247.1430921
 30
0.0
 42
-0.021820078
  0
VERTEX
  8
0
  6
CONTINUOUS
 62
     2
 10
1102.007501379
 20
247.248557159
 30
0.0
 42
-0.021820078
  0
VERTEX
  8
0
  6
CONTINUOUS
 62
     2
 10
1102.18161029
 20
247.339192521
 30
0.0
 42
-0.021820078
  0
VERTEX
  8
0
  6
CONTINUOUS
 62
     2
 10
1102.362956057
 20
247.414308397
 30
0.0
 42
-0.021820078
  0
VERTEX
  8
0
  6
CONTINUOUS
 62
     2
 10
1102.550158528
 20
247.473333109
 30
0.0
 42
-0.021820078
  0
VERTEX
  8
0
  6
CONTINUOUS
 62
     2
 10
1102.74179298
 20
247.515817444
 30
0.0
 42
-0.021820078
  0
VERTEX
  8
0
  6
CONTINUOUS
 62
     2
 10
1102.936400958
 20
247.541438071
 30
0.0
 42
-0.021820078
  0
VERTEX
  8
0
  6
CONTINUOUS
 62
     2
 10
1103.132501379
 20
247.55
 30
0.0
 42
-0.021820078
  0
VERTEX
  8
0
  6
CONTINUOUS
 62
     2
 10
1103.328601801
 20
247.541438071
 30
0.0
 42
-0.021820078
  0
VERTEX
  8
0
  6
CONTINUOUS
 62
     2
 10
1103.523209779
 20
247.515817444
 30
0.0
 42
-0.021820078
  0
VERTEX
  8
0
  6
CONTINUOUS
 62
     2
 10
1103.714844231
 20
247.473333109
 30
0.0
 42
-0.021820078
  0
VERTEX
  8
0
  6
CONTINUOUS
 62
     2
 10
1103.902046702
 20
247.414308397
 30
0.0
 42
-0.021820078
  0
VERTEX
  8
0
  6
CONTINUOUS
 62
     2
 10
1104.083392468
 20
247.339192521
 30
0.0
 42
-0.021820078
  0
VERTEX
  8
0
  6
CONTINUOUS
 62
     2
 10
1104.257501379
 20
247.248557159
 30
0.0
 42
-0.021820078
  0
VERTEX
  8
0
  6
CONTINUOUS
 62
     2
 10
1104.423048361
 20
247.1430921
 30
0.0
 42
-0.021820078
  0
VERTEX
  8
0
  6
CONTINUOUS
 62
     2
 10
1104.578773501
 20
247.023599997
 30
0.0
 42
-0.021820078
  0
VERTEX
  8
0
  6
CONTINUOUS
 62
     2
 10
1104.723491637
 20
246.890990258
 30
0.0
 42
-0.021820078
  0
VERTEX
  8
0
  6
CONTINUOUS
 62
     2
 10
1104.856101376
 20
246.746272122
 30
0.0
 42
-0.021820078
  0
VERTEX
  8
0
  6
CONTINUOUS
 62
     2
 10
1104.975593479
 20
246.590546982
 30
0.0
 42
-0.021820078
  0
VERTEX
  8
0
  6
CONTINUOUS
 62
     2
 10
1105.081058538
 20
246.425
 30
0.0
 42
-0.021820078
  0
VERTEX
  8
0
  6
CONTINUOUS
 62
     2
 10
1105.1716939
 20
246.250891089
 30
0.0
 42
-0.021820078
  0
VERTEX
  8
0
  6
CONTINUOUS
 62
     2
 10
1105.246809776
 20
246.069545322
 30
0.0
 42
-0.021820078
  0
VERTEX
  8
0
  6
CONTINUOUS
 62
     2
 10
1105.305834489
 20
245.882342851
 30
0.0
 42
-0.021820078
  0
VERTEX
  8
0
  6
CONTINUOUS
 62
     2
 10
1105.348318824
 20
245.6907084
 30
0.0
 42
-0.021820078
  0
VERTEX
  8
0
  6
CONTINUOUS
 62
     2
 10
1105.37393945
 20
245.496100421
 30
0.0
 42
-0.021820078
  0
SEQEND
  8
0
  6
CONTINUOUS
 62
     2
  0
POLYLINE
  8
0
  6
CONTINUOUS
 62
     2
 66
     1
 70
     1
  0
VERTEX
  8
0
  6
CONTINUOUS
 62
     2
 10
1120.382501379
 20
245.3
 30
0.0
 42
-0.021820078
  0
VERTEX
  8
0
  6
CONTINUOUS
 62
     2
 10
1120.37393945
 20
245.103899579
 30
0.0
 42
-0.021820078
  0
VERTEX
  8
0
  6
CONTINUOUS
 62
     2
 10
1120.348318824
 20
244.9092916
 30
0.0
 42
-0.021820078
  0
VERTEX
  8
0
  6
CONTINUOUS
 62
     2
 10
1120.305834489
 20
244.717657149
 30
0.0
 42
-0.021820078
  0
VERTEX
  8
0
  6
CONTINUOUS
 62
     2
 10
1120.246809776
 20
244.530454678
 30
0.0
 42
-0.021820078
  0
VERTEX
  8
0
  6
CONTINUOUS
 62
     2
 10
1120.1716939
 20
244.349108911
 30
0.0
 42
-0.021820078
  0
VERTEX
  8
0
  6
CONTINUOUS
 62
     2
 10
1120.081058538
 20
244.175
 30
0.0
 42
-0.021820078
  0
VERTEX
  8
0
  6
CONTINUOUS
 62
     2
 10
1119.975593479
 20
244.009453018
 30
0.0
 42
-0.021820078
  0
VERTEX
  8
0
  6
CONTINUOUS
 62
     2
 10
1119.856101376
 20
243.853727878
 30
0.0
 42
-0.021820078
  0
VERTEX
  8
0
  6
CONTINUOUS
 62
     2
 10
1119.723491637
 20
243.709009742
 30
0.0
 42
-0.021820078
  0
VERTEX
  8
0
  6
CONTINUOUS
 62
     2
 10
1119.578773501
 20
243.576400003
 30
0.0
 42
-0.021820078
  0
VERTEX
  8
0
  6
CONTINUOUS
 62
     2
 10
1119.423048361
 20
243.4569079
 30
0.0
 42
-0.021820078
  0
VERTEX
  8
0
  6
CONTINUOUS
 62
     2
 10
1119.257501379
 20
243.351442841
 30
0.0
 42
-0.021820078
  0
VERTEX
  8
0
  6
CONTINUOUS
 62
     2
 10
1119.083392468
 20
243.260807479
 30
0.0
 42
-0.021820078
  0
VERTEX
  8
0
  6
CONTINUOUS
 62
     2
 10
1118.902046702
 20
243.185691603
 30
0.0
 42
-0.021820078
  0
VERTEX
  8
0
  6
CONTINUOUS
 62
     2
 10
1118.714844231
 20
243.126666891
 30
0.0
 42
-0.021820078
  0
VERTEX
  8
0
  6
CONTINUOUS
 62
     2
 10
1118.523209779
 20
243.084182556
 30
0.0
 42
-0.021820078
  0
VERTEX
  8
0
  6
CONTINUOUS
 62
     2
 10
1118.328601801
 20
243.058561929
 30
0.0
 42
-0.021820078
  0
VERTEX
  8
0
  6
CONTINUOUS
 62
     2
 10
1118.132501379
 20
243.05
 30
0.0
 42
-0.021820078
  0
VERTEX
  8
0
  6
CONTINUOUS
 62
     2
 10
1117.936400958
 20
243.058561929
 30
0.0
 42
-0.021820078
  0
VERTEX
  8
0
  6
CONTINUOUS
 62
     2
 10
1117.74179298
 20
243.084182556
 30
0.0
 42
-0.021820078
  0
VERTEX
  8
0
  6
CONTINUOUS
 62
     2
 10
1117.550158528
 20
243.126666891
 30
0.0
 42
-0.021820078
  0
VERTEX
  8
0
  6
CONTINUOUS
 62
     2
 10
1117.362956057
 20
243.185691603
 30
0.0
 42
-0.021820078
  0
VERTEX
  8
0
  6
CONTINUOUS
 62
     2
 10
1117.18161029
 20
243.260807479
 30
0.0
 42
-0.021820078
  0
VERTEX
  8
0
  6
CONTINUOUS
 62
     2
 10
1117.007501379
 20
243.351442841
 30
0.0
 42
-0.021820078
  0
VERTEX
  8
0
  6
CONTINUOUS
 62
     2
 10
1116.841954398
 20
243.4569079
 30
0.0
 42
-0.021820078
  0
VERTEX
  8
0
  6
CONTINUOUS
 62
     2
 10
1116.686229258
 20
243.576400003
 30
0.0
 42
-0.021820078
  0
VERTEX
  8
0
  6
CONTINUOUS
 62
     2
 10
1116.541511122
 20
243.709009742
 30
0.0
 42
-0.021820078
  0
VERTEX
  8
0
  6
CONTINUOUS
 62
     2
 10
1116.408901382
 20
243.853727878
 30
0.0
 42
-0.021820078
  0
VERTEX
  8
0
  6
CONTINUOUS
 62
     2
 10
1116.28940928
 20
244.009453018
 30
0.0
 42
-0.021820078
  0
VERTEX
  8
0
  6
CONTINUOUS
 62
     2
 10
1116.183944221
 20
244.175
 30
0.0
 42
-0.021820078
  0
VERTEX
  8
0
  6
CONTINUOUS
 62
     2
 10
1116.093308859
 20
244.349108911
 30
0.0
 42
-0.021820078
  0
VERTEX
  8
0
  6
CONTINUOUS
 62
     2
 10
1116.018192983
 20
244.530454678
 30
0.0
 42
-0.021820078
  0
VERTEX
  8
0
  6
CONTINUOUS
 62
     2
 10
1115.95916827
 20
244.717657149
 30
0.0
 42
-0.021820078
  0
VERTEX
  8
0
  6
CONTINUOUS
 62
     2
 10
1115.916683935
 20
244.9092916
 30
0.0
 42
-0.021820078
  0
VERTEX
  8
0
  6
CONTINUOUS
 62
     2
 10
1115.891063309
 20
245.103899579
 30
0.0
 42
-0.021820078
  0
VERTEX
  8
0
  6
CONTINUOUS
 62
     2
 10
1115.882501379
 20
245.3
 30
0.0
 42
-0.021820078
  0
VERTEX
  8
0
  6
CONTINUOUS
 62
     2
 10
1115.891063309
 20
245.496100421
 30
0.0
 42
-0.021820078
  0
VERTEX
  8
0
  6
CONTINUOUS
 62
     2
 10
1115.916683935
 20
245.6907084
 30
0.0
 42
-0.021820078
  0
VERTEX
  8
0
  6
CONTINUOUS
 62
     2
 10
1115.95916827
 20
245.882342851
 30
0.0
 42
-0.021820078
  0
VERTEX
  8
0
  6
CONTINUOUS
 62
     2
 10
1116.018192983
 20
246.069545322
 30
0.0
 42
-0.021820078
  0
VERTEX
  8
0
  6
CONTINUOUS
 62
     2
 10
1116.093308859
 20
246.250891089
 30
0.0
 42
-0.021820078
  0
VERTEX
  8
0
  6
CONTINUOUS
 62
     2
 10
1116.183944221
 20
246.425
 30
0.0
 42
-0.021820078
  0
VERTEX
  8
0
  6
CONTINUOUS
 62
     2
 10
1116.28940928
 20
246.590546982
 30
0.0
 42
-0.021820078
  0
VERTEX
  8
0
  6
CONTINUOUS
 62
     2
 10
1116.408901382
 20
246.746272122
 30
0.0
 42
-0.021820078
  0
VERTEX
  8
0
  6
CONTINUOUS
 62
     2
 10
1116.541511122
 20
246.890990258
 30
0.0
 42
-0.021820078
  0
VERTEX
  8
0
  6
CONTINUOUS
 62
     2
 10
1116.686229258
 20
247.023599997
 30
0.0
 42
-0.021820078
  0
VERTEX
  8
0
  6
CONTINUOUS
 62
     2
 10
1116.841954398
 20
247.1430921
 30
0.0
 42
-0.021820078
  0
VERTEX
  8
0
  6
CONTINUOUS
 62
     2
 10
1117.007501379
 20
247.248557159
 30
0.0
 42
-0.021820078
  0
VERTEX
  8
0
  6
CONTINUOUS
 62
     2
 10
1117.18161029
 20
247.339192521
 30
0.0
 42
-0.021820078
  0
VERTEX
  8
0
  6
CONTINUOUS
 62
     2
 10
1117.362956057
 20
247.414308397
 30
0.0
 42
-0.021820078
  0
VERTEX
  8
0
  6
CONTINUOUS
 62
     2
 10
1117.550158528
 20
247.473333109
 30
0.0
 42
-0.021820078
  0
VERTEX
  8
0
  6
CONTINUOUS
 62
     2
 10
1117.74179298
 20
247.515817444
 30
0.0
 42
-0.021820078
  0
VERTEX
  8
0
  6
CONTINUOUS
 62
     2
 10
1117.936400958
 20
247.541438071
 30
0.0
 42
-0.021820078
  0
VERTEX
  8
0
  6
CONTINUOUS
 62
     2
 10
1118.132501379
 20
247.55
 30
0.0
 42
-0.021820078
  0
VERTEX
  8
0
  6
CONTINUOUS
 62
     2
 10
1118.328601801
 20
247.541438071
 30
0.0
 42
-0.021820078
  0
VERTEX
  8
0
  6
CONTINUOUS
 62
     2
 10
1118.523209779
 20
247.515817444
 30
0.0
 42
-0.021820078
  0
VERTEX
  8
0
  6
CONTINUOUS
 62
     2
 10
1118.714844231
 20
247.473333109
 30
0.0
 42
-0.021820078
  0
VERTEX
  8
0
  6
CONTINUOUS
 62
     2
 10
1118.902046702
 20
247.414308397
 30
0.0
 42
-0.021820078
  0
VERTEX
  8
0
  6
CONTINUOUS
 62
     2
 10
1119.083392468
 20
247.339192521
 30
0.0
 42
-0.021820078
  0
VERTEX
  8
0
  6
CONTINUOUS
 62
     2
 10
1119.257501379
 20
247.248557159
 30
0.0
 42
-0.021820078
  0
VERTEX
  8
0
  6
CONTINUOUS
 62
     2
 10
1119.423048361
 20
247.1430921
 30
0.0
 42
-0.021820078
  0
VERTEX
  8
0
  6
CONTINUOUS
 62
     2
 10
1119.578773501
 20
247.023599997
 30
0.0
 42
-0.021820078
  0
VERTEX
  8
0
  6
CONTINUOUS
 62
     2
 10
1119.723491637
 20
246.890990258
 30
0.0
 42
-0.021820078
  0
VERTEX
  8
0
  6
CONTINUOUS
 62
     2
 10
1119.856101376
 20
246.746272122
 30
0.0
 42
-0.021820078
  0
VERTEX
  8
0
  6
CONTINUOUS
 62
     2
 10
1119.975593479
 20
246.590546982
 30
0.0
 42
-0.021820078
  0
VERTEX
  8
0
  6
CONTINUOUS
 62
     2
 10
1120.081058538
 20
246.425
 30
0.0
 42
-0.021820078
  0
VERTEX
  8
0
  6
CONTINUOUS
 62
     2
 10
1120.1716939
 20
246.250891089
 30
0.0
 42
-0.021820078
  0
VERTEX
  8
0
  6
CONTINUOUS
 62
     2
 10
1120.246809776
 20
246.069545322
 30
0.0
 42
-0.021820078
  0
VERTEX
  8
0
  6
CONTINUOUS
 62
     2
 10
1120.305834489
 20
245.882342851
 30
0.0
 42
-0.021820078
  0
VERTEX
  8
0
  6
CONTINUOUS
 62
     2
 10
1120.348318824
 20
245.6907084
 30
0.0
 42
-0.021820078
  0
VERTEX
  8
0
  6
CONTINUOUS
 62
     2
 10
1120.37393945
 20
245.496100421
 30
0.0
 42
-0.021820078
  0
SEQEND
  8
0
  6
CONTINUOUS
 62
     2
  0
TEXT
  8
0
  6
CONTINUOUS
 62
     2
 10
1094.382501379
 20
234.9
 30
0.0
 40
10.0
  1
１
 50
0.0
 41
0.85
 51
0.0
  7
KANJI26
  0
TEXT
  8
0
  6
CONTINUOUS
 62
     2
 10
1119.382501379
 20
234.9
 30
0.0
 40
10.0
  1
２
 50
0.0
 41
0.85
 51
0.0
  7
KANJI26
  0
TEXT
  8
0
  6
CONTINUOUS
 62
     2
 10
1062.482501379
 20
289.6
 30
0.0
 40
10.0
  1
（ＮＯ）
 50
0.0
 41
0.75
 51
0.0
  7
KANJI27
  0
TEXT
  8
0
  6
CONTINUOUS
 62
     2
 10
1128.482501379
 20
289.6
 30
0.0
 40
10.0
  1
（ＮＯ）
 50
0.0
 41
0.75
 51
0.0
  7
KANJI27
  0
TEXT
  8
0
  6
CONTINUOUS
 62
     2
 10
1062.482501379
 20
232.1
 30
0.0
 40
10.0
  1
（ＮＣ）
 50
0.0
 41
0.75
 51
0.0
  7
KANJI27
  0
TEXT
  8
0
  6
CONTINUOUS
 62
     2
 10
1128.482501379
 20
232.1
 30
0.0
 40
10.0
  1
（ＮＣ）
 50
0.0
 41
0.75
 51
0.0
  7
KANJI27
  0
TEXT
  8
0
  6
CONTINUOUS
 62
     2
 10
1046.357501379
 20
203.1
 30
0.0
 40
15.0
  1
外部ＬＳリミットＳＷ
 50
0.0
 41
0.9
 51
0.0
  7
KANJI28
  0
TEXT
  8
0
  6
CONTINUOUS
 62
     2
 10
1083.607501379
 20
184.1
 30
0.0
 40
15.0
  1
端子符号
 50
0.0
 41
0.9
 51
0.0
  7
KANJI28
  0
LINE
  8
0
  6
CONTINUOUS
 62
     2
 10
1188.107501379
 20
190.6
 30
0.0
 11
1188.107501379
 21
360.35
 31
0.0
  0
LINE
  8
0
  6
CONTINUOUS
 62
     2
 10
1188.107501379
 20
360.35
 30
0.0
 11
1034.857501379
 21
360.35
 31
0.0
  0
LINE
  8
0
  6
CONTINUOUS
 62
     2
 10
1034.857501379
 20
360.35
 30
0.0
 11
1034.857501379
 21
190.6
 31
0.0
  0
LINE
  8
0
  6
CONTINUOUS
 62
     2
 10
1143.107501379
 20
190.6
 30
0.0
 11
1188.107501379
 21
190.6
 31
0.0
  0
LINE
  8
0
  6
CONTINUOUS
 62
     2
 10
1034.857501379
 20
190.6
 30
0.0
 11
1073.857501379
 21
190.6
 31
0.0
  0
LINE
  8
2
  6
CONTINUOUS
 62
     2
 10
1081.0
 20
439.5
 30
0.0
 11
1081.0
 21
391.5
 31
0.0
  0
LINE
  8
2
  6
CONTINUOUS
 62
     2
 10
1081.0
 20
401.5
 30
0.0
 11
1068.925927171
 21
404.735238064
 31
0.0
  0
LINE
  8
2
  6
CONTINUOUS
 62
     2
 10
1081.0
 20
401.5
 30
0.0
 11
1068.925927171
 21
398.264761936
 31
0.0
  0
CIRCLE
  8
0
  6
CONTINUOUS
 62
     1
 10
746.0
 20
722.0
 30
0.0
 40
19.5
  0
LINE
  8
0
  6
CONTINUOUS
 62
     1
 10
726.0
 20
742.0
 30
0.0
 11
766.0
 21
742.0
 31
0.0
  0
LINE
  8
0
  6
CONTINUOUS
 62
     1
 10
766.0
 20
702.0
 30
0.0
 11
766.0
 21
742.0
 31
0.0
  0
LINE
  8
0
  6
CONTINUOUS
 62
     1
 10
726.0
 20
702.0
 30
0.0
 11
766.0
 21
702.0
 31
0.0
  0
LINE
  8
0
  6
CONTINUOUS
 62
     1
 10
726.0
 20
702.0
 30
0.0
 11
726.0
 21
742.0
 31
0.0
  0
LINE
  8
0
  6
LTYPE2
 62
     2
 10
746.0
 20
696.9
 30
0.0
 11
746.0
 21
746.8
 31
0.0
  0
LINE
  8
0
  6
CONTINUOUS
 62
     2
 10
752.1
 20
732.8
 30
0.0
 11
759.588041206
 21
742.808957933
 31
0.0
  0
LINE
  8
0
  6
CONTINUOUS
 62
     2
 10
752.1
 20
732.8
 30
0.0
 11
753.580354942
 21
745.212032438
 31
0.0
  0
LINE
  8
0
  6
CONTINUOUS
 62
     2
 10
752.1
 20
732.8
 30
0.0
 11
802.1
 21
857.8
 31
0.0
  0
LINE
  8
0
  6
CONTINUOUS
 62
     2
 10
802.1
 20
857.8
 30
0.0
 11
842.6
 21
857.8
 31
0.0
  0
CIRCLE
  8
0
  6
CONTINUOUS
 62
     1
 10
746.0
 20
722.0
 30
0.0
 40
19.5
  0
LINE
  8
0
  6
CONTINUOUS
 62
     1
 10
726.0
 20
742.0
 30
0.0
 11
766.0
 21
742.0
 31
0.0
  0
LINE
  8
0
  6
CONTINUOUS
 62
     1
 10
766.0
 20
702.0
 30
0.0
 11
766.0
 21
742.0
 31
0.0
  0
LINE
  8
0
  6
CONTINUOUS
 62
     1
 10
726.0
 20
702.0
 30
0.0
 11
766.0
 21
702.0
 31
0.0
  0
LINE
  8
0
  6
CONTINUOUS
 62
     1
 10
726.0
 20
702.0
 30
0.0
 11
726.0
 21
742.0
 31
0.0
  0
LINE
  8
0
  6
LTYPE2
 62
     2
 10
746.0
 20
696.9
 30
0.0
 11
746.0
 21
746.8
 31
0.0
  0
LINE
  8
0
  6
CONTINUOUS
 62
     2
 10
752.1
 20
732.8
 30
0.0
 11
759.588041206
 21
742.808957933
 31
0.0
  0
LINE
  8
0
  6
CONTINUOUS
 62
     2
 10
752.1
 20
732.8
 30
0.0
 11
753.580354942
 21
745.212032438
 31
0.0
  0
LINE
  8
0
  6
CONTINUOUS
 62
     2
 10
752.1
 20
732.8
 30
0.0
 11
802.1
 21
857.8
 31
0.0
  0
LINE
  8
0
  6
CONTINUOUS
 62
     1
 10
893.182501379
 20
709.0
 30
0.0
 11
893.182501379
 21
751.0
 31
0.0
  0
LINE
  8
0
  6
CONTINUOUS
 62
     1
 10
893.183009455
 20
722.0
 30
0.0
 11
893.183009455
 21
755.0
 31
0.0
  0
LINE
  8
0
  6
CONTINUOUS
 62
     1
 10
893.183009455
 20
722.0
 30
0.0
 11
893.183009455
 21
755.0
 31
0.0
  0
LINE
  8
0
  6
CONTINUOUS
 62
     1
 10
895.683009455
 20
759.0
 30
0.0
 11
905.683009455
 21
759.0
 31
0.0
  0
LINE
  8
0
  6
CONTINUOUS
 62
     1
 10
895.683009455
 20
757.0
 30
0.0
 11
895.683009455
 21
759.0
 31
0.0
  0
LINE
  8
0
  6
CONTINUOUS
 62
     1
 10
908.71890784
 20
757.0
 30
0.0
 11
893.182501379
 21
757.0
 31
0.0
  0
LINE
  8
0
  6
CONTINUOUS
 62
     1
 10
893.183472275
 20
722.0
 30
0.0
 11
893.183472275
 21
757.0
 31
0.0
  0
LINE
  8
0
  6
CONTINUOUS
 62
     1
 10
893.183472275
 20
757.0
 30
0.0
 11
908.183009455
 21
757.0
 31
0.0
  0
LINE
  8
0
  6
CONTINUOUS
 62
     1
 10
895.683517531
 20
684.0
 30
0.0
 11
905.683517531
 21
684.0
 31
0.0
  0
LINE
  8
0
  6
CONTINUOUS
 62
     1
 10
895.683517531
 20
686.0
 30
0.0
 11
895.683517531
 21
684.0
 31
0.0
  0
LINE
  8
0
  6
CONTINUOUS
 62
     1
 10
893.183009455
 20
686.0
 30
0.0
 11
908.987365108
 21
686.0
 31
0.0
  0
LINE
  8
0
  6
CONTINUOUS
 62
     1
 10
893.183009455
 20
722.0
 30
0.0
 11
893.183009455
 21
686.0
 31
0.0
  0
TEXT
  8
2
  6
CONTINUOUS
 62
     3
 10
687.5
 20
487.0
 30
0.0
 40
18.0
  1
Ｃ
 50
0.0
 41
0.9
 51
0.0
  7
KANJI20
  0
TEXT
  8
2
  6
CONTINUOUS
 62
     3
 10
740.0
 20
443.5
 30
0.0
 40
18.0
  1
ｍｉｎ．Ｌ
 50
0.0
 41
0.9
 51
0.0
  7
KANJI20
  0
TEXT
  8
0
  6
CONTINUOUS
 62
     2
 10
802.1
 20
862.8
 30
0.0
 40
18.0
  1
給脂口
 50
0.0
 41
0.9
 51
0.0
  7
KANJI20
  0
LINE
  8
0
  6
CONTINUOUS
 62
     1
 10
893.182501379
 20
709.0
 30
0.0
 11
893.182501379
 21
687.0
 31
0.0
  0
LINE
  8
0
  6
CONTINUOUS
 62
     2
 10
1088.5
 20
731.1
 30
0.0
 11
1125.0
 21
793.1
 31
0.0
  0
ARC
  8
0
  6
CONTINUOUS
 62
     1
 10
1098.0
 20
705.0
 30
0.0
 40
8.0
 50
270.0
 51
0.0
  0
LINE
  8
0
  6
CONTINUOUS
 62
     1
 10
1106.0
 20
705.0
 30
0.0
 11
1106.0
 21
739.0
 31
0.0
  0
ARC
  8
0
  6
CONTINUOUS
 62
     1
 10
1098.0
 20
739.0
 30
0.0
 40
8.0
 50
0.0
 51
90.0
  0
CIRCLE
  8
0
  6
CONTINUOUS
 62
     1
 10
1081.0
 20
722.0
 30
0.0
 40
12.5
  0
CIRCLE
  8
0
  6
CONTINUOUS
 62
     1
 10
1081.0
 20
722.0
 30
0.0
 40
22.0
  0
CIRCLE
  8
0
  6
CONTINUOUS
 62
     1
 10
1081.0
 20
737.5
 30
0.0
 40
3.0
  0
LINE
  8
0
  6
CONTINUOUS
 62
     1
 10
1076.8
 20
705.2
 30
0.0
 11
1078.8
 21
704.9
 31
0.0
  0
LINE
  8
0
  6
CONTINUOUS
 62
     1
 10
1079.3
 20
709.6
 30
0.0
 11
1079.064615385
 21
708.030769231
 31
0.0
  0
LINE
  8
0
  6
CONTINUOUS
 62
     1
 10
1079.064615385
 20
708.030769231
 30
0.0
 11
1076.8
 21
705.2
 31
0.0
  0
LINE
  8
0
  6
CONTINUOUS
 62
     1
 10
1081.0
 20
707.6
 30
0.0
 11
1078.8
 21
704.9
 31
0.0
  0
LINE
  8
0
  6
CONTINUOUS
 62
     1
 10
1085.2
 20
705.2
 30
0.0
 11
1083.2
 21
704.9
 31
0.0
  0
LINE
  8
0
  6
CONTINUOUS
 62
     1
 10
1082.7
 20
709.6
 30
0.0
 11
1082.935384615
 21
708.030769231
 31
0.0
  0
LINE
  8
0
  6
CONTINUOUS
 62
     1
 10
1082.935384615
 20
708.030769231
 30
0.0
 11
1085.2
 21
705.2
 31
0.0
  0
LINE
  8
0
  6
CONTINUOUS
 62
     1
 10
1081.0
 20
707.6
 30
0.0
 11
1083.2
 21
704.9
 31
0.0
  0
LINE
  8
0
  6
LTYPE1
 62
     2
 10
1046.0
 20
697.0
 30
0.0
 11
1046.0
 21
747.0
 31
0.0
  0
LINE
  8
0
  6
CONTINUOUS
 62
     2
 10
1105.5
 20
747.0
 30
0.0
 11
1169.1
 21
747.0
 31
0.0
  0
LINE
  8
0
  6
CONTINUOUS
 62
     2
 10
1105.5
 20
697.0
 30
0.0
 11
1169.1
 21
697.0
 31
0.0
  0
LINE
  8
0
  6
CONTINUOUS
 62
     2
 10
1088.5
 20
731.6
 30
0.0
 11
1097.413448812
 21
740.363585469
 31
0.0
  0
LINE
  8
0
  6
CONTINUOUS
 62
     2
 10
1088.5
 20
731.6
 30
0.0
 11
1091.837480372
 21
743.64621205
 31
0.0
  0
LINE
  8
0
  6
CONTINUOUS
 62
     1
 10
1031.0
 20
697.0
 30
0.0
 11
1098.0
 21
697.0
 31
0.0
  0
LINE
  8
0
  6
CONTINUOUS
 62
     1
 10
1031.0
 20
721.5
 30
0.0
 11
1031.0
 21
696.5
 31
0.0
  0
LINE
  8
0
  6
CONTINUOUS
 62
     1
 10
1031.0
 20
746.5
 30
0.0
 11
1098.0
 21
746.5
 31
0.0
  0
LINE
  8
0
  6
LTYPE1
 62
     2
 10
1046.0
 20
696.5
 30
0.0
 11
1046.0
 21
746.5
 31
0.0
  0
LINE
  8
0
  6
CONTINUOUS
 62
     1
 10
1031.0
 20
689.0
 30
0.0
 11
1031.0
 21
746.5
 31
0.0
  0
LINE
  8
0
  6
CONTINUOUS
 62
     1
 10
1031.0
 20
709.0
 30
0.0
 11
1031.0
 21
739.0
 31
0.0
  0
LINE
  8
0
  6
CONTINUOUS
 62
     1
 10
1015.0
 20
689.0
 30
0.0
 11
1015.0
 21
760.0
 31
0.0
  0
LINE
  8
0
  6
CONTINUOUS
 62
     1
 10
1031.0
 20
722.0
 30
0.0
 11
1031.0
 21
760.0
 31
0.0
  0
LINE
  8
0
  6
CONTINUOUS
 62
     1
 10
1015.0
 20
722.0
 30
0.0
 11
1015.0
 21
755.0
 31
0.0
  0
LINE
  8
2
  6
CONTINUOUS
 62
     2
 10
976.0
 20
482.0
 30
0.0
 11
963.925927171
 21
485.235238064
 31
0.0
  0
LINE
  8
2
  6
CONTINUOUS
 62
     2
 10
976.0
 20
482.0
 30
0.0
 11
963.925927171
 21
478.764761936
 31
0.0
  0
LINE
  8
2
  6
CONTINUOUS
 62
     2
 10
976.0
 20
682.0
 30
0.0
 11
976.0
 21
472.0
 31
0.0
  0
LINE
  8
2
  6
CONTINUOUS
 62
     2
 10
976.0
 20
505.5
 30
0.0
 11
976.0
 21
472.0
 31
0.0
  0
LINE
  8
2
  6
CONTINUOUS
 62
     2
 10
976.0
 20
482.0
 30
0.0
 11
988.074072829
 21
478.764761936
 31
0.0
  0
LINE
  8
2
  6
CONTINUOUS
 62
     2
 10
976.0
 20
482.0
 30
0.0
 11
988.074072829
 21
485.235238064
 31
0.0
  0
LINE
  8
2
  6
CONTINUOUS
 62
     2
 10
976.0
 20
482.0
 30
0.0
 11
1031.0
 21
482.0
 31
0.0
  0
LINE
  8
2
  6
CONTINUOUS
 62
     2
 10
1031.0
 20
482.0
 30
0.0
 11
1018.925927171
 21
485.235238064
 31
0.0
  0
LINE
  8
2
  6
CONTINUOUS
 62
     2
 10
1031.0
 20
482.0
 30
0.0
 11
1018.925927171
 21
478.764761936
 31
0.0
  0
LINE
  8
2
  6
CONTINUOUS
 62
     2
 10
1081.0
 20
697.5
 30
0.0
 11
1081.0
 21
472.0
 31
0.0
  0
LINE
  8
2
  6
CONTINUOUS
 62
     2
 10
1081.0
 20
482.0
 30
0.0
 11
1068.925927171
 21
485.235238064
 31
0.0
  0
LINE
  8
2
  6
CONTINUOUS
 62
     2
 10
1081.0
 20
482.0
 30
0.0
 11
1068.925927171
 21
478.764761936
 31
0.0
  0
LINE
  8
2
  6
CONTINUOUS
 62
     2
 10
1081.0
 20
482.0
 30
0.0
 11
1031.0
 21
482.0
 31
0.0
  0
LINE
  8
2
  6
CONTINUOUS
 62
     2
 10
1031.0
 20
482.0
 30
0.0
 11
1043.074072829
 21
478.764761936
 31
0.0
  0
LINE
  8
2
  6
CONTINUOUS
 62
     2
 10
1031.0
 20
482.0
 30
0.0
 11
1043.074072829
 21
485.235238064
 31
0.0
  0
LINE
  8
2
  6
CONTINUOUS
 62
     2
 10
1081.0
 20
438.5
 30
0.0
 11
1068.925927171
 21
441.735238064
 31
0.0
  0
LINE
  8
2
  6
CONTINUOUS
 62
     2
 10
1081.0
 20
438.5
 30
0.0
 11
1068.925927171
 21
435.264761936
 31
0.0
  0
LINE
  8
2
  6
CONTINUOUS
 62
     2
 10
1081.0
 20
485.5
 30
0.0
 11
1081.0
 21
428.5
 31
0.0
  0
LINE
  8
0
  6
CONTINUOUS
 62
     1
 10
914.845218677
 20
777.0
 30
0.0
 11
914.845218677
 21
722.0
 31
0.0
  0
LINE
  8
0
  6
CONTINUOUS
 62
     1
 10
920.399111365
 20
722.0
 30
0.0
 11
920.399111365
 21
762.0
 31
0.0
  0
LINE
  8
0
  6
CONTINUOUS
 62
     1
 10
925.953004728
 20
777.0
 30
0.0
 11
925.953004728
 21
722.0
 31
0.0
  0
LINE
  8
0
  6
CONTINUOUS
 62
     1
 10
931.50689659
 20
762.0
 30
0.0
 11
931.50689659
 21
722.0
 31
0.0
  0
LINE
  8
0
  6
CONTINUOUS
 62
     1
 10
1000.0
 20
755.0
 30
0.0
 11
994.303716605
 21
776.258819045
 31
0.0
  0
LINE
  8
0
  6
CONTINUOUS
 62
     1
 10
1012.5
 20
757.0
 30
0.0
 11
1002.5
 21
757.0
 31
0.0
  0
LINE
  8
0
  6
CONTINUOUS
 62
     1
 10
1015.0
 20
755.0
 30
0.0
 11
1000.0
 21
755.0
 31
0.0
  0
LINE
  8
0
  6
CONTINUOUS
 62
     1
 10
1002.5
 20
755.0
 30
0.0
 11
1002.5
 21
757.0
 31
0.0
  0
LINE
  8
0
  6
CONTINUOUS
 62
     1
 10
1000.0
 20
722.0
 30
0.0
 11
1000.0
 21
755.0
 31
0.0
  0
LINE
  8
0
  6
CONTINUOUS
 62
     1
 10
976.676112865
 20
762.0
 30
0.0
 11
976.676112865
 21
722.0
 31
0.0
  0
LINE
  8
0
  6
CONTINUOUS
 62
     1
 10
982.230004728
 20
777.0
 30
0.0
 11
982.230004728
 21
722.0
 31
0.0
  0
LINE
  8
0
  6
CONTINUOUS
 62
     1
 10
993.337790779
 20
777.0
 30
0.0
 11
993.337790779
 21
722.0
 31
0.0
  0
LINE
  8
0
  6
CONTINUOUS
 62
     1
 10
987.78389809
 20
722.0
 30
0.0
 11
987.78389809
 21
762.0
 31
0.0
  0
LINE
  8
0
  6
CONTINUOUS
 62
     1
 10
905.683009455
 20
757.0
 30
0.0
 11
905.683009455
 21
759.0
 31
0.0
  0
LINE
  8
0
  6
CONTINUOUS
 62
     1
 10
908.71890784
 20
757.0
 30
0.0
 11
913.87929285
 21
776.258819045
 31
0.0
  0
LINE
  8
0
  6
CONTINUOUS
 62
     1
 10
908.71890784
 20
757.0
 30
0.0
 11
908.71890784
 21
722.0
 31
0.0
  0
ARC
  8
0
  6
CONTINUOUS
 62
     1
 10
914.845726752
 20
668.0
 30
0.0
 40
1.0
 50
195.0
 51
270.0
  0
ARC
  8
0
  6
CONTINUOUS
 62
     1
 10
914.845727578
 20
668.0
 30
0.0
 40
1.0
 50
270.0
 51
345.0
  0
LINE
  8
0
  6
CONTINUOUS
 62
     1
 10
919.433693614
 20
681.258819045
 30
0.0
 11
915.811653404
 21
667.741180955
 31
0.0
  0
ARC
  8
0
  6
CONTINUOUS
 62
     1
 10
920.399619441
 20
681.0
 30
0.0
 40
1.0
 50
90.0
 51
165.0
  0
ARC
  8
0
  6
CONTINUOUS
 62
     1
 10
920.399620115
 20
681.0
 30
0.0
 40
1.0
 50
15.0
 51
90.0
  0
LINE
  8
0
  6
CONTINUOUS
 62
     1
 10
921.365545941
 20
681.258819045
 30
0.0
 11
924.987586151
 21
667.741180955
 31
0.0
  0
ARC
  8
0
  6
CONTINUOUS
 62
     1
 10
925.953511977
 20
668.0
 30
0.0
 40
1.0
 50
195.0
 51
270.0
  0
LINE
  8
0
  6
CONTINUOUS
 62
     1
 10
930.541478839
 20
681.258819045
 30
0.0
 11
926.91943863
 21
667.741180955
 31
0.0
  0
ARC
  8
0
  6
CONTINUOUS
 62
     1
 10
931.507404666
 20
681.0
 30
0.0
 40
1.0
 50
90.0
 51
165.0
  0
ARC
  8
0
  6
CONTINUOUS
 62
     1
 10
925.953513629
 20
668.0
 30
0.0
 40
1.0
 50
270.0
 51
345.0
  0
LINE
  8
0
  6
CONTINUOUS
 62
     1
 10
905.683517531
 20
686.0
 30
0.0
 11
905.683517531
 21
684.0
 31
0.0
  0
LINE
  8
0
  6
CONTINUOUS
 62
     1
 10
908.987365108
 20
686.0
 30
0.0
 11
913.879800926
 21
667.741180955
 31
0.0
  0
ARC
  8
0
  6
CONTINUOUS
 62
     1
 10
993.337790779
 20
668.0
 30
0.0
 40
1.0
 50
270.0
 51
345.0
  0
ARC
  8
0
  6
CONTINUOUS
 62
     1
 10
993.337789953
 20
668.0
 30
0.0
 40
1.0
 50
195.0
 51
270.0
  0
LINE
  8
0
  6
CONTINUOUS
 62
     1
 10
988.749823916
 20
681.258819045
 30
0.0
 11
992.371864126
 21
667.741180955
 31
0.0
  0
ARC
  8
0
  6
CONTINUOUS
 62
     1
 10
987.78389809
 20
681.0
 30
0.0
 40
1.0
 50
15.0
 51
90.0
  0
ARC
  8
0
  6
CONTINUOUS
 62
     1
 10
987.783897416
 20
681.0
 30
0.0
 40
1.0
 50
90.0
 51
165.0
  0
LINE
  8
0
  6
CONTINUOUS
 62
     1
 10
986.81797159
 20
681.258819045
 30
0.0
 11
983.19593138
 21
667.741180955
 31
0.0
  0
ARC
  8
0
  6
CONTINUOUS
 62
     1
 10
982.230005553
 20
668.0
 30
0.0
 40
1.0
 50
270.0
 51
345.0
  0
ARC
  8
0
  6
CONTINUOUS
 62
     1
 10
982.230003902
 20
668.0
 30
0.0
 40
1.0
 50
195.0
 51
270.0
  0
LINE
  8
0
  6
CONTINUOUS
 62
     1
 10
977.642038691
 20
681.258819045
 30
0.0
 11
981.264078901
 21
667.741180955
 31
0.0
  0
LINE
  8
0
  6
CONTINUOUS
 62
     1
 10
1000.0
 20
689.0
 30
0.0
 11
994.303716605
 21
667.741180955
 31
0.0
  0
LINE
  8
0
  6
CONTINUOUS
 62
     1
 10
1012.5
 20
687.0
 30
0.0
 11
1002.5
 21
687.0
 31
0.0
  0
LINE
  8
0
  6
CONTINUOUS
 62
     1
 10
1002.5
 20
689.0
 30
0.0
 11
1002.5
 21
687.0
 31
0.0
  0
LINE
  8
0
  6
CONTINUOUS
 62
     1
 10
999.982501379
 20
689.1
 30
0.0
 11
999.982501379
 21
696.9
 31
0.0
  0
ARC
  8
0
  6
CONTINUOUS
 62
     1
 10
977.176112865
 20
681.0
 30
0.0
 40
1.0
 50
15.0
 51
90.0
  0
LINE
  8
0
  6
LTYPE5
 62
     2
 10
977.176112865
 20
682.0
 30
0.0
 11
932.676112865
 21
682.0
 31
0.0
  0
LINE
  8
0
  6
LTYPE5
 62
     2
 10
982.230005553
 20
667.0
 30
0.0
 11
928.676112865
 21
667.0
 31
0.0
  0
LINE
  8
0
  6
CONTINUOUS
 62
     1
 10
1015.0
 20
689.0
 30
0.0
 11
1000.0
 21
689.0
 31
0.0
  0
LINE
  8
0
  6
CONTINUOUS
 62
     1
 10
941.0
 20
687.0
 30
0.0
 11
941.0
 21
722.0
 31
0.0
  0
LINE
  8
0
  6
CONTINUOUS
 62
     1
 10
1015.0
 20
697.0
 30
0.0
 11
976.0
 21
697.0
 31
0.0
  0
LINE
  8
0
  6
CONTINUOUS
 62
     1
 10
976.0
 20
687.0
 30
0.0
 11
976.0
 21
722.0
 31
0.0
  0
LINE
  8
0
  6
LTYPE3
 62
     2
 10
1081.0
 20
697.0
 30
0.0
 11
1081.0
 21
772.0
 31
0.0
  0
LINE
  8
0
  6
CONTINUOUS
 62
     2
 10
1161.6
 20
747.0
 30
0.0
 11
1158.364761936
 21
734.925927171
 31
0.0
  0
LINE
  8
0
  6
CONTINUOUS
 62
     2
 10
1161.6
 20
747.0
 30
0.0
 11
1164.835238064
 21
734.925927171
 31
0.0
  0
LINE
  8
0
  6
CONTINUOUS
 62
     2
 10
1161.6
 20
747.0
 30
0.0
 11
1161.6
 21
697.0
 31
0.0
  0
LINE
  8
0
  6
CONTINUOUS
 62
     2
 10
1161.6
 20
697.0
 30
0.0
 11
1164.835238064
 21
709.074072829
 31
0.0
  0
LINE
  8
0
  6
CONTINUOUS
 62
     2
 10
1161.6
 20
697.0
 30
0.0
 11
1158.364761936
 21
709.074072829
 31
0.0
  0
TEXT
  8
2
  6
CONTINUOUS
 62
     3
 10
1039.25
 20
487.0
 30
0.0
 40
18.0
  1
５０
 50
0.0
 41
0.9
 51
0.0
  7
KANJI20
  0
TEXT
  8
2
  6
CONTINUOUS
 62
     3
 10
1003.75
 20
486.5
 30
0.0
 40
18.0
  1
Ｐ
 50
0.0
 41
0.9
 51
0.0
  7
KANJI20
  0
TEXT
  8
0
  6
CONTINUOUS
 62
     2
 10
1156.6
 20
707.75
 30
0.0
 40
18.0
  1
５０
 50
90.0
 41
0.9
 51
0.0
  7
KANJI20
  0
TEXT
  8
0
  6
CONTINUOUS
 62
     2
 10
980.5
 20
511.5
 30
0.0
 40
18.0
  1
ｍｉｎ
 50
0.0
 41
0.9
 51
0.0
  7
KANJI20
  0
LINE
  8
0
  6
CONTINUOUS
 62
     1
 10
1015.0
 20
760.0
 30
0.0
 11
1031.0
 21
760.0
 31
0.0
  0
ARC
  8
0
  6
CONTINUOUS
 62
     1
 10
914.845218677
 20
776.0
 30
0.0
 40
1.0
 50
90.0
 51
165.0
  0
ARC
  8
0
  6
CONTINUOUS
 62
     1
 10
914.845219502
 20
776.0
 30
0.0
 40
1.0
 50
15.0
 51
90.0
  0
LINE
  8
0
  6
CONTINUOUS
 62
     1
 10
919.433185539
 20
762.741180955
 30
0.0
 11
915.811145329
 21
776.258819045
 31
0.0
  0
ARC
  8
0
  6
CONTINUOUS
 62
     1
 10
920.399111365
 20
763.0
 30
0.0
 40
1.0
 50
195.0
 51
270.0
  0
ARC
  8
0
  6
CONTINUOUS
 62
     1
 10
920.399112039
 20
763.0
 30
0.0
 40
1.0
 50
270.0
 51
345.0
  0
LINE
  8
0
  6
CONTINUOUS
 62
     1
 10
921.365037865
 20
762.741180955
 30
0.0
 11
924.987078075
 21
776.258819045
 31
0.0
  0
ARC
  8
0
  6
CONTINUOUS
 62
     1
 10
925.953003902
 20
776.0
 30
0.0
 40
1.0
 50
90.0
 51
165.0
  0
LINE
  8
0
  6
CONTINUOUS
 62
     1
 10
930.540970764
 20
762.741180955
 30
0.0
 11
926.918930554
 21
776.258819045
 31
0.0
  0
ARC
  8
0
  6
CONTINUOUS
 62
     1
 10
931.50689659
 20
763.0
 30
0.0
 40
1.0
 50
195.0
 51
270.0
  0
ARC
  8
0
  6
CONTINUOUS
 62
     1
 10
925.953005553
 20
776.0
 30
0.0
 40
1.0
 50
15.0
 51
90.0
  0
LINE
  8
0
  6
LTYPE5
 62
     2
 10
976.676112865
 20
762.0
 30
0.0
 11
945.730004728
 21
762.0
 31
0.0
  0
LINE
  8
0
  6
LTYPE5
 62
     2
 10
982.230005553
 20
777.0
 30
0.0
 11
945.730004728
 21
777.0
 31
0.0
  0
ARC
  8
0
  6
CONTINUOUS
 62
     1
 10
993.337790779
 20
776.0
 30
0.0
 40
1.0
 50
15.0
 51
90.0
  0
ARC
  8
0
  6
CONTINUOUS
 62
     1
 10
993.337789953
 20
776.0
 30
0.0
 40
1.0
 50
90.0
 51
165.0
  0
LINE
  8
0
  6
CONTINUOUS
 62
     1
 10
988.749823916
 20
762.741180955
 30
0.0
 11
992.371864126
 21
776.258819045
 31
0.0
  0
ARC
  8
0
  6
CONTINUOUS
 62
     1
 10
987.78389809
 20
763.0
 30
0.0
 40
1.0
 50
270.0
 51
345.0
  0
ARC
  8
0
  6
CONTINUOUS
 62
     1
 10
987.783897416
 20
763.0
 30
0.0
 40
1.0
 50
195.0
 51
270.0
  0
LINE
  8
0
  6
CONTINUOUS
 62
     1
 10
986.81797159
 20
762.741180955
 30
0.0
 11
983.19593138
 21
776.258819045
 31
0.0
  0
ARC
  8
0
  6
CONTINUOUS
 62
     1
 10
982.230005553
 20
776.0
 30
0.0
 40
1.0
 50
15.0
 51
90.0
  0
ARC
  8
0
  6
CONTINUOUS
 62
     1
 10
982.230003902
 20
776.0
 30
0.0
 40
1.0
 50
90.0
 51
165.0
  0
ARC
  8
0
  6
CONTINUOUS
 62
     1
 10
976.676112865
 20
763.0
 30
0.0
 40
1.0
 50
270.0
 51
345.0
  0
LINE
  8
0
  6
CONTINUOUS
 62
     1
 10
977.642038691
 20
762.741180955
 30
0.0
 11
981.264078901
 21
776.258819045
 31
0.0
  0
LINE
  8
0
  6
LTYPE5
 62
     2
 10
931.50689659
 20
762.0
 30
0.0
 11
945.730004728
 21
762.0
 31
0.0
  0
LINE
  8
0
  6
LTYPE5
 62
     2
 10
925.953004728
 20
777.0
 30
0.0
 11
945.730004728
 21
777.0
 31
0.0
  0
LINE
  8
0
  6
CONTINUOUS
 62
     2
 10
1125.0
 20
793.1
 30
0.0
 11
1213.5
 21
793.1
 31
0.0
  0
LINE
  8
0
  6
CONTINUOUS
 62
     2
 10
1125.0
 20
793.1
 30
0.0
 11
1213.5
 21
793.1
 31
0.0
  0
TEXT
  8
0
  6
CONTINUOUS
 62
     2
 10
1125.0
 20
798.1
 30
0.0
 40
18.0
  1
φ２５Ｈ１０
 50
0.0
 41
0.9
 51
0.0
  7
KANJI20
  0
TEXT
  8
0
  6
CONTINUOUS
 62
     2
 10
1125.0
 20
798.1
 30
0.0
 40
18.0
  1
φ２５Ｈ１０
 50
0.0
 41
0.9
 51
0.0
  7
KANJI20
  0
TEXT
  8
0
  6
CONTINUOUS
 62
     2
 10
1169.5
 20
773.6
 30
0.0
 40
18.0
  1
ｄ９
 50
0.0
 41
0.9
 51
0.0
  7
KANJI20
  0
TEXT
  8
0
  6
CONTINUOUS
 62
     2
 10
638.979258263
 20
1090.988190451
 30
0.0
 40
20.0
  1
ブレーキ解放装置はありません。
 50
0.0
 41
0.925
 51
0.0
  7
KANJI29
  0
TEXT
  8
0
  6
CONTINUOUS
 62
     2
 10
639.979258263
 20
1065.988190451
 30
0.0
 40
20.0
  1
そのまま手動操作をして下さい．
 50
0.0
 41
0.925
 51
0.0
  7
KANJI29
  0
LINE
  8
0
  6
CONTINUOUS
 62
     1
 10
908.71890784
 20
757.0
 30
0.0
 11
889.182501379
 21
757.0
 31
0.0
  0
LINE
  8
0
  6
CONTINUOUS
 62
     1
 10
881.182501379
 20
757.0
 30
0.0
 11
829.182501379
 21
757.0
 31
0.0
  0
LINE
  8
0
  6
CONTINUOUS
 62
     1
 10
821.182501379
 20
757.0
 30
0.0
 11
581.0
 21
757.0
 31
0.0
  0
LINE
  8
0
  6
CONTINUOUS
 62
     1
 10
818.182501379
 20
687.0
 30
0.0
 11
581.0
 21
687.0
 31
0.0
  0
LINE
  8
0
  6
CONTINUOUS
 62
     1
 10
878.182501379
 20
687.0
 30
0.0
 11
832.182501379
 21
687.0
 31
0.0
  0
LINE
  8
0
  6
CONTINUOUS
 62
     1
 10
976.0
 20
687.0
 30
0.0
 11
892.182501379
 21
687.0
 31
0.0
  0
LINE
  8
0
  6
CONTINUOUS
 62
     2
 10
1171.333333
 20
595.333317
 30
0.0
 11
1159.259260171
 21
598.568555064
 31
0.0
  0
LINE
  8
0
  6
CONTINUOUS
 62
     2
 10
1171.333333
 20
595.333317
 30
0.0
 11
1159.259260171
 21
592.098078936
 31
0.0
  0
LINE
  8
0
  6
CONTINUOUS
 62
     2
 10
1171.333333
 20
595.333317
 30
0.0
 11
1130.333333
 21
595.333317
 31
0.0
  0
TEXT
  8
0
  6
CONTINUOUS
 62
     3
 10
1137.333333
 20
605.333317
 30
0.0
 40
20.0
  1
前進
 50
0.0
 41
0.925
 51
0.0
  7
KANJI29
  0
LINE
  8
0
  6
CONTINUOUS
 62
     1
 10
839.182501379
 20
242.6
 30
0.0
 11
871.182501379
 21
242.6
 31
0.0
  0
LINE
  8
0
  6
CONTINUOUS
 62
     1
 10
839.182501379
 20
210.6
 30
0.0
 11
839.182501379
 21
242.6
 31
0.0
  0
ARC
  8
0
  6
CONTINUOUS
 62
     1
 10
800.182501379
 20
299.1
 30
0.0
 40
10.0
 50
90.0
 51
180.0
  0
LINE
  8
0
  6
CONTINUOUS
 62
     1
 10
800.182501379
 20
309.1
 30
0.0
 11
910.182501379
 21
309.1
 31
0.0
  0
LINE
  8
0
  6
LTYPE2
 62
     2
 10
921.443522596
 20
284.6
 30
0.0
 11
830.182501379
 21
284.6
 31
0.0
  0
LINE
  8
0
  6
CONTINUOUS
 62
     1
 10
871.182501379
 20
210.6
 30
0.0
 11
839.182501379
 21
210.6
 31
0.0
  0
LINE
  8
0
  6
LTYPE2
 62
     2
 10
807.882501379
 20
153.5
 30
0.0
 11
817.842501379
 21
153.5
 31
0.0
  0
LINE
  8
0
  6
LTYPE2
 62
     2
 10
812.882501379
 20
149.6
 30
0.0
 11
812.882501379
 21
157.48
 31
0.0
  0
LINE
  8
0
  6
LTYPE2
 62
     2
 10
807.882501379
 20
183.7
 30
0.0
 11
817.682501379
 21
183.7
 31
0.0
  0
LINE
  8
0
  6
LTYPE2
 62
     2
 10
812.882501379
 20
177.58
 30
0.0
 11
812.882501379
 21
187.6
 31
0.0
  0
LINE
  8
0
  6
LTYPE2
 62
     2
 10
809.182501379
 20
206.6
 30
0.0
 11
786.182501379
 21
206.6
 31
0.0
  0
ARC
  8
0
  6
CONTINUOUS
 62
     1
 10
809.882501379
 20
150.6
 30
0.0
 40
2.0
 50
180.0
 51
270.0
  0
LINE
  8
0
  6
CONTINUOUS
 62
     1
 10
784.482501379
 20
155.9
 30
0.0
 11
807.882501379
 21
155.9
 31
0.0
  0
ARC
  8
0
  6
CONTINUOUS
 62
     1
 10
784.482501379
 20
157.9
 30
0.0
 40
2.0
 50
180.0
 51
270.0
  0
LINE
  8
0
  6
CONTINUOUS
 62
     1
 10
782.482501379
 20
157.9
 30
0.0
 11
782.482501379
 21
179.3
 31
0.0
  0
ARC
  8
0
  6
CONTINUOUS
 62
     1
 10
784.482501379
 20
179.3
 30
0.0
 40
2.0
 50
90.0
 51
180.0
  0
LINE
  8
0
  6
CONTINUOUS
 62
     1
 10
807.882501379
 20
150.6
 30
0.0
 11
807.882501379
 21
186.6
 31
0.0
  0
ARC
  8
0
  6
CONTINUOUS
 62
     1
 10
809.882501379
 20
186.6
 30
0.0
 40
2.0
 50
90.0
 51
180.0
  0
LINE
  8
0
  6
CONTINUOUS
 62
     1
 10
809.882501379
 20
188.6
 30
0.0
 11
874.582501379
 21
188.6
 31
0.0
  0
LINE
  8
0
  6
CONTINUOUS
 62
     1
 10
809.882501379
 20
148.6
 30
0.0
 11
874.582501379
 21
148.6
 31
0.0
  0
LINE
  8
0
  6
CONTINUOUS
 62
     1
 10
790.182501379
 20
155.9
 30
0.0
 11
790.182501379
 21
154.1
 31
0.0
  0
LINE
  8
0
  6
CONTINUOUS
 62
     1
 10
910.182501379
 20
144.1
 30
0.0
 11
800.182501379
 21
144.1
 31
0.0
  0
ARC
  8
0
  6
CONTINUOUS
 62
     1
 10
800.182501379
 20
154.1
 30
0.0
 40
10.0
 50
180.0
 51
270.0
  0
LINE
  8
0
  6
CONTINUOUS
 62
     1
 10
792.190817392
 20
168.915789474
 30
0.0
 11
794.188045388
 21
206.810526316
 31
0.0
  0
LINE
  8
0
  6
CONTINUOUS
 62
     1
 10
804.174185367
 20
168.915789474
 30
0.0
 11
802.176957371
 21
206.810526316
 31
0.0
  0
ARC
  8
0
  6
CONTINUOUS
 62
     1
 10
798.182501379
 20
206.6
 30
0.0
 40
4.0
 50
356.983042101
 51
183.016952287
  0
ARC
  8
0
  6
CONTINUOUS
 62
     1
 10
798.182501379
 20
206.6
 30
0.0
 40
8.75
 50
300.219855722
 51
239.780144278
  0
ARC
  8
0
  6
CONTINUOUS
 62
     1
 10
798.182501379
 20
168.6
 30
0.0
 40
6.0
 50
176.983045121
 51
3.016954879
  0
LINE
  8
0
  6
CONTINUOUS
 62
     1
 10
803.521480162
 20
181.3
 30
0.0
 11
807.882501379
 21
181.3
 31
0.0
  0
LINE
  8
0
  6
CONTINUOUS
 62
     1
 10
784.482501379
 20
181.3
 30
0.0
 11
792.843522596
 21
181.3
 31
0.0
  0
LINE
  8
0
  6
LTYPE2
 62
     2
 10
798.182501379
 20
159.5
 30
0.0
 11
798.182501379
 21
217.0
 31
0.0
  0
LINE
  8
0
  6
LTYPE2
 62
     2
 10
788.921480162
 20
168.6
 30
0.0
 11
880.182501379
 21
168.6
 31
0.0
  0
LINE
  8
0
  6
CONTINUOUS
 62
     1
 10
790.182501379
 20
203.05563828
 30
0.0
 11
790.182501379
 21
181.25
 31
0.0
  0
LINE
  8
0
  6
CONTINUOUS
 62
     1
 10
790.182501379
 20
218.6
 30
0.0
 11
790.182501379
 21
210.14436172
 31
0.0
  0
LINE
  8
0
  6
CONTINUOUS
 62
     1
 10
773.803444363
 20
218.6
 30
0.0
 11
839.182501379
 21
218.6
 31
0.0
  0
LINE
  8
0
  6
CONTINUOUS
 62
     1
 10
839.182501379
 20
234.6
 30
0.0
 11
773.873079342
 21
234.6
 31
0.0
  0
ARC
  8
0
  6
CONTINUOUS
 62
     1
 10
779.427969957
 20
230.6
 30
0.0
 40
6.845203412
 50
144.242860688
 51
215.757139312
  0
ARC
  8
0
  6
CONTINUOUS
 62
     1
 10
768.318188727
 20
230.6
 30
0.0
 40
6.845203412
 50
324.242860688
 51
35.757139312
  0
ARC
  8
0
  6
CONTINUOUS
 62
     1
 10
768.318188727
 20
222.6
 30
0.0
 40
6.845203412
 50
324.242860688
 51
35.757139312
  0
LINE
  8
0
  6
LTYPE4
 62
     2
 10
1003.682501379
 20
226.6
 30
0.0
 11
768.838261852
 21
226.6
 31
0.0
  0
LINE
  8
7
  6
CONTINUOUS
 62
     2
 10
833.782501379
 20
284.6
 30
0.0
 11
825.47402349
 21
279.035002681
 31
0.0
  0
LINE
  8
7
  6
CONTINUOUS
 62
     2
 10
833.782501379
 20
284.6
 30
0.0
 11
829.36964712
 21
275.626332005
 31
0.0
  0
LINE
  8
7
  6
CONTINUOUS
 62
     2
 10
833.782501379
 20
284.6
 30
0.0
 11
822.582501379
 21
271.8
 31
0.0
  0
LINE
  8
7
  6
CONTINUOUS
 62
     2
 10
822.582501379
 20
271.8
 30
0.0
 11
763.782501379
 21
271.8
 31
0.0
  0
TEXT
  8
7
  6
CONTINUOUS
 62
     2
 10
763.782501379
 20
275.8
 30
1.2
 40
12.0
  1
ＰＦ１／２
 50
0.0
 41
0.9
 51
0.0
  7
KANJI30
  0
LINE
  8
0
  6
CONTINUOUS
 62
     1
 10
790.182501379
 20
288.8
 30
0.0
 11
790.182501379
 21
299.1
 31
0.0
  0
LINE
  8
0
  6
CONTINUOUS
 62
     1
 10
790.182501379
 20
234.6
 30
0.0
 11
790.182501379
 21
268.8
 31
0.0
  0
LINE
  8
0
  6
LTYPE2
 62
     2
 10
845.222501379
 20
299.7
 30
0.0
 11
833.782501379
 21
299.7
 31
0.0
  0
LINE
  8
0
  6
LTYPE2
 62
     2
 10
838.782501379
 20
303.6
 30
0.0
 11
838.782501379
 21
294.62
 31
0.0
  0
LINE
  8
0
  6
CONTINUOUS
 62
     1
 10
900.482501379
 20
304.6
 30
0.0
 11
835.782501379
 21
304.6
 31
0.0
  0
LINE
  8
0
  6
CONTINUOUS
 62
     1
 10
833.782501379
 20
302.6
 30
0.0
 11
833.782501379
 21
266.6
 31
0.0
  0
ARC
  8
0
  6
CONTINUOUS
 62
     1
 10
835.782501379
 20
302.6
 30
0.0
 40
2.0
 50
90.0
 51
180.0
  0
LINE
  8
0
  6
LTYPE2
 62
     2
 10
844.682501379
 20
269.5
 30
0.0
 11
833.782501379
 21
269.5
 31
0.0
  0
LINE
  8
0
  6
LTYPE2
 62
     2
 10
838.782501379
 20
275.52
 30
0.0
 11
838.782501379
 21
265.6
 31
0.0
  0
LINE
  8
0
  6
CONTINUOUS
 62
     1
 10
900.482501379
 20
264.6
 30
0.0
 11
835.782501379
 21
264.6
 31
0.0
  0
ARC
  8
0
  6
CONTINUOUS
 62
     1
 10
835.782501379
 20
266.6
 30
0.0
 40
2.0
 50
180.0
 51
270.0
  0
LINE
  8
0
  6
CONTINUOUS
 62
     2
 10
794.182512169
 20
309.1
 30
0.0
 11
717.0
 21
309.1
 31
0.0
  0
LINE
  8
0
  6
CONTINUOUS
 62
     2
 10
723.0
 20
309.1
 30
0.0
 11
719.894171459
 21
297.508890085
 31
0.0
  0
LINE
  8
0
  6
CONTINUOUS
 62
     2
 10
723.0
 20
309.1
 30
0.0
 11
726.105828541
 21
297.508890085
 31
0.0
  0
LINE
  8
0
  6
CONTINUOUS
 62
     2
 10
723.0
 20
309.1
 30
0.0
 11
723.0
 21
144.1
 31
0.0
  0
LINE
  8
0
  6
CONTINUOUS
 62
     2
 10
723.0
 20
144.1
 30
0.0
 11
726.105828541
 21
155.691109915
 31
0.0
  0
LINE
  8
0
  6
CONTINUOUS
 62
     2
 10
723.0
 20
144.1
 30
0.0
 11
719.894171459
 21
155.691109915
 31
0.0
  0
LINE
  8
0
  6
CONTINUOUS
 62
     2
 10
794.182512169
 20
144.1
 30
0.0
 11
717.0
 21
144.1
 31
0.0
  0
TEXT
  8
0
  6
CONTINUOUS
 62
     3
 10
720.0
 20
202.3
 30
0.0
 40
18.0
  1
１６５
 50
90.0
 41
0.9
 51
0.0
  7
KANJI20
  0
LINE
  8
0
  6
CONTINUOUS
 62
     2
 10
790.182501379
 20
149.9
 30
0.0
 11
790.182501379
 21
96.1
 31
0.0
  0
LINE
  8
0
  6
CONTINUOUS
 62
     2
 10
790.182501379
 20
102.1
 30
0.0
 11
801.773611295
 21
98.994171459
 31
0.0
  0
LINE
  8
0
  6
CONTINUOUS
 62
     2
 10
790.182501379
 20
102.1
 30
0.0
 11
801.773611295
 21
105.205828541
 31
0.0
  0
LINE
  8
0
  6
CONTINUOUS
 62
     2
 10
790.182501379
 20
102.1
 30
0.0
 11
920.182501379
 21
102.1
 31
0.0
  0
TEXT
  8
0
  6
CONTINUOUS
 62
     3
 10
830.882501379
 20
105.1
 30
0.0
 40
18.0
  1
１３０
 50
0.0
 41
0.9
 51
0.0
  7
KANJI20
  0
LINE
  8
0
  6
LTYPE2
 62
     2
 10
865.682501379
 20
183.7
 30
0.0
 11
876.582501379
 21
183.7
 31
0.0
  0
LINE
  8
0
  6
LTYPE2
 62
     2
 10
871.582501379
 20
177.68
 30
0.0
 11
871.582501379
 21
187.6
 31
0.0
  0
LINE
  8
0
  6
LTYPE2
 62
     2
 10
865.142501379
 20
153.5
 30
0.0
 11
876.582501379
 21
153.5
 31
0.0
  0
LINE
  8
0
  6
LTYPE2
 62
     2
 10
871.582501379
 20
149.6
 30
0.0
 11
871.582501379
 21
158.58
 31
0.0
  0
ARC
  8
0
  6
CONTINUOUS
 62
     1
 10
874.582501379
 20
186.6
 30
0.0
 40
2.0
 50
0.0
 51
90.0
  0
LINE
  8
0
  6
CONTINUOUS
 62
     1
 10
876.582501379
 20
150.6
 30
0.0
 11
876.582501379
 21
186.6
 31
0.0
  0
ARC
  8
0
  6
CONTINUOUS
 62
     1
 10
874.582501379
 20
150.6
 30
0.0
 40
2.0
 50
270.0
 51
0.0
  0
LINE
  8
0
  6
CONTINUOUS
 62
     1
 10
871.182501379
 20
210.6
 30
0.0
 11
871.182501379
 21
242.6
 31
0.0
  0
LINE
  8
7
  6
CONTINUOUS
 62
     2
 10
876.582501379
 20
168.6
 30
0.0
 11
884.949808964
 21
174.076144975
 31
0.0
  0
LINE
  8
7
  6
CONTINUOUS
 62
     2
 10
876.582501379
 20
168.6
 30
0.0
 11
881.090729822
 21
177.526134455
 31
0.0
  0
LINE
  8
7
  6
CONTINUOUS
 62
     2
 10
876.582501379
 20
168.6
 30
0.0
 11
889.232501379
 21
182.75
 31
0.0
  0
LINE
  8
0
  6
CONTINUOUS
 62
     1
 10
920.182501379
 20
297.3
 30
0.0
 11
920.182501379
 21
299.1
 31
0.0
  0
ARC
  8
0
  6
CONTINUOUS
 62
     1
 10
910.182501379
 20
299.1
 30
0.0
 40
10.0
 50
0.0
 51
90.0
  0
ARC
  8
0
  6
CONTINUOUS
 62
     1
 10
910.182501379
 20
154.1
 30
0.0
 40
10.0
 50
270.0
 51
0.0
  0
LINE
  8
0
  6
CONTINUOUS
 62
     1
 10
920.182501379
 20
250.14436172
 30
0.0
 11
920.182501379
 21
271.95
 31
0.0
  0
LINE
  8
0
  6
CONTINUOUS
 62
     1
 10
920.182501379
 20
234.6
 30
0.0
 11
920.182501379
 21
243.05563828
 31
0.0
  0
ARC
  8
0
  6
CONTINUOUS
 62
     1
 10
993.437032801
 20
230.6
 30
0.0
 40
6.845203412
 50
324.242860688
 51
35.757139312
  0
ARC
  8
0
  6
CONTINUOUS
 62
     1
 10
1004.546814032
 20
230.6
 30
0.0
 40
6.845203412
 50
144.242860688
 51
215.757139312
  0
ARC
  8
0
  6
CONTINUOUS
 62
     1
 10
1004.546814032
 20
222.6
 30
0.0
 40
6.845203412
 50
144.242860688
 51
215.757139312
  0
LINE
  8
0
  6
LTYPE4
 62
     2
 10
951.682501379
 20
216.6
 30
0.0
 11
951.682501379
 21
236.6
 31
0.0
  0
CIRCLE
  8
0
  6
CONTINUOUS
 62
     2
 10
951.682501379
 20
226.6
 30
0.0
 40
5.0
  0
CIRCLE
  8
0
  6
CONTINUOUS
 62
     2
 10
951.682501379
 20
226.6
 30
0.0
 40
4.0
  0
LINE
  8
7
  6
CONTINUOUS
 62
     2
 10
889.232501379
 20
182.75
 30
0.0
 11
948.032501379
 21
182.75
 31
0.0
  0
TEXT
  8
7
  6
CONTINUOUS
 62
     2
 10
889.232501379
 20
186.75
 30
1.2
 40
12.0
  1
ＰＦ１／２
 50
0.0
 41
0.9
 51
0.0
  7
KANJI30
  0
LINE
  8
0
  6
CONTINUOUS
 62
     1
 10
920.182501379
 20
179.8
 30
0.0
 11
920.182501379
 21
154.1
 31
0.0
  0
LINE
  8
0
  6
LTYPE2
 62
     2
 10
902.482501379
 20
299.7
 30
0.0
 11
892.522501379
 21
299.7
 31
0.0
  0
LINE
  8
0
  6
LTYPE2
 62
     2
 10
897.482501379
 20
303.6
 30
0.0
 11
897.482501379
 21
295.72
 31
0.0
  0
ARC
  8
0
  6
CONTINUOUS
 62
     1
 10
900.482501379
 20
302.6
 30
0.0
 40
2.0
 50
0.0
 51
90.0
  0
LINE
  8
0
  6
CONTINUOUS
 62
     1
 10
925.882501379
 20
297.3
 30
0.0
 11
902.482501379
 21
297.3
 31
0.0
  0
LINE
  8
0
  6
CONTINUOUS
 62
     1
 10
902.482501379
 20
302.6
 30
0.0
 11
902.482501379
 21
266.6
 31
0.0
  0
LINE
  8
0
  6
LTYPE2
 62
     2
 10
902.482501379
 20
269.5
 30
0.0
 11
892.682501379
 21
269.5
 31
0.0
  0
LINE
  8
0
  6
LTYPE2
 62
     2
 10
897.482501379
 20
275.62
 30
0.0
 11
897.482501379
 21
265.6
 31
0.0
  0
ARC
  8
0
  6
CONTINUOUS
 62
     1
 10
900.482501379
 20
266.6
 30
0.0
 40
2.0
 50
270.0
 51
0.0
  0
LINE
  8
0
  6
CONTINUOUS
 62
     1
 10
906.843522596
 20
271.9
 30
0.0
 11
902.482501379
 21
271.9
 31
0.0
  0
ARC
  8
0
  6
CONTINUOUS
 62
     1
 10
925.882501379
 20
295.3
 30
0.0
 40
2.0
 50
0.0
 51
90.0
  0
LINE
  8
0
  6
CONTINUOUS
 62
     1
 10
927.882501379
 20
295.3
 30
0.0
 11
927.882501379
 21
273.9
 31
0.0
  0
ARC
  8
0
  6
CONTINUOUS
 62
     1
 10
912.182501379
 20
284.6
 30
0.0
 40
6.0
 50
356.983045121
 51
183.016954879
  0
LINE
  8
0
  6
LTYPE2
 62
     2
 10
912.182501379
 20
293.7
 30
0.0
 11
912.182501379
 21
236.2
 31
0.0
  0
LINE
  8
0
  6
CONTINUOUS
 62
     1
 10
918.174185367
 20
284.284210526
 30
0.0
 11
916.176957371
 21
246.389473684
 31
0.0
  0
LINE
  8
0
  6
CONTINUOUS
 62
     1
 10
906.190817392
 20
284.284210526
 30
0.0
 11
908.188045388
 21
246.389473684
 31
0.0
  0
ARC
  8
0
  6
CONTINUOUS
 62
     1
 10
925.882501379
 20
273.9
 30
0.0
 40
2.0
 50
270.0
 51
0.0
  0
LINE
  8
0
  6
CONTINUOUS
 62
     1
 10
925.882501379
 20
271.9
 30
0.0
 11
917.521480162
 21
271.9
 31
0.0
  0
LINE
  8
0
  6
LTYPE2
 62
     2
 10
901.182501379
 20
246.6
 30
0.0
 11
924.182501379
 21
246.6
 31
0.0
  0
ARC
  8
0
  6
CONTINUOUS
 62
     1
 10
912.182501379
 20
246.6
 30
0.0
 40
8.75
 50
120.219855722
 51
59.780144278
  0
ARC
  8
0
  6
CONTINUOUS
 62
     1
 10
912.182501379
 20
246.6
 30
0.0
 40
4.0
 50
176.983042101
 51
3.016952287
  0
LINE
  8
0
  6
CONTINUOUS
 62
     2
 10
920.182501379
 20
102.1
 30
0.0
 11
908.591391464
 21
105.205828541
 31
0.0
  0
LINE
  8
0
  6
CONTINUOUS
 62
     2
 10
920.182501379
 20
102.1
 30
0.0
 11
908.591391464
 21
98.994171459
 31
0.0
  0
LINE
  8
0
  6
CONTINUOUS
 62
     2
 10
920.182501379
 20
148.1
 30
0.0
 11
920.182501379
 21
96.1
 31
0.0
  0
TEXT
  8
0
  6
CONTINUOUS
 62
     2
 10
1044.133
 20
1527.99
 30
1.617
 40
16.17
  1
注意：サーマルリレー等の選定は、上記の値で選定して下さい。
 50
0.0
 41
0.9
 51
0.0
  7
KANJI31
  0
LINE
  8
0
  6
CONTINUOUS
 62
     2
 10
1034.893
 20
1523.37
 30
0.0
 11
1504.182501379
 21
1523.37
 31
0.0
  0
TEXT
  8
0
  6
CONTINUOUS
 62
     2
 10
124.778726364
 20
1089.112221811
 30
0.0
 40
15.6
  1
モーター結線図
 50
0.0
 41
0.925
 51
0.0
  7
KANJI32
  0
LINE
  8
0
  6
LTYPE4
 62
     6
 10
119.683333
 20
1209.733317
 30
0.0
 11
119.683333
 21
1193.332460936
 31
0.0
  0
LINE
  8
0
  6
LTYPE4
 62
     6
 10
250.080262694
 20
1209.733317
 30
0.0
 11
119.683333
 21
1209.733317
 31
0.0
  0
TEXT
  8
0
  6
CONTINUOUS
 62
     6
 10
102.148590591
 20
1196.248168681
 30
1.093390404
 40
10.933904043
  1
Ｕ
 50
0.0
 41
0.9
 51
0.0
  7
KANJI33
  0
CIRCLE
  8
0
  6
CONTINUOUS
 62
     6
 10
119.683333
 20
1190.052289723
 30
0.0
 40
4.373561617
  0
LINE
  8
0
  6
CONTINUOUS
 62
     6
 10
114.65854931
 20
1185.027506033
 30
0.0
 11
124.863526417
 21
1195.23248314
 31
0.0
  0
TEXT
  8
0
  6
CONTINUOUS
 62
     6
 10
129.928806047
 20
1218.399448352
 30
1.518597784
 40
15.185977837
  1
エコノストップモータ
 50
0.0
 41
0.66671875
 51
0.0
  7
KANJI34
  0
CIRCLE
  8
0
  6
CONTINUOUS
 62
     6
 10
164.512339575
 20
1164.539846957
 30
0.0
 40
18.223173404
  0
TEXT
  8
0
  6
CONTINUOUS
 62
     6
 10
156.858606745
 20
1155.792723723
 30
1.82231734
 40
18.223173404
  1
Ｍ
 50
0.0
 41
0.9
 51
0.0
  7
KANJI35
  0
LINE
  8
0
  6
CONTINUOUS
 62
     6
 10
140.457750681
 20
1139.027404191
 30
0.0
 11
151.756118192
 21
1152.148089042
 31
0.0
  0
LINE
  8
0
  6
CONTINUOUS
 62
     6
 10
140.457750681
 20
1190.052289723
 30
0.0
 11
151.756118192
 21
1176.931604872
 31
0.0
  0
LINE
  8
0
  6
CONTINUOUS
 62
     6
 10
140.457750681
 20
1190.052289723
 30
0.0
 11
124.056894617
 21
1190.052289723
 31
0.0
  0
LINE
  8
0
  6
CONTINUOUS
 62
     6
 10
146.653629639
 20
1164.539846957
 30
0.0
 11
124.056894617
 21
1164.539846957
 31
0.0
  0
LINE
  8
0
  6
CONTINUOUS
 62
     6
 10
140.457750681
 20
1139.027404191
 30
0.0
 11
124.056894617
 21
1139.027404191
 31
0.0
  0
TEXT
  8
0
  6
CONTINUOUS
 62
     6
 10
103.241980995
 20
1170.371262446
 30
1.093390404
 40
10.933904043
  1
Ｖ
 50
0.0
 41
0.9
 51
0.0
  7
KANJI33
  0
TEXT
  8
0
  6
CONTINUOUS
 62
     6
 10
104.335371399
 20
1144.494356212
 30
1.093390404
 40
10.933904043
  1
Ｗ
 50
0.0
 41
0.9
 51
0.0
  7
KANJI33
  0
CIRCLE
  8
0
  6
CONTINUOUS
 62
     6
 10
119.683333
 20
1164.539846957
 30
0.0
 40
4.373561617
  0
LINE
  8
0
  6
CONTINUOUS
 62
     6
 10
114.65854931
 20
1159.515063267
 30
0.0
 11
124.863526417
 21
1169.720040374
 31
0.0
  0
LINE
  8
0
  6
LTYPE4
 62
     6
 10
119.683333
 20
1186.043191574
 30
0.0
 11
119.683333
 21
1167.82001817
 31
0.0
  0
CIRCLE
  8
0
  6
CONTINUOUS
 62
     6
 10
119.683333
 20
1139.027404191
 30
0.0
 40
4.373561617
  0
LINE
  8
0
  6
CONTINUOUS
 62
     6
 10
114.65854931
 20
1134.002620501
 30
0.0
 11
124.863526417
 21
1144.207597607
 31
0.0
  0
LINE
  8
0
  6
LTYPE4
 62
     6
 10
119.683333
 20
1160.530748808
 30
0.0
 11
119.683333
 21
1143.400965808
 31
0.0
  0
LINE
  8
0
  6
LTYPE4
 62
     6
 10
250.080262694
 20
1114.321584891
 30
0.0
 11
119.683333
 21
1114.321584891
 31
0.0
  0
LINE
  8
0
  6
LTYPE4
 62
     6
 10
119.683333
 20
1134.653842574
 30
0.0
 11
119.683333
 21
1114.321584891
 31
0.0
  0
TEXT
  8
0
  6
CONTINUOUS
 62
     6
 10
190.753709277
 20
1156.284749405
 30
1.457853872
 40
14.578538724
  1
Ｂ
 50
0.0
 41
0.9
 51
0.0
  7
KANJI36
  0
CIRCLE
  8
0
  6
CONTINUOUS
 62
     6
 10
197.314051703
 20
1164.539846957
 30
0.0
 40
14.578538724
  0
LINE
  8
0
  6
LTYPE4
 62
     6
 10
250.080262694
 20
1114.321584891
 30
0.0
 11
250.080262694
 21
1209.733317
 31
0.0
  0
LINE
  8
0
  6
CONTINUOUS
 62
     2
 10
296.632591263
 20
346.371507451
 30
0.0
 11
710.632591263
 21
346.371507451
 31
0.0
  0
TEXT
  8
0
  6
CONTINUOUS
 62
     2
 10
298.632591263
 20
354.371507451
 30
0.0
 40
20.0
  1
推力リミッタの作動値は、約６００ｋｇ（設計値）
 50
0.0
 41
0.925
 51
0.0
  7
KANJI29
  0
LINE
  8
0
  6
CONTINUOUS
 62
     1
 10
1436.3
 20
611.0
 30
0.0
 11
1425.7
 21
611.0
 31
0.0
  0
ARC
  8
0
  6
CONTINUOUS
 62
     1
 10
1431.4
 20
612.0
 30
0.0
 40
5.0
 50
272.3
 51
348.5
  0
ARC
  8
0
  6
CONTINUOUS
 62
     1
 10
1430.6
 20
612.0
 30
0.0
 40
5.0
 50
191.5
 51
267.7
  0
LINE
  8
0
  6
CONTINUOUS
 62
     1
 10
1431.6
 20
607.0
 30
0.0
 11
1430.4
 21
607.0
 31
0.0
  0
LINE
  8
0
  6
LTYPE6
 62
     2
 10
1431.0
 20
603.6
 30
0.0
 11
1431.0
 21
617.0
 31
0.0
  0
LINE
  8
0
  6
CONTINUOUS
 62
     1
 10
1526.3
 20
611.0
 30
0.0
 11
1515.7
 21
611.0
 31
0.0
  0
ARC
  8
0
  6
CONTINUOUS
 62
     1
 10
1521.4
 20
612.0
 30
0.0
 40
5.0
 50
272.3
 51
348.5
  0
ARC
  8
0
  6
CONTINUOUS
 62
     1
 10
1520.6
 20
612.0
 30
0.0
 40
5.0
 50
191.5
 51
267.7
  0
LINE
  8
0
  6
CONTINUOUS
 62
     1
 10
1521.6
 20
607.0
 30
0.0
 11
1520.4
 21
607.0
 31
0.0
  0
LINE
  8
0
  6
LTYPE6
 62
     2
 10
1521.0
 20
603.6
 30
0.0
 11
1521.0
 21
617.0
 31
0.0
  0
LINE
  8
0
  6
CONTINUOUS
 62
     2
 10
1210.0
 20
556.0
 30
0.0
 11
1213.105828541
 21
567.591109915
 31
0.0
  0
LINE
  8
0
  6
CONTINUOUS
 62
     2
 10
1210.0
 20
556.0
 30
0.0
 11
1206.894171459
 21
567.591109915
 31
0.0
  0
LINE
  8
0
  6
CONTINUOUS
 62
     2
 10
1210.0
 20
556.0
 30
0.0
 11
1210.0
 21
722.0
 31
0.0
  0
LINE
  8
0
  6
CONTINUOUS
 62
     2
 10
1210.0
 20
722.0
 30
0.0
 11
1206.894171459
 21
710.408890085
 31
0.0
  0
LINE
  8
0
  6
CONTINUOUS
 62
     2
 10
1210.0
 20
722.0
 30
0.0
 11
1213.105828541
 21
710.408890085
 31
0.0
  0
TEXT
  8
0
  6
CONTINUOUS
 62
     3
 10
1207.0
 20
614.7
 30
0.0
 40
18.0
  1
１６６
 50
90.0
 41
0.9
 51
0.0
  7
KANJI20
  0
LINE
  8
0
  6
CONTINUOUS
 62
     2
 10
1173.5
 20
722.0
 30
0.0
 11
1216.0
 21
722.0
 31
0.0
  0
LINE
  8
0
  6
CONTINUOUS
 62
     2
 10
1099.5
 20
722.0
 30
0.0
 11
1127.5
 21
722.0
 31
0.0
  0
LINE
  8
0
  6
CONTINUOUS
 62
     1
 10
619.0
 20
619.5
 30
0.0
 11
490.0
 21
619.5
 31
0.0
  0
LINE
  8
0
  6
CONTINUOUS
 62
     1
 10
619.0
 20
618.0
 30
0.0
 11
490.0
 21
618.0
 31
0.0
  0
LINE
  8
0
  6
CONTINUOUS
 62
     1
 10
619.0
 20
613.0
 30
0.0
 11
619.0
 21
658.5
 31
0.0
  0
ARC
  8
0
  6
CONTINUOUS
 62
     1
 10
618.0
 20
613.0
 30
0.0
 40
1.0
 50
270.0
 51
0.0
  0
LINE
  8
0
  6
CONTINUOUS
 62
     1
 10
616.0
 20
612.0
 30
0.0
 11
616.0
 21
612.0
 31
0.0
  0
ARC
  8
0
  6
CONTINUOUS
 62
     1
 10
615.0
 20
612.0
 30
0.0
 40
1.0
 50
270.0
 51
0.0
  0
LINE
  8
0
  6
CONTINUOUS
 62
     1
 10
490.0
 20
613.0
 30
0.0
 11
490.0
 21
659.5
 31
0.0
  0
LINE
  8
0
  6
CONTINUOUS
 62
     1
 10
618.0
 20
612.0
 30
0.0
 11
491.0
 21
612.0
 31
0.0
  0
ARC
  8
0
  6
CONTINUOUS
 62
     1
 10
491.0
 20
613.0
 30
0.0
 40
1.0
 50
180.0
 51
270.0
  0
ARC
  8
0
  6
CONTINUOUS
 62
     1
 10
494.0
 20
612.0
 30
0.0
 40
1.0
 50
180.0
 51
270.0
  0
LINE
  8
0
  6
CONTINUOUS
 62
     1
 10
615.0
 20
611.0
 30
0.0
 11
494.1
 21
611.0
 31
0.0
  0
ARC
  8
0
  6
CONTINUOUS
 62
     1
 10
499.9
 20
612.0
 30
0.0
 40
5.0
 50
272.3
 51
348.5
  0
ARC
  8
0
  6
CONTINUOUS
 62
     1
 10
499.1
 20
612.0
 30
0.0
 40
5.0
 50
191.5
 51
267.7
  0
LINE
  8
0
  6
CONTINUOUS
 62
     1
 10
500.1
 20
607.0
 30
0.0
 11
498.9
 21
607.0
 31
0.0
  0
LINE
  8
0
  6
LTYPE6
 62
     2
 10
499.5
 20
603.6
 30
0.0
 11
499.5
 21
617.0
 31
0.0
  0
ARC
  8
0
  6
CONTINUOUS
 62
     1
 10
610.4
 20
612.0
 30
0.0
 40
5.0
 50
272.3
 51
348.5
  0
ARC
  8
0
  6
CONTINUOUS
 62
     1
 10
609.6
 20
612.0
 30
0.0
 40
5.0
 50
191.5
 51
267.7
  0
LINE
  8
0
  6
CONTINUOUS
 62
     1
 10
610.6
 20
607.0
 30
0.0
 11
609.4
 21
607.0
 31
0.0
  0
LINE
  8
0
  6
LTYPE6
 62
     2
 10
610.0
 20
603.6
 30
0.0
 11
610.0
 21
617.0
 31
0.0
  0
TEXT
  8
0
  6
CONTINUOUS
 62
     2
 10
704.0
 20
700.25
 30
0.0
 40
18.0
  1
φ７０
 50
90.0
 41
0.9
 51
0.0
  7
KANJI20
  0
LINE
  8
0
  6
CONTINUOUS
 62
     2
 10
709.0
 20
687.0
 30
0.0
 11
709.0
 21
757.0
 31
0.0
  0
LINE
  8
0
  6
CONTINUOUS
 62
     2
 10
709.0
 20
757.0
 30
0.0
 11
705.764761936
 21
744.925927171
 31
0.0
  0
LINE
  8
0
  6
CONTINUOUS
 62
     2
 10
709.0
 20
757.0
 30
0.0
 11
712.235238064
 21
744.925927171
 31
0.0
  0
LINE
  8
0
  6
CONTINUOUS
 62
     2
 10
709.0
 20
687.0
 30
0.0
 11
712.235238064
 21
699.074072829
 31
0.0
  0
LINE
  8
0
  6
CONTINUOUS
 62
     2
 10
709.0
 20
687.0
 30
0.0
 11
705.764761936
 21
699.074072829
 31
0.0
  0
LINE
  8
0
  6
LTYPE2
 62
     2
 10
682.182501379
 20
722.0
 30
0.0
 11
278.9
 21
722.0
 31
0.0
  0
LINE
  8
0
  6
LTYPE2
 62
     2
 10
1099.283472275
 20
722.0
 30
0.0
 11
707.182501379
 21
722.0
 31
0.0
  0
LINE
  8
0
  6
CONTINUOUS
 62
     1
 10
790.182501379
 20
620.0
 30
0.0
 11
920.182501379
 21
620.0
 31
0.0
  0
LINE
  8
0
  6
CONTINUOUS
 62
     1
 10
790.182501379
 20
614.0
 30
0.0
 11
790.182501379
 21
620.0
 31
0.0
  0
LINE
  8
0
  6
CONTINUOUS
 62
     1
 10
790.182501379
 20
614.0
 30
0.0
 11
920.182501379
 21
614.0
 31
0.0
  0
LINE
  8
0
  6
CONTINUOUS
 62
     1
 10
833.782501379
 20
614.0
 30
0.0
 11
833.782501379
 21
574.0
 31
0.0
  0
LINE
  8
0
  6
LTYPE1
 62
     2
 10
838.882501379
 20
583.23
 30
0.0
 11
833.882501379
 21
583.23
 31
0.0
  0
LINE
  8
0
  6
LTYPE1
 62
     2
 10
838.882501379
 20
584.385
 30
0.0
 11
833.882501379
 21
584.385
 31
0.0
  0
LINE
  8
0
  6
LTYPE1
 62
     2
 10
838.882501379
 20
604.17
 30
0.0
 11
833.882501379
 21
604.17
 31
0.0
  0
LINE
  8
0
  6
LTYPE1
 62
     2
 10
838.882501379
 20
603.015
 30
0.0
 11
833.882501379
 21
603.015
 31
0.0
  0
LINE
  8
0
  6
LTYPE1
 62
     2
 10
838.882501379
 20
604.17
 30
0.0
 11
833.882501379
 21
604.17
 31
0.0
  0
LINE
  8
0
  6
CONTINUOUS
 62
     1
 10
782.482501379
 20
613.0
 30
0.0
 11
782.482501379
 21
587.6
 31
0.0
  0
LINE
  8
0
  6
CONTINUOUS
 62
     1
 10
807.882501379
 20
613.0
 30
0.0
 11
782.482501379
 21
613.0
 31
0.0
  0
LINE
  8
0
  6
CONTINUOUS
 62
     1
 10
807.882501379
 20
587.6
 30
0.0
 11
782.482501379
 21
587.6
 31
0.0
  0
LINE
  8
0
  6
CONTINUOUS
 62
     1
 10
807.882501379
 20
614.0
 30
0.0
 11
807.882501379
 21
574.0
 31
0.0
  0
LINE
  8
0
  6
CONTINUOUS
 62
     1
 10
839.182501379
 20
559.0
 30
0.0
 11
839.182501379
 21
574.0
 31
0.0
  0
LINE
  8
0
  6
CONTINUOUS
 62
     1
 10
839.182501379
 20
559.0
 30
0.0
 11
871.182501379
 21
559.0
 31
0.0
  0
LINE
  8
0
  6
LTYPE3
 62
     2
 10
838.882501379
 20
592.7
 30
0.0
 11
829.782501379
 21
592.7
 31
0.0
  0
LINE
  8
0
  6
CONTINUOUS
 62
     1
 10
807.882501379
 20
580.0
 30
0.0
 11
902.482501379
 21
580.0
 31
0.0
  0
LINE
  8
0
  6
CONTINUOUS
 62
     1
 10
807.882501379
 20
574.0
 30
0.0
 11
902.482501379
 21
574.0
 31
0.0
  0
LINE
  8
0
  6
CONTINUOUS
 62
     2
 10
847.0
 20
561.875
 30
0.0
 11
837.458760731
 21
553.799434806
 31
0.0
  0
LINE
  8
0
  6
CONTINUOUS
 62
     2
 10
847.0
 20
561.875
 30
0.0
 11
842.774827007
 21
550.110735757
 31
0.0
  0
LINE
  8
0
  6
CONTINUOUS
 62
     2
 10
847.0
 20
561.875
 30
0.0
 11
830.0
 21
537.375
 31
0.0
  0
LINE
  8
0
  6
CONTINUOUS
 62
     2
 10
830.0
 20
537.375
 30
0.0
 11
741.5
 21
537.375
 31
0.0
  0
TEXT
  8
0
  6
CONTINUOUS
 62
     2
 10
741.5
 20
542.375
 30
0.0
 40
18.0
  1
ＬＳユニット
 50
0.0
 41
0.9
 51
0.0
  7
KANJI20
  0
LINE
  8
0
  6
LTYPE2
 62
     2
 10
855.182501379
 20
517.5
 30
0.0
 11
855.182501379
 21
582.8
 31
0.0
  0
LINE
  8
0
  6
LTYPE2
 62
     2
 10
855.182501379
 20
558.0
 30
0.0
 11
855.182501379
 21
623.3
 31
0.0
  0
LINE
  8
0
  6
CONTINUOUS
 62
     1
 10
871.182501379
 20
559.0
 30
0.0
 11
871.182501379
 21
574.0
 31
0.0
  0
LINE
  8
0
  6
CONTINUOUS
 62
     1
 10
927.882501379
 20
613.0
 30
0.0
 11
927.882501379
 21
587.6
 31
0.0
  0
LINE
  8
0
  6
CONTINUOUS
 62
     1
 10
902.482501379
 20
613.0
 30
0.0
 11
927.882501379
 21
613.0
 31
0.0
  0
LINE
  8
0
  6
CONTINUOUS
 62
     1
 10
920.182501379
 20
614.0
 30
0.0
 11
920.182501379
 21
620.0
 31
0.0
  0
LINE
  8
0
  6
CONTINUOUS
 62
     1
 10
902.482501379
 20
587.6
 30
0.0
 11
927.882501379
 21
587.6
 31
0.0
  0
LINE
  8
0
  6
CONTINUOUS
 62
     1
 10
902.482501379
 20
614.0
 30
0.0
 11
902.482501379
 21
574.0
 31
0.0
  0
LINE
  8
0
  6
LTYPE2
 62
     2
 10
912.182501379
 20
599.1875
 30
0.0
 11
912.182501379
 21
559.2
 31
0.0
  0
LINE
  8
0
  6
LTYPE4
 62
     2
 10
855.182501379
 20
196.1
 30
0.0
 11
855.182501379
 21
533.5
 31
0.0
  0
LINE
  8
0
  6
CONTINUOUS
 62
     1
 10
1031.0
 20
559.0
 30
0.0
 11
1031.0
 21
729.0
 31
0.0
  0
LINE
  8
0
  6
CONTINUOUS
 62
     1
 10
1015.0
 20
559.0
 30
0.0
 11
1031.0
 21
559.0
 31
0.0
  0
LINE
  8
0
  6
CONTINUOUS
 62
     1
 10
1015.0
 20
559.0
 30
0.0
 11
1015.0
 21
742.0
 31
0.0
  0
LINE
  8
0
  6
CONTINUOUS
 62
     1
 10
1031.0
 20
572.0
 30
0.0
 11
1031.0
 21
579.49406
 31
0.0
  0
LINE
  8
0
  6
CONTINUOUS
 62
     1
 10
1031.0
 20
572.0
 30
0.0
 11
1031.0
 21
564.50594
 31
0.0
  0
LINE
  8
0
  6
CONTINUOUS
 62
     1
 10
1036.4999
 20
577.65878
 30
0.0
 11
1035.440300598
 21
579.49406
 31
0.0
  0
LINE
  8
0
  6
CONTINUOUS
 62
     1
 10
1036.4999
 20
572.0
 30
0.0
 11
1036.4999
 21
577.65878
 31
0.0
  0
LINE
  8
0
  6
CONTINUOUS
 62
     1
 10
1036.4999
 20
566.34122
 30
0.0
 11
1035.440300598
 21
564.50594
 31
0.0
  0
LINE
  8
0
  6
CONTINUOUS
 62
     1
 10
1036.4999
 20
572.0
 30
0.0
 11
1036.4999
 21
566.34122
 31
0.0
  0
ARC
  8
0
  6
CONTINUOUS
 62
     1
 10
1029.344844663
 20
572.0
 30
0.0
 40
7.155055337
 50
328.419912243
 51
31.580087757
  0
ARC
  8
0
  6
CONTINUOUS
 62
     1
 10
1034.314476233
 20
577.620545
 30
0.0
 40
2.185758211
 50
301.002313915
 51
2.989498403
  0
LINE
  8
0
  6
CONTINUOUS
 62
     1
 10
1036.4999
 20
566.34122
 30
0.0
 11
1035.440300598
 21
564.50594
 31
0.0
  0
ARC
  8
0
  6
CONTINUOUS
 62
     1
 10
1034.314476233
 20
566.379455
 30
0.0
 40
2.185758211
 50
357.010501597
 51
58.997686085
  0
LINE
  8
0
  6
CONTINUOUS
 62
     1
 10
1031.0
 20
579.49406
 30
0.0
 11
1035.440300598
 21
579.49406
 31
0.0
  0
LINE
  8
0
  6
CONTINUOUS
 62
     1
 10
1031.0
 20
575.74703
 30
0.0
 11
1035.440300598
 21
575.74703
 31
0.0
  0
LINE
  8
0
  6
CONTINUOUS
 62
     1
 10
1031.0
 20
568.25297
 30
0.0
 11
1035.440300598
 21
568.25297
 31
0.0
  0
LINE
  8
0
  6
CONTINUOUS
 62
     1
 10
1031.0
 20
564.50594
 30
0.0
 11
1035.440300598
 21
564.50594
 31
0.0
  0
LINE
  8
0
  6
CONTINUOUS
 62
     1
 10
1036.4999
 20
568.0
 30
0.0
 11
1041.4999
 21
568.0
 31
0.0
  0
LINE
  8
0
  6
CONTINUOUS
 62
     1
 10
1036.4999
 20
576.0
 30
0.0
 11
1041.4999
 21
576.0
 31
0.0
  0
LINE
  8
0
  6
CONTINUOUS
 62
     1
 10
1041.4999
 20
568.0
 30
0.0
 11
1041.4999
 21
576.0
 31
0.0
  0
LINE
  8
0
  6
CONTINUOUS
 62
     2
 10
1036.4999
 20
575.2
 30
0.0
 11
1041.4999
 21
575.2
 31
0.0
  0
LINE
  8
0
  6
CONTINUOUS
 62
     2
 10
1036.4999
 20
568.8
 30
0.0
 11
1041.4999
 21
568.8
 31
0.0
  0
LINE
  8
2
  6
CONTINUOUS
 62
     2
 10
1031.0
 20
554.0
 30
0.0
 11
1031.0
 21
472.0
 31
0.0
  0
LINE
  8
2
  6
CONTINUOUS
 62
     2
 10
1031.0
 20
554.0
 30
0.0
 11
1031.0
 21
472.0
 31
0.0
  0
LINE
  8
0
  6
CONTINUOUS
 62
     2
 10
986.532501379
 20
556.0
 30
0.0
 11
1216.0
 21
556.0
 31
0.0
  0
LINE
  8
0
  6
CONTINUOUS
 62
     2
 10
116.0
 20
292.8
 30
0.0
 11
123.72740661
 21
290.729447639
 31
0.0
  0
LINE
  8
0
  6
CONTINUOUS
 62
     2
 10
116.0
 20
292.8
 30
0.0
 11
123.72740661
 21
294.870552361
 31
0.0
  0
LINE
  8
0
  6
CONTINUOUS
 62
     2
 10
116.0
 20
292.8
 30
0.0
 11
253.6
 21
292.8
 31
0.0
  0
LINE
  8
0
  6
CONTINUOUS
 62
     2
 10
253.6
 20
292.8
 30
0.0
 11
245.87259339
 21
294.870552361
 31
0.0
  0
LINE
  8
0
  6
CONTINUOUS
 62
     2
 10
253.6
 20
292.8
 30
0.0
 11
245.87259339
 21
290.729447639
 31
0.0
  0
LINE
  8
0
  6
CONTINUOUS
 62
     2
 10
253.6
 20
291.6
 30
0.0
 11
253.6
 21
288.8
 31
0.0
  0
LINE
  8
0
  6
CONTINUOUS
 62
     2
 10
253.6
 20
292.8
 30
0.0
 11
261.32740661
 21
290.729447639
 31
0.0
  0
LINE
  8
0
  6
CONTINUOUS
 62
     2
 10
253.6
 20
292.8
 30
0.0
 11
261.32740661
 21
294.870552361
 31
0.0
  0
LINE
  8
0
  6
CONTINUOUS
 62
     2
 10
253.6
 20
292.8
 30
0.0
 11
456.0
 21
292.8
 31
0.0
  0
LINE
  8
0
  6
CONTINUOUS
 62
     2
 10
456.0
 20
292.8
 30
0.0
 11
448.27259339
 21
294.870552361
 31
0.0
  0
LINE
  8
0
  6
CONTINUOUS
 62
     2
 10
456.0
 20
292.8
 30
0.0
 11
448.27259339
 21
290.729447639
 31
0.0
  0
LINE
  8
0
  6
CONTINUOUS
 62
     2
 10
253.6
 20
266.470552361
 30
0.0
 11
245.87259339
 21
268.541104722
 31
0.0
  0
LINE
  8
0
  6
CONTINUOUS
 62
     2
 10
253.6
 20
266.470552361
 30
0.0
 11
245.87259339
 21
264.4
 31
0.0
  0
LINE
  8
0
  6
CONTINUOUS
 62
     2
 10
241.6
 20
266.470552361
 30
0.0
 11
253.6
 21
266.470552361
 31
0.0
  0
LINE
  8
0
  6
CONTINUOUS
 62
     2
 10
253.6
 20
266.470552361
 30
0.0
 11
274.4
 21
266.470552361
 31
0.0
  0
LINE
  8
0
  6
CONTINUOUS
 62
     2
 10
274.4
 20
266.470552361
 30
0.0
 11
282.12740661
 21
264.4
 31
0.0
  0
LINE
  8
0
  6
CONTINUOUS
 62
     2
 10
274.4
 20
266.470552361
 30
0.0
 11
282.12740661
 21
268.541104722
 31
0.0
  0
LINE
  8
0
  6
CONTINUOUS
 62
     2
 10
116.0
 20
241.2
 30
0.0
 11
116.0
 21
235.2
 31
0.0
  0
LINE
  8
0
  6
CONTINUOUS
 62
     2
 10
116.0
 20
239.2
 30
0.0
 11
123.72740661
 21
237.129447639
 31
0.0
  0
LINE
  8
0
  6
CONTINUOUS
 62
     2
 10
116.0
 20
239.2
 30
0.0
 11
123.72740661
 21
241.270552361
 31
0.0
  0
LINE
  8
0
  6
CONTINUOUS
 62
     2
 10
116.0
 20
239.2
 30
0.0
 11
274.4
 21
239.2
 31
0.0
  0
LINE
  8
0
  6
CONTINUOUS
 62
     2
 10
274.4
 20
239.2
 30
0.0
 11
266.67259339
 21
241.270552361
 31
0.0
  0
LINE
  8
0
  6
CONTINUOUS
 62
     2
 10
274.4
 20
239.2
 30
0.0
 11
266.67259339
 21
237.129447639
 31
0.0
  0
LINE
  8
0
  6
CONTINUOUS
 62
     2
 10
274.4
 20
240.4
 30
0.0
 11
274.4
 21
235.2
 31
0.0
  0
LINE
  8
0
  6
CONTINUOUS
 62
     2
 10
274.4
 20
239.2
 30
0.0
 11
282.12740661
 21
237.129447639
 31
0.0
  0
LINE
  8
0
  6
CONTINUOUS
 62
     2
 10
274.4
 20
239.2
 30
0.0
 11
282.12740661
 21
241.270552361
 31
0.0
  0
LINE
  8
0
  6
CONTINUOUS
 62
     2
 10
456.0
 20
235.6
 30
0.0
 11
456.0
 21
235.2
 31
0.0
  0
LINE
  8
0
  6
CONTINUOUS
 62
     2
 10
116.0
 20
210.0
 30
0.0
 11
123.72740661
 21
207.929447639
 31
0.0
  0
LINE
  8
0
  6
CONTINUOUS
 62
     2
 10
116.0
 20
210.0
 30
0.0
 11
123.72740661
 21
212.070552361
 31
0.0
  0
LINE
  8
0
  6
CONTINUOUS
 62
     2
 10
116.0
 20
210.0
 30
0.0
 11
433.6
 21
210.0
 31
0.0
  0
LINE
  8
0
  6
CONTINUOUS
 62
     2
 10
433.6
 20
210.0
 30
0.0
 11
425.87259339
 21
212.070552361
 31
0.0
  0
LINE
  8
0
  6
CONTINUOUS
 62
     2
 10
433.6
 20
210.0
 30
0.0
 11
425.87259339
 21
207.929447639
 31
0.0
  0
LINE
  8
0
  6
CONTINUOUS
 62
     2
 10
433.6
 20
210.8
 30
0.0
 11
433.6
 21
206.0
 31
0.0
  0
LINE
  8
0
  6
CONTINUOUS
 62
     2
 10
433.6
 20
210.0
 30
0.0
 11
425.87259339
 21
212.070552361
 31
0.0
  0
LINE
  8
0
  6
CONTINUOUS
 62
     2
 10
433.6
 20
210.0
 30
0.0
 11
425.87259339
 21
207.929447639
 31
0.0
  0
LINE
  8
0
  6
CONTINUOUS
 62
     2
 10
421.6
 20
210.0
 30
0.0
 11
433.6
 21
210.0
 31
0.0
  0
LINE
  8
0
  6
CONTINUOUS
 62
     2
 10
433.6
 20
210.0
 30
0.0
 11
456.0
 21
210.0
 31
0.0
  0
LINE
  8
0
  6
CONTINUOUS
 62
     2
 10
456.0
 20
210.0
 30
0.0
 11
463.72740661
 21
207.929447639
 31
0.0
  0
LINE
  8
0
  6
CONTINUOUS
 62
     2
 10
456.0
 20
210.0
 30
0.0
 11
463.72740661
 21
212.070552361
 31
0.0
  0
LINE
  8
0
  6
CONTINUOUS
 62
     2
 10
116.0
 20
303.6
 30
0.0
 11
116.0
 21
288.8
 31
0.0
  0
LINE
  8
0
  6
CONTINUOUS
 62
     2
 10
456.0
 20
303.6
 30
0.0
 11
456.0
 21
288.8
 31
0.0
  0
LINE
  8
0
  6
CONTINUOUS
 62
     2
 10
253.6
 20
292.4
 30
0.0
 11
253.6
 21
303.6
 31
0.0
  0
LINE
  8
0
  6
CONTINUOUS
 62
     2
 10
274.4
 20
279.270552361
 30
0.0
 11
274.4
 21
262.470552361
 31
0.0
  0
LINE
  8
0
  6
CONTINUOUS
 62
     2
 10
116.0
 20
288.8
 30
0.0
 11
116.0
 21
196.8
 31
0.0
  0
LINE
  8
0
  6
CONTINUOUS
 62
     2
 10
456.0
 20
292.8
 30
0.0
 11
456.0
 21
198.0
 31
0.0
  0
LINE
  8
0
  6
CONTINUOUS
 62
     2
 10
274.4
 20
266.470552361
 30
0.0
 11
274.4
 21
230.0
 31
0.0
  0
LINE
  8
0
  6
CONTINUOUS
 62
     2
 10
253.6
 20
292.8
 30
0.0
 11
253.6
 21
257.2
 31
0.0
  0
TEXT
  8
0
  6
CONTINUOUS
 62
     3
 10
157.8
 20
294.8
 30
0.0
 40
15.0
  1
ｍｉｎ．Ｌ
 50
0.0
 41
0.9
 51
0.0
  7
KANJI28
  0
TEXT
  8
0
  6
CONTINUOUS
 62
     3
 10
311.6
 20
294.8
 30
0.0
 40
15.0
  1
機械的ストローク
 50
0.0
 41
0.9
 51
0.0
  7
KANJI28
  0
TEXT
  8
0
  6
CONTINUOUS
 62
     3
 10
286.4
 20
268.470552361
 30
0.0
 40
15.0
  1
余裕
 50
0.0
 41
0.9
 51
0.0
  7
KANJI28
  0
TEXT
  8
0
  6
CONTINUOUS
 62
     3
 10
168.2
 20
241.2
 30
0.0
 40
15.0
  1
常用ｍｉｎ
 50
0.0
 41
0.9
 51
0.0
  7
KANJI28
  0
TEXT
  8
0
  6
CONTINUOUS
 62
     3
 10
247.8
 20
212.0
 30
0.0
 40
15.0
  1
常用ｍａｘ
 50
0.0
 41
0.9
 51
0.0
  7
KANJI28
  0
TEXT
  8
0
  6
CONTINUOUS
 62
     3
 10
468.0
 20
212.0
 30
0.0
 40
15.0
  1
余裕
 50
0.0
 41
0.9
 51
0.0
  7
KANJI28
  0
LINE
  8
0
  6
CONTINUOUS
 62
     2
 10
274.4
 20
266.470552361
 30
0.0
 11
314.5
 21
266.470552361
 31
0.0
  0
LINE
  8
0
  6
CONTINUOUS
 62
     2
 10
456.0
 20
210.0
 30
0.0
 11
498.5
 21
210.0
 31
0.0
  0
TEXT
  8
0
  6
CONTINUOUS
 62
     2
 10
174.6
 20
978.6
 30
0.0
 40
18.0
  1
手動軸カバー
 50
0.0
 41
0.9
 51
0.0
  7
KANJI20
  0
LINE
  8
0
  6
CONTINUOUS
 62
     2
 10
269.58
 20
973.6
 30
0.0
 11
166.0
 21
973.6
 31
0.0
  0
LINE
  8
0
  6
CONTINUOUS
 62
     6
 10
345.629425053
 20
1625.447759827
 30
0.0
 11
113.584646507
 21
1625.447759827
 31
0.0
  0
TEXT
  8
0
  6
CONTINUOUS
 62
     6
 10
117.493517202
 20
1628.64592676
 30
1.0647
 40
11.661
  1
ＬＳ０１　　　：推力リミッタ（前進時過負荷用）
 50
0.0
 41
0.822608696
 51
0.0
  7
KANJI37
  0
TEXT
  8
0
  6
CONTINUOUS
 62
     6
 10
117.493517202
 20
1601.18342676
 30
1.0647
 40
11.661
  1
ＬＳ０２　　　：推力リミッタ（後進時過負荷用）
 50
0.0
 41
0.822608696
 51
0.0
  7
KANJI37
  0
LINE
  8
0
  6
CONTINUOUS
 62
     3
 10
345.629425053
 20
1597.985259827
 30
0.0
 11
113.584646507
 21
1597.985259827
 31
0.0
  0
LINE
  8
0
  6
CONTINUOUS
 62
     6
 10
345.629425053
 20
1597.985259827
 30
0.0
 11
113.584646507
 21
1597.985259827
 31
0.0
  0
TEXT
  8
0
  6
CONTINUOUS
 62
     6
 10
371.212228
 20
1622.900410728
 30
1.232517
 40
13.182
  1
電気定格　　　
 50
0.0
 41
0.85
 51
0.0
  7
KANJI38
  0
TEXT
  8
0
  6
CONTINUOUS
 62
     6
 10
384.013715102
 20
1592.326958599
 30
0.0
 40
11.8638
  1
ＤＣ１２５Ｖ　０．６Ａ　，ＤＣ２５０Ｖ　０．３Ａ　
 50
0.0
 41
0.726495726
 51
0.0
  7
KANJI39
  0
TEXT
  8
0
  6
CONTINUOUS
 62
     6
 10
378.757132178
 20
1640.661726126
 30
0.0
 40
55.0
  1
｝
 50
0.0
 41
0.440318182
 51
0.0
  7
KANJI40
  0
LINE
  8
0
  6
LTYPE4
 62
     6
 10
97.42
 20
1352.3
 30
0.0
 11
618.02
 21
1352.3
 31
0.0
  0
LINE
  8
0
  6
LTYPE4
 62
     6
 10
618.02
 20
1352.3
 30
0.0
 11
618.02
 21
1655.4
 31
0.0
  0
LINE
  8
0
  6
LTYPE4
 62
     6
 10
618.02
 20
1655.4
 30
0.0
 11
97.42
 21
1655.4
 31
0.0
  0
LINE
  8
0
  6
LTYPE4
 62
     6
 10
97.42
 20
1655.4
 30
0.0
 11
97.42
 21
1352.3
 31
0.0
  0
TEXT
  8
0
  6
CONTINUOUS
 62
     6
 10
282.632791539
 20
1370.32382165
 30
0.0
 40
17.740702234
  1
端子台　接続図
 50
0.0
 41
0.880962996
 51
0.0
  7
KANJI41
  0
LINE
  8
0
  6
CONTINUOUS
 62
     2
 10
317.597373465
 20
1421.328121884
 30
0.0
 11
317.597373465
 21
1398.549155128
 31
0.0
  0
LINE
  8
0
  6
CONTINUOUS
 62
     2
 10
344.17283468
 20
1421.328121884
 30
0.0
 11
344.17283468
 21
1398.549155128
 31
0.0
  0
LINE
  8
0
  6
CONTINUOUS
 62
     2
 10
370.748295894
 20
1421.328121884
 30
0.0
 11
370.748295894
 21
1398.549155128
 31
0.0
  0
LINE
  8
0
  6
CONTINUOUS
 62
     2
 10
397.323757109
 20
1421.328121884
 30
0.0
 11
397.323757109
 21
1398.549155128
 31
0.0
  0
CIRCLE
  8
0
  6
CONTINUOUS
 62
     6
 10
389.404269667
 20
1444.807921517
 30
0.0
 40
4.100214016
  0
LINE
  8
0
  6
CONTINUOUS
 62
     6
 10
385.304055651
 20
1444.807921517
 30
0.0
 11
384.036026502
 21
1444.807921517
 31
0.0
  0
LINE
  8
0
  6
CONTINUOUS
 62
     6
 10
410.358027433
 20
1458.494562742
 30
0.0
 11
406.443558096
 21
1436.159507138
 31
0.0
  0
LINE
  8
0
  6
CONTINUOUS
 62
     6
 10
405.631699663
 20
1459.282284037
 30
0.0
 11
401.716922494
 21
1436.947279739
 31
0.0
  0
LINE
  8
0
  6
CONTINUOUS
 62
     6
 10
406.443558096
 20
1436.159507138
 30
0.0
 11
401.716922494
 21
1436.947279739
 31
0.0
  0
CIRCLE
  8
0
  6
CONTINUOUS
 62
     6
 10
410.611487717
 20
1435.339464335
 30
0.0
 40
4.100214016
  0
LINE
  8
0
  6
CONTINUOUS
 62
     6
 10
410.611487717
 20
1431.239250319
 30
0.0
 11
410.611487717
 21
1421.328121884
 31
0.0
  0
LINE
  8
0
  6
CONTINUOUS
 62
     6
 10
384.036026502
 20
1444.807921517
 30
0.0
 11
384.036026502
 21
1421.328121884
 31
0.0
  0
LINE
  8
0
  6
CONTINUOUS
 62
     6
 10
357.460565287
 20
1421.328121884
 30
0.0
 11
357.460565287
 21
1475.033332504
 31
0.0
  0
LINE
  8
0
  6
CONTINUOUS
 62
     6
 10
277.987641926
 20
1458.494562742
 30
0.0
 11
281.902111263
 21
1436.159507138
 31
0.0
  0
LINE
  8
0
  6
CONTINUOUS
 62
     6
 10
282.713969696
 20
1459.282284037
 30
0.0
 11
286.628746865
 21
1436.947279739
 31
0.0
  0
LINE
  8
0
  6
CONTINUOUS
 62
     6
 10
281.902111263
 20
1436.159507138
 30
0.0
 11
286.628746865
 21
1436.947279739
 31
0.0
  0
CIRCLE
  8
0
  6
CONTINUOUS
 62
     6
 10
277.734181642
 20
1435.339464335
 30
0.0
 40
4.100214016
  0
CIRCLE
  8
0
  6
CONTINUOUS
 62
     6
 10
298.941399692
 20
1444.807921517
 30
0.0
 40
4.100214016
  0
LINE
  8
0
  6
CONTINUOUS
 62
     6
 10
303.041613708
 20
1444.807921517
 30
0.0
 11
304.309642857
 21
1444.807921517
 31
0.0
  0
LINE
  8
0
  6
CONTINUOUS
 62
     6
 10
277.734181642
 20
1431.239250319
 30
0.0
 11
277.734181642
 21
1421.328121884
 31
0.0
  0
LINE
  8
0
  6
CONTINUOUS
 62
     6
 10
304.309642857
 20
1444.807921517
 30
0.0
 11
304.309642857
 21
1421.328121884
 31
0.0
  0
LINE
  8
0
  6
CONTINUOUS
 62
     6
 10
330.885104072
 20
1421.328121884
 30
0.0
 11
330.885104072
 21
1475.033332504
 31
0.0
  0
LINE
  8
0
  6
CONTINUOUS
 62
     2
 10
423.899218324
 20
1421.328121884
 30
0.0
 11
423.899218324
 21
1398.549155128
 31
0.0
  0
LINE
  8
0
  6
CONTINUOUS
 62
     2
 10
264.446451035
 20
1421.328121884
 30
0.0
 11
264.446451035
 21
1398.549155128
 31
0.0
  0
LINE
  8
0
  6
CONTINUOUS
 62
     2
 10
291.02191225
 20
1421.328121884
 30
0.0
 11
291.02191225
 21
1398.549155128
 31
0.0
  0
LINE
  8
0
  6
CONTINUOUS
 62
     6
 10
410.611487717
 20
1475.033332504
 30
0.0
 11
357.460565287
 21
1475.033332504
 31
0.0
  0
CIRCLE
  8
0
  6
CONTINUOUS
 62
     6
 10
410.611487717
 20
1462.68941042
 30
0.0
 40
4.100214016
  0
LINE
  8
0
  6
CONTINUOUS
 62
     6
 10
410.358027433
 20
1458.494562742
 30
0.0
 11
405.631699663
 21
1459.282284037
 31
0.0
  0
LINE
  8
0
  6
CONTINUOUS
 62
     6
 10
410.611487717
 20
1466.789624436
 30
0.0
 11
410.611487717
 21
1475.033332504
 31
0.0
  0
CIRCLE
  8
0
  6
CONTINUOUS
 62
     6
 10
277.734181642
 20
1462.68941042
 30
0.0
 40
4.100214016
  0
LINE
  8
0
  6
CONTINUOUS
 62
     6
 10
277.987641926
 20
1458.494562742
 30
0.0
 11
282.713969696
 21
1459.282284037
 31
0.0
  0
LINE
  8
0
  6
CONTINUOUS
 62
     6
 10
277.734181642
 20
1466.789624436
 30
0.0
 11
277.734181642
 21
1475.033332504
 31
0.0
  0
LINE
  8
0
  6
CONTINUOUS
 62
     6
 10
330.885104072
 20
1475.033332504
 30
0.0
 11
277.734181642
 21
1475.033332504
 31
0.0
  0
TEXT
  8
0
  6
CONTINUOUS
 62
     6
 10
282.4972152
 20
1479.552473273
 30
0.819
 40
11.7
  1
ＬＳ０１
 50
0.0
 41
0.8
 51
0.0
  7
KANJI42
  0
TEXT
  8
0
  6
CONTINUOUS
 62
     6
 10
365.117398844
 20
1479.552473273
 30
0.819
 40
11.7
  1
ＬＳ０２
 50
0.0
 41
0.8
 51
0.0
  7
KANJI42
  0
TEXT
  8
0
  6
CONTINUOUS
 62
     3
 10
110.308775989
 20
1402.345649587
 30
0.0
 40
15.0
  1
　　　　　　　　　　　　　　　　　　１　　２　　　３　　　４　　　５　　　６
 50
0.0
 41
0.911
 51
0.0
  7
KANJI43
  0
LINE
  8
0
  6
CONTINUOUS
 62
     2
 10
264.446451035
 20
1421.328121884
 30
0.0
 11
423.899218324
 21
1421.328121884
 31
0.0
  0
LINE
  8
0
  6
CONTINUOUS
 62
     2
 10
264.446451035
 20
1398.549155128
 30
0.0
 11
423.899218324
 21
1398.549155128
 31
0.0
  0
TEXT
  8
0
  6
CONTINUOUS
 62
     6
 10
256.132791539
 20
1509.32382165
 30
0.0
 40
17.740702234
  1
推力リミッタ端子台配列
 50
0.0
 41
0.880962996
 51
0.0
  7
KANJI41
  0
TEXT
  8
0
  6
CONTINUOUS
 62
     6
 10
384.013715102
 20
1608.071931782
 30
0.0
 40
11.8638
  1
ＡＣ１００Ｖ　１２５Ｖ　２５０Ｖ　－１０Ａ
 50
0.0
 41
0.726495726
 51
0.0
  7
KANJI39
  0
ARC
  8
0
  6
CONTINUOUS
 62
     2
 10
232.0
 20
856.5
 30
0.0
 40
20.0
 50
231.952957468
 51
156.801409486
  0
LINE
  8
0
  6
CONTINUOUS
 62
     2
 10
213.6170994
 20
864.378385972
 30
0.0
 11
215.91179211
 21
874.215824749
 31
0.0
  0
TEXT
  8
0
  6
CONTINUOUS
 62
     2
 10
151.6170994
 20
847.378385972
 30
0.0
 40
15.0
  1
前進方向
 50
0.0
 41
0.9
 51
0.0
  7
KANJI28
  0
LINE
  8
0
  6
CONTINUOUS
 62
     2
 10
213.6170994
 20
864.378385972
 30
0.0
 11
221.885260778
 21
869.285722507
 31
0.0
  0
LINE
  8
0
  6
CONTINUOUS
 62
     1
 10
382.5
 20
797.0
 30
0.0
 11
339.5
 21
797.0
 31
0.0
  0
TEXT
  8
0
  6
CONTINUOUS
 62
     2
 10
344.5
 20
786.0
 30
5.0
 40
20.0
  1
銘板
 50
270.0
 41
0.925
 51
0.0
  7
KANJI44
  0
LINE
  8
0
  6
CONTINUOUS
 62
     1
 10
339.5
 20
797.0
 30
0.0
 11
339.5
 21
727.0
 31
0.0
  0
LINE
  8
0
  6
CONTINUOUS
 62
     1
 10
382.5
 20
797.0
 30
0.0
 11
382.5
 21
727.0
 31
0.0
  0
LINE
  8
0
  6
CONTINUOUS
 62
     1
 10
382.5
 20
727.0
 30
0.0
 11
339.5
 21
727.0
 31
0.0
  0
LINE
  8
2
  6
CONTINUOUS
 62
     2
 10
567.0
 20
914.0
 30
0.0
 11
673.0
 21
914.0
 31
0.0
  0
LINE
  8
2
  6
CONTINUOUS
 62
     2
 10
567.0
 20
800.0
 30
0.0
 11
673.0
 21
800.0
 31
0.0
  0
LINE
  8
0
  6
LTYPE4
 62
     2
 10
825.182501379
 20
659.25
 30
0.0
 11
825.182501379
 21
764.9
 31
0.0
  0
ARC
  8
0
  6
CONTINUOUS
 62
     1
 10
825.182501379
 20
761.5
 30
0.0
 40
4.0
 50
0.00015455
 51
179.99984545
  0
ARC
  8
0
  6
CONTINUOUS
 62
     1
 10
885.182501379
 20
761.5
 30
0.0
 40
4.0
 50
0.00015455
 51
179.99984545
  0
LINE
  8
0
  6
LTYPE4
 62
     2
 10
885.182501379
 20
659.25
 30
0.0
 11
885.182501379
 21
764.9
 31
0.0
  0
LINE
  8
0
  6
CONTINUOUS
 62
     1
 10
829.182501379
 20
705.0
 30
0.0
 11
829.182501379
 21
761.50001079
 31
0.0
  0
LINE
  8
0
  6
CONTINUOUS
 62
     1
 10
821.182501379
 20
705.0
 30
0.0
 11
821.182501379
 21
761.50001079
 31
0.0
  0
LINE
  8
0
  6
CONTINUOUS
 62
     1
 10
881.182501379
 20
705.0
 30
0.0
 11
881.182501379
 21
761.50001079
 31
0.0
  0
LINE
  8
0
  6
CONTINUOUS
 62
     1
 10
889.182501379
 20
705.0
 30
0.0
 11
889.182501379
 21
761.50001079
 31
0.0
  0
LINE
  8
0
  6
CONTINUOUS
 62
     1
 10
878.182501379
 20
620.5
 30
0.0
 11
878.182501379
 21
705.0
 31
0.0
  0
LINE
  8
0
  6
CONTINUOUS
 62
     1
 10
892.182501379
 20
705.0
 30
0.0
 11
878.182501379
 21
705.0
 31
0.0
  0
LINE
  8
0
  6
CONTINUOUS
 62
     1
 10
832.182501379
 20
705.0
 30
0.0
 11
818.182501379
 21
705.0
 31
0.0
  0
LINE
  8
0
  6
CONTINUOUS
 62
     1
 10
832.182501379
 20
620.0
 30
0.0
 11
832.182501379
 21
705.0
 31
0.0
  0
LINE
  8
0
  6
CONTINUOUS
 62
     1
 10
818.182501379
 20
620.5
 30
0.0
 11
818.182501379
 21
705.0
 31
0.0
  0
LINE
  8
0
  6
CONTINUOUS
 62
     1
 10
892.182501379
 20
620.0
 30
0.0
 11
892.182501379
 21
705.0
 31
0.0
  0
LINE
  8
0
  6
CONTINUOUS
 62
     1
 10
892.182501379
 20
685.0
 30
0.0
 11
878.182501379
 21
685.0
 31
0.0
  0
LINE
  8
0
  6
CONTINUOUS
 62
     1
 10
832.182501379
 20
685.0
 30
0.0
 11
818.182501379
 21
685.0
 31
0.0
  0
LINE
  8
0
  6
LTYPE2
 62
     2
 10
675.032501379
 20
659.25
 30
0.0
 11
675.032501379
 21
764.9
 31
0.0
  0
LINE
  8
0
  6
LTYPE1
 62
     2
 10
679.032501379
 20
705.0
 30
0.0
 11
679.032501379
 21
761.50001079
 31
0.0
  0
LINE
  8
0
  6
LTYPE1
 62
     2
 10
671.032501379
 20
705.0
 30
0.0
 11
671.032501379
 21
761.50001079
 31
0.0
  0
ARC
  8
0
  6
LTYPE1
 62
     2
 10
675.032501379
 20
761.5
 30
0.0
 40
4.0
 50
0.00015455
 51
179.99984545
  0
LINE
  8
0
  6
LTYPE1
 62
     2
 10
668.032501379
 20
620.5
 30
0.0
 11
668.032501379
 21
705.0
 31
0.0
  0
LINE
  8
0
  6
LTYPE1
 62
     2
 10
682.032501379
 20
614.0
 30
0.0
 11
682.032501379
 21
705.0
 31
0.0
  0
LINE
  8
0
  6
LTYPE1
 62
     2
 10
682.032501379
 20
705.0
 30
0.0
 11
668.032501379
 21
705.0
 31
0.0
  0
LINE
  8
0
  6
CONTINUOUS
 62
     2
 10
619.0
 20
636.5
 30
0.0
 11
630.980916594
 21
635.823510848
 31
0.0
  0
LINE
  8
0
  6
CONTINUOUS
 62
     2
 10
619.0
 20
636.5
 30
0.0
 11
629.714022707
 21
641.904601506
 31
0.0
  0
LINE
  8
0
  6
CONTINUOUS
 62
     2
 10
619.0
 20
636.5
 30
0.0
 11
703.0
 21
654.0
 31
0.0
  0
LINE
  8
0
  6
LTYPE4
 62
     2
 10
674.032501379
 20
601.35
 30
0.0
 11
674.032501379
 21
625.65
 31
0.0
  0
LINE
  8
0
  6
LTYPE1
 62
     2
 10
682.032501379
 20
685.0
 30
0.0
 11
668.032501379
 21
685.0
 31
0.0
  0
LINE
  8
0
  6
LTYPE4
 62
     2
 10
427.532501379
 20
600.0
 30
0.0
 11
814.792501379
 21
600.0
 31
0.0
  0
LINE
  8
0
  6
LTYPE1
 62
     2
 10
682.032501379
 20
614.0
 30
0.0
 11
447.032501379
 21
614.0
 31
0.0
  0
LINE
  8
0
  6
LTYPE1
 62
     2
 10
682.032501379
 20
620.0
 30
0.0
 11
447.032501379
 21
620.0
 31
0.0
  0
LINE
  8
0
  6
LTYPE2
 62
     2
 10
455.682501379
 20
572.0
 30
0.0
 11
1047.032501379
 21
572.0
 31
0.0
  0
LINE
  8
0
  6
LTYPE1
 62
     2
 10
510.032501379
 20
608.0
 30
0.0
 11
782.482501379
 21
608.0
 31
0.0
  0
LINE
  8
0
  6
LTYPE1
 62
     2
 10
510.032501379
 20
592.0
 30
0.0
 11
782.482501379
 21
592.0
 31
0.0
  0
LINE
  8
0
  6
CONTINUOUS
 62
     1
 10
552.032501379
 20
580.0
 30
0.0
 11
807.882501379
 21
580.0
 31
0.0
  0
LINE
  8
0
  6
CONTINUOUS
 62
     1
 10
552.032501379
 20
564.0
 30
0.0
 11
839.182501379
 21
564.0
 31
0.0
  0
LINE
  8
0
  6
LTYPE1
 62
     2
 10
666.532501379
 20
614.0
 30
0.0
 11
666.532501379
 21
609.4
 31
0.0
  0
ARC
  8
0
  6
LTYPE1
 62
     2
 10
668.332501379
 20
611.5
 30
0.0
 40
2.8
 50
228.5
 51
311.5
  0
LINE
  8
0
  6
LTYPE1
 62
     2
 10
679.732501379
 20
608.7
 30
0.0
 11
668.332501379
 21
608.7
 31
0.0
  0
LINE
  8
0
  6
LTYPE1
 62
     2
 10
681.532501379
 20
614.0
 30
0.0
 11
681.532501379
 21
609.4
 31
0.0
  0
LINE
  8
0
  6
LTYPE1
 62
     2
 10
670.232501379
 20
614.0
 30
0.0
 11
670.232501379
 21
609.4
 31
0.0
  0
LINE
  8
0
  6
LTYPE1
 62
     2
 10
677.832501379
 20
614.0
 30
0.0
 11
677.832501379
 21
609.4
 31
0.0
  0
ARC
  8
0
  6
LTYPE1
 62
     2
 10
674.032501379
 20
619.4
 30
0.0
 40
10.7
 50
249.1
 51
290.9
  0
ARC
  8
0
  6
LTYPE1
 62
     2
 10
679.732501379
 20
611.5
 30
0.0
 40
2.8
 50
228.5
 51
311.5
  0
LINE
  8
0
  6
LTYPE1
 62
     2
 10
674.032501379
 20
605.2
 30
0.0
 11
674.032501379
 21
617.0
 31
0.0
  0
LINE
  8
0
  6
CONTINUOUS
 62
     1
 10
871.182501379
 20
566.0
 30
0.0
 11
947.182501379
 21
566.0
 31
0.0
  0
CIRCLE
  8
0
  6
CONTINUOUS
 62
     2
 10
968.182501379
 20
572.0
 30
0.0
 40
5.0
  0
CIRCLE
  8
0
  6
CONTINUOUS
 62
     2
 10
968.182501379
 20
572.0
 30
0.0
 40
4.0
  0
LINE
  8
0
  6
LTYPE2
 62
     2
 10
968.182501379
 20
562.0
 30
0.0
 11
968.182501379
 21
582.0
 31
0.0
  0
LINE
  8
0
  6
CONTINUOUS
 62
     1
 10
902.482501379
 20
578.0
 30
0.0
 11
947.182501379
 21
578.0
 31
0.0
  0
LINE
  8
0
  6
LTYPE1
 62
     2
 10
947.182501379
 20
578.0
 30
0.0
 11
989.182501379
 21
578.0
 31
0.0
  0
LINE
  8
0
  6
LTYPE1
 62
     2
 10
947.182501379
 20
566.0
 30
0.0
 11
989.182501379
 21
566.0
 31
0.0
  0
LINE
  8
0
  6
CONTINUOUS
 62
     1
 10
989.182501379
 20
578.0
 30
0.0
 11
1015.0
 21
578.0
 31
0.0
  0
LINE
  8
0
  6
CONTINUOUS
 62
     1
 10
989.182501379
 20
566.0
 30
0.0
 11
1015.0
 21
566.0
 31
0.0
  0
LINE
  8
0
  6
CONTINUOUS
 62
     2
 10
703.0
 20
654.0
 30
0.0
 11
784.0
 21
654.0
 31
0.0
  0
TEXT
  8
0
  6
CONTINUOUS
 62
     3
 10
703.0
 20
657.0
 30
0.0
 40
18.0
  1
ＰＦ１／２
 50
0.0
 41
0.9
 51
0.0
  7
KANJI20
  0
LINE
  8
0
  6
LTYPE1
 62
     2
 10
447.032501379
 20
587.0
 30
0.0
 11
463.032501379
 21
587.0
 31
0.0
  0
LINE
  8
0
  6
LTYPE1
 62
     2
 10
463.032501379
 20
589.6
 30
0.0
 11
469.532501379
 21
589.6
 31
0.0
  0
ARC
  8
0
  6
LTYPE1
 62
     2
 10
466.632501379
 20
592.2
 30
0.0
 40
3.9
 50
317.9
 51
42.1
  0
LINE
  8
0
  6
LTYPE1
 62
     2
 10
463.032501379
 20
587.0
 30
0.0
 11
463.032501379
 21
614.0
 31
0.0
  0
LINE
  8
0
  6
LTYPE1
 62
     2
 10
463.032501379
 20
610.4
 30
0.0
 11
463.032501379
 21
589.6
 31
0.0
  0
LINE
  8
0
  6
LTYPE1
 62
     2
 10
475.532501379
 20
581.8
 30
0.0
 11
469.918142025
 21
581.8
 31
0.0
  0
LINE
  8
0
  6
LTYPE1
 62
     2
 10
468.532501379
 20
579.4
 30
0.0
 11
469.918142025
 21
581.8
 31
0.0
  0
LINE
  8
0
  6
LTYPE1
 62
     2
 10
468.532501379
 20
579.4
 30
0.0
 11
469.918142025
 21
581.8
 31
0.0
  0
LINE
  8
0
  6
LTYPE1
 62
     2
 10
468.532501379
 20
572.0
 30
0.0
 11
468.532501379
 21
579.4
 31
0.0
  0
LINE
  8
0
  6
LTYPE1
 62
     2
 10
475.532501379
 20
576.9
 30
0.0
 11
469.918142025
 21
576.9
 31
0.0
  0
ARC
  8
0
  6
LTYPE1
 62
     2
 10
471.390385212
 20
579.35
 30
0.0
 40
2.858321186
 50
177.010501597
 51
238.997686085
  0
LINE
  8
0
  6
LTYPE1
 62
     2
 10
460.032501379
 20
576.0
 30
0.0
 11
468.532501379
 21
576.0
 31
0.0
  0
ARC
  8
0
  6
LTYPE1
 62
     2
 10
477.889184179
 20
572.0
 30
0.0
 40
9.3566828
 50
148.419912243
 51
211.580087757
  0
LINE
  8
0
  6
LTYPE1
 62
     2
 10
460.032501379
 20
568.0
 30
0.0
 11
460.032501379
 21
576.0
 31
0.0
  0
LINE
  8
0
  6
LTYPE1
 62
     2
 10
475.532501379
 20
562.2
 30
0.0
 11
469.918142025
 21
562.2
 31
0.0
  0
LINE
  8
0
  6
LTYPE1
 62
     2
 10
468.532501379
 20
564.6
 30
0.0
 11
469.918142025
 21
562.2
 31
0.0
  0
LINE
  8
0
  6
LTYPE1
 62
     2
 10
468.532501379
 20
572.0
 30
0.0
 11
468.532501379
 21
564.6
 31
0.0
  0
LINE
  8
0
  6
LTYPE1
 62
     2
 10
475.532501379
 20
567.1
 30
0.0
 11
469.918142025
 21
567.1
 31
0.0
  0
ARC
  8
0
  6
LTYPE1
 62
     2
 10
471.390385212
 20
564.65
 30
0.0
 40
2.858321186
 50
121.002313915
 51
182.989498403
  0
LINE
  8
0
  6
LTYPE1
 62
     2
 10
460.032501379
 20
568.0
 30
0.0
 11
468.532501379
 21
568.0
 31
0.0
  0
LINE
  8
0
  6
LTYPE1
 62
     2
 10
460.032501379
 20
569.0
 30
0.0
 11
468.532501379
 21
569.0
 31
0.0
  0
LINE
  8
0
  6
LTYPE1
 62
     2
 10
460.032501379
 20
575.0
 30
0.0
 11
468.532501379
 21
575.0
 31
0.0
  0
LINE
  8
0
  6
LTYPE1
 62
     2
 10
478.032501379
 20
559.0
 30
0.0
 11
510.032501379
 21
559.0
 31
0.0
  0
LINE
  8
0
  6
LTYPE1
 62
     2
 10
478.032501379
 20
581.2
 30
0.0
 11
475.532501379
 21
581.2
 31
0.0
  0
LINE
  8
0
  6
LTYPE1
 62
     2
 10
475.532501379
 20
572.0
 30
0.0
 11
475.532501379
 21
581.8
 31
0.0
  0
LINE
  8
0
  6
LTYPE1
 62
     2
 10
478.032501379
 20
559.0
 30
0.0
 11
478.032501379
 21
612.0
 31
0.0
  0
LINE
  8
0
  6
LTYPE1
 62
     2
 10
475.532501379
 20
572.0
 30
0.0
 11
475.532501379
 21
562.2
 31
0.0
  0
LINE
  8
0
  6
LTYPE1
 62
     2
 10
478.032501379
 20
562.8
 30
0.0
 11
475.532501379
 21
562.8
 31
0.0
  0
LINE
  8
0
  6
LTYPE1
 62
     2
 10
478.032501379
 20
572.0
 30
0.0
 11
475.532501384
 21
569.500000004
 31
0.0
  0
LINE
  8
0
  6
LTYPE1
 62
     2
 10
475.532501384
 20
572.0
 30
0.0
 11
478.032501379
 21
574.499999996
 31
0.0
  0
LINE
  8
0
  6
CONTINUOUS
 62
     1
 10
496.532501379
 20
580.55
 30
0.0
 11
496.532501379
 21
564.55
 31
0.0
  0
LINE
  8
0
  6
CONTINUOUS
 62
     1
 10
496.532501379
 20
580.55
 30
0.0
 11
510.032501379
 21
580.55
 31
0.0
  0
LINE
  8
0
  6
CONTINUOUS
 62
     1
 10
496.532501379
 20
564.55
 30
0.0
 11
510.032501379
 21
564.55
 31
0.0
  0
LINE
  8
0
  6
CONTINUOUS
 62
     1
 10
510.032501379
 20
583.0
 30
0.0
 11
518.692755417
 21
588.0
 31
0.0
  0
LINE
  8
0
  6
CONTINUOUS
 62
     1
 10
510.032501379
 20
561.0
 30
0.0
 11
510.032501379
 21
583.0
 31
0.0
  0
LINE
  8
0
  6
CONTINUOUS
 62
     1
 10
510.032501379
 20
561.0
 30
0.0
 11
518.692755417
 21
556.0
 31
0.0
  0
LINE
  8
0
  6
LTYPE1
 62
     2
 10
510.032501379
 20
559.0
 30
0.0
 11
510.032501379
 21
612.0
 31
0.0
  0
LINE
  8
0
  6
CONTINUOUS
 62
     1
 10
543.382501379
 20
556.0
 30
0.0
 11
543.382501379
 21
588.0
 31
0.0
  0
LINE
  8
0
  6
CONTINUOUS
 62
     1
 10
518.682501379
 20
556.0
 30
0.0
 11
543.382501379
 21
556.0
 31
0.0
  0
LINE
  8
0
  6
CONTINUOUS
 62
     1
 10
552.032501379
 20
561.0
 30
0.0
 11
543.372247342
 21
556.0
 31
0.0
  0
LINE
  8
0
  6
LTYPE4
 62
     2
 10
531.032501379
 20
562.0
 30
0.0
 11
531.032501379
 21
582.0
 31
0.0
  0
LINE
  8
0
  6
CONTINUOUS
 62
     1
 10
518.682501379
 20
588.0
 30
0.0
 11
543.382501379
 21
588.0
 31
0.0
  0
LINE
  8
0
  6
CONTINUOUS
 62
     1
 10
552.032501379
 20
583.0
 30
0.0
 11
543.372247342
 21
588.0
 31
0.0
  0
CIRCLE
  8
0
  6
CONTINUOUS
 62
     2
 10
531.032501379
 20
572.0
 30
0.0
 40
5.0
  0
CIRCLE
  8
0
  6
CONTINUOUS
 62
     2
 10
531.032501379
 20
572.0
 30
0.0
 40
4.0
  0
LINE
  8
0
  6
CONTINUOUS
 62
     1
 10
552.032501379
 20
561.0
 30
0.0
 11
552.032501379
 21
583.0
 31
0.0
  0
LINE
  8
0
  6
CONTINUOUS
 62
     1
 10
518.682501379
 20
556.0
 30
0.0
 11
518.682501379
 21
588.0
 31
0.0
  0
LINE
  8
0
  6
LTYPE2
 62
     2
 10
466.032501379
 20
600.0
 30
0.0
 11
477.532501379
 21
600.0
 31
0.0
  0
LINE
  8
0
  6
LTYPE1
 62
     2
 10
470.532501379
 20
603.0
 30
0.0
 11
478.032501379
 21
603.0
 31
0.0
  0
LINE
  8
0
  6
LTYPE1
 62
     2
 10
463.032501379
 20
594.8
 30
0.0
 11
469.532501379
 21
594.8
 31
0.0
  0
LINE
  8
0
  6
LTYPE1
 62
     2
 10
470.532501379
 20
597.0
 30
0.0
 11
478.032501379
 21
597.0
 31
0.0
  0
LINE
  8
0
  6
LTYPE1
 62
     2
 10
470.532501379
 20
596.0
 30
0.0
 11
478.032501379
 21
596.0
 31
0.0
  0
ARC
  8
0
  6
LTYPE1
 62
     2
 10
456.532501379
 20
600.0
 30
0.0
 40
14.0
 50
338.2
 51
21.8
  0
LINE
  8
0
  6
LTYPE1
 62
     2
 10
470.532501379
 20
592.2
 30
0.0
 11
470.532501379
 21
607.8
 31
0.0
  0
LINE
  8
0
  6
LTYPE1
 62
     2
 10
478.032501379
 20
594.0
 30
0.0
 11
510.032501379
 21
594.0
 31
0.0
  0
LINE
  8
0
  6
LTYPE1
 62
     2
 10
478.032501379
 20
603.0
 30
0.0
 11
483.032501379
 21
603.0
 31
0.0
  0
LINE
  8
0
  6
LTYPE1
 62
     2
 10
478.032501379
 20
596.0
 30
0.0
 11
483.032501379
 21
596.0
 31
0.0
  0
LINE
  8
0
  6
LTYPE1
 62
     2
 10
478.032501379
 20
597.0
 30
0.0
 11
483.032501379
 21
597.0
 31
0.0
  0
LINE
  8
0
  6
LTYPE1
 62
     2
 10
483.032501379
 20
594.0
 30
0.0
 11
483.032501379
 21
606.0
 31
0.0
  0
LINE
  8
0
  6
LTYPE1
 62
     2
 10
455.032501379
 20
625.4999
 30
0.0
 11
449.373721379
 21
625.4999
 31
0.0
  0
ARC
  8
0
  6
LTYPE1
 62
     2
 10
449.411956379
 20
623.314476233
 30
0.0
 40
2.185758211
 50
31.002313915
 51
92.989498403
  0
ARC
  8
0
  6
LTYPE1
 62
     2
 10
466.632501379
 20
607.8
 30
0.0
 40
3.9
 50
317.9
 51
42.1
  0
LINE
  8
0
  6
LTYPE1
 62
     2
 10
469.532501379
 20
605.2
 30
0.0
 11
463.032501379
 21
605.2
 31
0.0
  0
LINE
  8
0
  6
LTYPE1
 62
     2
 10
470.532501379
 20
604.0
 30
0.0
 11
478.032501379
 21
604.0
 31
0.0
  0
LINE
  8
0
  6
LTYPE1
 62
     2
 10
510.032501379
 20
606.0
 30
0.0
 11
478.032501379
 21
606.0
 31
0.0
  0
LINE
  8
0
  6
LTYPE1
 62
     2
 10
478.032501379
 20
604.0
 30
0.0
 11
483.032501379
 21
604.0
 31
0.0
  0
LINE
  8
0
  6
LTYPE1
 62
     2
 10
463.032501379
 20
610.4
 30
0.0
 11
469.532501379
 21
610.4
 31
0.0
  0
ARC
  8
0
  6
LTYPE1
 62
     2
 10
455.032501379
 20
618.344844663
 30
0.0
 40
7.155055337
 50
58.419912243
 51
121.580087757
  0
LINE
  8
0
  6
LTYPE1
 62
     2
 10
460.691281379
 20
625.4999
 30
0.0
 11
462.526561379
 21
624.440300598
 31
0.0
  0
LINE
  8
0
  6
LTYPE1
 62
     2
 10
455.032501379
 20
625.4999
 30
0.0
 11
460.691281379
 21
625.4999
 31
0.0
  0
LINE
  8
0
  6
LTYPE1
 62
     2
 10
460.691281379
 20
625.4999
 30
0.0
 11
462.526561379
 21
624.440300598
 31
0.0
  0
ARC
  8
0
  6
LTYPE1
 62
     2
 10
460.653046379
 20
623.314476233
 30
0.0
 40
2.185758211
 50
87.010501597
 51
148.997686085
  0
LINE
  8
0
  6
LTYPE1
 62
     2
 10
458.779531379
 20
620.0
 30
0.0
 11
458.779531379
 21
624.440300598
 31
0.0
  0
LINE
  8
0
  6
LTYPE1
 62
     2
 10
462.526561379
 20
620.0
 30
0.0
 11
462.526561379
 21
624.440300598
 31
0.0
  0
LINE
  8
0
  6
LTYPE1
 62
     2
 10
510.032501379
 20
612.0
 30
0.0
 11
478.032501379
 21
612.0
 31
0.0
  0
LINE
  8
0
  6
LTYPE1
 62
     2
 10
455.032501379
 20
610.0
 30
0.0
 11
455.032501379
 21
626.0
 31
0.0
  0
LINE
  8
0
  6
LTYPE1
 62
     2
 10
451.285471379
 20
620.0
 30
0.0
 11
451.285471379
 21
624.440300598
 31
0.0
  0
LINE
  8
0
  6
LTYPE1
 62
     2
 10
444.532501379
 20
609.8
 30
0.0
 11
438.918142025
 21
609.8
 31
0.0
  0
LINE
  8
0
  6
LTYPE1
 62
     2
 10
444.532501379
 20
604.9
 30
0.0
 11
438.918142025
 21
604.9
 31
0.0
  0
LINE
  8
0
  6
LTYPE1
 62
     2
 10
444.532501379
 20
600.0
 30
0.0
 11
444.532501379
 21
609.8
 31
0.0
  0
LINE
  8
0
  6
LTYPE1
 62
     2
 10
447.032501379
 20
609.2
 30
0.0
 11
444.532501379
 21
609.2
 31
0.0
  0
LINE
  8
0
  6
LTYPE1
 62
     2
 10
444.532501384
 20
600.0
 30
0.0
 11
447.032501379
 21
602.499999996
 31
0.0
  0
LINE
  8
0
  6
LTYPE1
 62
     2
 10
444.532501379
 20
590.2
 30
0.0
 11
438.918142025
 21
590.2
 31
0.0
  0
LINE
  8
0
  6
LTYPE1
 62
     2
 10
444.532501379
 20
595.1
 30
0.0
 11
438.918142025
 21
595.1
 31
0.0
  0
LINE
  8
0
  6
LTYPE1
 62
     2
 10
444.532501379
 20
600.0
 30
0.0
 11
444.532501379
 21
590.2
 31
0.0
  0
LINE
  8
0
  6
LTYPE1
 62
     2
 10
447.032501379
 20
600.0
 30
0.0
 11
444.532501384
 21
597.500000004
 31
0.0
  0
LINE
  8
0
  6
LTYPE1
 62
     2
 10
447.032501379
 20
590.8
 30
0.0
 11
444.532501379
 21
590.8
 31
0.0
  0
LINE
  8
0
  6
LTYPE1
 62
     2
 10
437.532501379
 20
600.0
 30
0.0
 11
437.532501379
 21
607.4
 31
0.0
  0
LINE
  8
0
  6
LTYPE1
 62
     2
 10
437.532501379
 20
607.4
 30
0.0
 11
438.918142025
 21
609.8
 31
0.0
  0
LINE
  8
0
  6
LTYPE1
 62
     2
 10
437.532501379
 20
607.4
 30
0.0
 11
438.918142025
 21
609.8
 31
0.0
  0
ARC
  8
0
  6
LTYPE1
 62
     2
 10
440.390385212
 20
607.35
 30
0.0
 40
2.858321186
 50
177.010501597
 51
238.997686085
  0
LINE
  8
0
  6
LTYPE1
 62
     2
 10
433.032501379
 20
604.0
 30
0.0
 11
437.532501379
 21
604.0
 31
0.0
  0
LINE
  8
0
  6
LTYPE1
 62
     2
 10
433.032501379
 20
603.0
 30
0.0
 11
437.532501379
 21
603.0
 31
0.0
  0
LINE
  8
0
  6
LTYPE1
 62
     2
 10
437.532501379
 20
592.6
 30
0.0
 11
438.918142025
 21
590.2
 31
0.0
  0
LINE
  8
0
  6
LTYPE1
 62
     2
 10
437.532501379
 20
600.0
 30
0.0
 11
437.532501379
 21
592.6
 31
0.0
  0
ARC
  8
0
  6
LTYPE1
 62
     2
 10
440.390385212
 20
592.65
 30
0.0
 40
2.858321186
 50
121.002313915
 51
182.989498403
  0
LINE
  8
0
  6
LTYPE1
 62
     2
 10
433.032501379
 20
596.0
 30
0.0
 11
437.532501379
 21
596.0
 31
0.0
  0
LINE
  8
0
  6
LTYPE1
 62
     2
 10
433.032501379
 20
597.0
 30
0.0
 11
437.532501379
 21
597.0
 31
0.0
  0
ARC
  8
0
  6
LTYPE1
 62
     2
 10
446.889184179
 20
600.0
 30
0.0
 40
9.3566828
 50
148.419912243
 51
211.580087757
  0
LINE
  8
0
  6
LTYPE1
 62
     2
 10
433.032501379
 20
596.0
 30
0.0
 11
433.032501379
 21
604.0
 31
0.0
  0
LINE
  8
0
  6
LTYPE1
 62
     2
 10
449.373721379
 20
625.4999
 30
0.0
 11
447.538441379
 21
624.440300598
 31
0.0
  0
LINE
  8
0
  6
LTYPE1
 62
     2
 10
447.538441379
 20
620.0
 30
0.0
 11
447.538441379
 21
624.440300598
 31
0.0
  0
LINE
  8
0
  6
LTYPE1
 62
     2
 10
447.032501379
 20
587.0
 30
0.0
 11
447.032501379
 21
620.0
 31
0.0
  0
LINE
  8
0
  6
CONTINUOUS
 62
     2
 10
499.292647059
 20
629.7
 30
0.0
 11
578.8
 21
629.7
 31
0.0
  0
TEXT
  8
0
  6
CONTINUOUS
 62
     2
 10
499.3
 20
631.7
 30
0.0
 40
15.0
  1
推力リミッタ
 50
0.0
 41
0.92
 51
0.0
  7
KANJI45
  0
LINE
  8
0
  6
CONTINUOUS
 62
     1
 10
1315.322294753
 20
748.262575811
 30
0.0
 11
1302.567368687
 21
700.660543685
 31
0.0
  0
LINE
  8
0
  6
LTYPE2
 62
     2
 10
1301.031178551
 20
708.836735944
 30
0.0
 11
1357.054876475
 21
693.825231328
 31
0.0
  0
LINE
  8
0
  6
CONTINUOUS
 62
     1
 10
1306.449654363
 20
715.149431079
 30
0.0
 11
1332.722836839
 21
708.109553052
 31
0.0
  0
LINE
  8
0
  6
CONTINUOUS
 62
     1
 10
1302.567368687
 20
700.660543685
 30
0.0
 11
1328.840551162
 21
693.620665658
 31
0.0
  0
LINE
  8
0
  6
CONTINUOUS
 62
     1
 10
1349.361513714
 20
670.522395247
 30
0.0
 11
1355.157068671
 21
668.969480977
 31
0.0
  0
LINE
  8
0
  6
LTYPE2
 62
     2
 10
1355.078560547
 20
678.722113261
 30
0.0
 11
1309.680046711
 21
690.886608381
 31
0.0
  0
LINE
  8
0
  6
LTYPE2
 62
     2
 10
1318.4623077
 20
719.79874929
 30
0.0
 11
1363.860821535
 21
707.63425417
 31
0.0
  0
LINE
  8
0
  6
CONTINUOUS
 62
     1
 10
1360.878961221
 20
713.506094517
 30
0.0
 11
1350.526199416
 21
674.869061466
 31
0.0
  0
LINE
  8
0
  6
CONTINUOUS
 62
     1
 10
1350.526199416
 20
674.869061466
 30
0.0
 11
1350.622791999
 21
674.843179561
 31
0.0
  0
LINE
  8
0
  6
CONTINUOUS
 62
     1
 10
1311.889166365
 20
685.22182327
 30
0.0
 11
1350.526199416
 21
674.869061466
 31
0.0
  0
LINE
  8
0
  6
CONTINUOUS
 62
     1
 10
1360.878961221
 20
713.506094517
 30
0.0
 11
1322.241928169
 21
723.858856321
 31
0.0
  0
LINE
  8
0
  6
CONTINUOUS
 62
     1
 10
1319.34415069
 20
724.635313457
 30
0.0
 11
1316.108912626
 21
712.561240628
 31
0.0
  0
LINE
  8
0
  6
CONTINUOUS
 62
     1
 10
1333.551057783
 20
711.200515696
 30
0.0
 11
1328.012330218
 21
690.529703014
 31
0.0
  0
ARC
  8
0
  6
CONTINUOUS
 62
     1
 10
1335.482909435
 20
710.682877606
 30
0.0
 40
2.0
 50
75.0
 51
165.0
  0
LINE
  8
0
  6
CONTINUOUS
 62
     1
 10
1329.42654378
 20
688.080213271
 30
0.0
 11
1350.097356463
 21
682.541485706
 31
0.0
  0
ARC
  8
0
  6
CONTINUOUS
 62
     1
 10
1350.614994553
 20
684.473337358
 30
0.0
 40
2.0
 50
255.0
 51
345.0
  0
LINE
  8
0
  6
LTYPE2
 62
     2
 10
1339.399603458
 20
683.958553332
 30
0.0
 11
1346.750064339
 21
711.390846798
 31
0.0
  0
LINE
  8
0
  6
CONTINUOUS
 62
     1
 10
1327.0715573
 20
722.564761096
 30
0.0
 11
1323.810437332
 21
710.394095685
 31
0.0
  0
LINE
  8
0
  6
CONTINUOUS
 62
     1
 10
1322.241928169
 20
723.858856321
 30
0.0
 11
1319.006690105
 21
711.784783493
 31
0.0
  0
LINE
  8
0
  6
CONTINUOUS
 62
     1
 10
1336.000547526
 20
712.614729259
 30
0.0
 11
1356.671360208
 21
707.076001694
 31
0.0
  0
LINE
  8
0
  6
CONTINUOUS
 62
     1
 10
1358.085573771
 20
704.626511951
 30
0.0
 11
1352.546846205
 21
683.955699268
 31
0.0
  0
ARC
  8
0
  6
CONTINUOUS
 62
     1
 10
1356.153722118
 20
705.144150041
 30
0.0
 40
2.0
 50
345.0
 51
75.0
  0
LINE
  8
0
  6
CONTINUOUS
 62
     1
 10
1316.108912626
 20
712.561240628
 30
0.0
 11
1312.22662695
 21
698.072353234
 31
0.0
  0
ARC
  8
0
  6
CONTINUOUS
 62
     1
 10
1329.94418187
 20
690.012064924
 30
0.0
 40
2.0
 50
165.0
 51
255.0
  0
LINE
  8
0
  6
CONTINUOUS
 62
     1
 10
1319.95403356
 20
696.001800873
 30
0.0
 11
1316.718795496
 21
683.927728044
 31
0.0
  0
LINE
  8
0
  6
CONTINUOUS
 62
     1
 10
1315.098522524
 20
697.199303516
 30
0.0
 11
1311.889166365
 21
685.22182327
 31
0.0
  0
LINE
  8
0
  6
CONTINUOUS
 62
     1
 10
1319.709782622
 20
734.113647344
 30
0.0
 11
1319.34415069
 21
724.635313457
 31
0.0
  0
LINE
  8
0
  6
LTYPE3
 62
     2
 10
1324.433594693
 20
735.901970447
 30
0.0
 11
1337.374546948
 21
784.198261762
 31
0.0
  0
ARC
  8
0
  6
LTYPE1
 62
     1
 10
1331.111126057
 20
760.822856765
 30
0.0
 40
16.0
 50
255.0
 51
129.340912304
  0
ARC
  8
0
  6
CONTINUOUS
 62
     1
 10
1331.111126057
 20
760.822856765
 30
0.0
 40
16.0
 50
129.340912304
 51
200.659087696
  0
LINE
  8
0
  6
CONTINUOUS
 62
     1
 10
1322.596768035
 20
744.501653255
 30
0.0
 11
1319.806375205
 21
734.08776544
 31
0.0
  0
LINE
  8
0
  6
LTYPE2
 62
     2
 10
1313.184524248
 20
744.920751635
 30
0.0
 11
1331.730300112
 21
739.951425969
 31
0.0
  0
LINE
  8
0
  6
LTYPE1
 62
     2
 10
1324.818671407
 20
750.862057877
 30
0.0
 11
1331.580152191
 21
749.050324562
 31
0.0
  0
LINE
  8
0
  6
LTYPE1
 62
     2
 10
1331.580152191
 20
749.050324562
 30
0.0
 11
1329.630921258
 21
741.775695683
 31
0.0
  0
ARC
  8
0
  6
LTYPE1
 62
     1
 10
1331.111126057
 20
760.822856765
 30
0.0
 40
16.0
 50
200.659087696
 51
255.0
  0
LINE
  8
0
  6
LTYPE1
 62
     1
 10
1315.637730465
 20
749.439797912
 30
0.0
 11
1315.322294753
 21
748.262575811
 31
0.0
  0
LINE
  8
0
  6
LTYPE1
 62
     1
 10
1323.365137075
 20
747.369245551
 30
0.0
 11
1322.596768035
 21
744.501653255
 31
0.0
  0
LINE
  8
0
  6
LTYPE1
 62
     1
 10
1315.637730465
 20
749.439797912
 30
0.0
 11
1325.216494909
 21
746.873175715
 31
0.0
  0
CIRCLE
  8
0
  6
CONTINUOUS
 62
     1
 10
1331.111126057
 20
760.822856765
 30
0.0
 40
6.49995
  0
CIRCLE
  8
0
  6
LTYPE1
 62
     2
 10
1331.111126057
 20
760.822856765
 30
0.0
 40
3.2
  0
CIRCLE
  8
0
  6
CONTINUOUS
 62
     1
 10
1331.111126057
 20
760.822856765
 30
0.0
 40
4.0
  0
LINE
  8
0
  6
CONTINUOUS
 62
     1
 10
1333.048168253
 20
753.574584464
 30
0.0
 11
1325.809462156
 21
755.514189917
 31
0.0
  0
LINE
  8
0
  6
CONTINUOUS
 62
     1
 10
1325.809462156
 20
755.514189917
 30
0.0
 11
1323.872419959
 21
762.762462219
 31
0.0
  0
LINE
  8
0
  6
CONTINUOUS
 62
     1
 10
1333.048168253
 20
753.574584464
 30
0.0
 11
1338.349832154
 21
758.883251312
 31
0.0
  0
LINE
  8
0
  6
CONTINUOUS
 62
     1
 10
1329.630921258
 20
741.775695683
 30
0.0
 11
1327.050818902
 21
732.146622602
 31
0.0
  0
LINE
  8
0
  6
CONTINUOUS
 62
     1
 10
1320.289338118
 20
733.958355917
 30
0.0
 11
1327.050818902
 21
732.146622602
 31
0.0
  0
LINE
  8
0
  6
CONTINUOUS
 62
     1
 10
1329.17408386
 20
768.071129067
 30
0.0
 11
1323.872419959
 21
762.762462219
 31
0.0
  0
LINE
  8
0
  6
CONTINUOUS
 62
     1
 10
1336.412789958
 20
766.131523613
 30
0.0
 11
1338.349832154
 21
758.883251312
 31
0.0
  0
LINE
  8
0
  6
CONTINUOUS
 62
     1
 10
1336.412789958
 20
766.131523613
 30
0.0
 11
1329.17408386
 21
768.071129067
 31
0.0
  0
LINE
  8
0
  6
LTYPE1
 62
     2
 10
1330.642099922
 20
772.595388969
 30
0.0
 11
1337.403580706
 21
770.783655653
 31
0.0
  0
LINE
  8
0
  6
LTYPE1
 62
     2
 10
1339.352811639
 20
778.058284533
 30
0.0
 11
1337.403580706
 21
770.783655653
 31
0.0
  0
LINE
  8
7
  6
CONTINUOUS
 62
     2
 10
1313.917646349
 20
765.429835768
 30
0.0
 11
1277.117646349
 21
847.429835768
 31
0.0
  0
LINE
  8
7
  6
CONTINUOUS
 62
     2
 10
1313.917646349
 20
765.429835768
 30
0.0
 11
1312.324070101
 21
775.302044981
 31
0.0
  0
LINE
  8
7
  6
CONTINUOUS
 62
     2
 10
1313.917646349
 20
765.429835768
 30
0.0
 11
1307.601464229
 21
773.182631614
 31
0.0
  0
TEXT
  8
7
  6
CONTINUOUS
 62
     2
 10
1288.623822488
 20
730.829880312
 30
0.0
 40
15.0
  1
約１５゜
 50
82.5
 41
0.9
 51
0.0
  7
KANJI28
  0
LINE
  8
0
  6
LTYPE2
 62
     2
 10
1329.12233613
 20
821.401769884
 30
0.0
 11
1385.146034055
 21
806.390265268
 31
0.0
  0
LINE
  8
0
  6
LTYPE2
 62
     2
 10
1348.485316932
 20
831.846145139
 30
0.0
 11
1393.883830767
 21
819.681650019
 31
0.0
  0
LINE
  8
0
  6
CONTINUOUS
 62
     1
 10
1390.901970452
 20
825.553490367
 30
0.0
 11
1352.264937401
 21
835.906252171
 31
0.0
  0
CIRCLE
  8
0
  6
CONTINUOUS
 62
     1
 10
1364.861591703
 20
811.825465215
 30
0.0
 40
9.36
  0
LINE
  8
0
  6
LTYPE2
 62
     2
 10
1368.226239289
 20
824.382500957
 30
0.0
 11
1361.496944116
 21
799.268429473
 31
0.0
  0
CIRCLE
  8
0
  6
CONTINUOUS
 62
     2
 10
1364.861591703
 20
811.825465215
 30
0.0
 40
10.47
  0
LINE
  8
0
  6
LTYPE2
 62
     2
 10
1321.219064069
 20
784.178950395
 30
0.0
 11
1342.083061916
 21
778.588459021
 31
0.0
  0
LINE
  8
0
  6
CONTINUOUS
 62
     1
 10
1331.898077468
 20
779.214612637
 30
0.0
 11
1334.688470298
 21
789.628500452
 31
0.0
  0
LINE
  8
0
  6
CONTINUOUS
 62
     1
 10
1323.717737529
 20
779.594794802
 30
0.0
 11
1336.472663595
 21
827.196826929
 31
0.0
  0
LINE
  8
0
  6
LTYPE1
 62
     1
 10
1331.129708428
 20
776.34702034
 30
0.0
 11
1331.898077468
 21
779.214612637
 31
0.0
  0
LINE
  8
0
  6
LTYPE1
 62
     1
 10
1323.402301818
 20
778.417572701
 30
0.0
 11
1332.981066262
 21
775.850950504
 31
0.0
  0
LINE
  8
0
  6
LTYPE1
 62
     2
 10
1332.176141971
 20
778.320511835
 30
0.0
 11
1331.612671341
 21
776.217610818
 31
0.0
  0
LINE
  8
0
  6
CONTINUOUS
 62
     1
 10
1335.171433211
 20
789.499090929
 30
0.0
 11
1341.932913995
 21
787.687357613
 31
0.0
  0
LINE
  8
0
  6
CONTINUOUS
 62
     1
 10
1334.591877716
 20
789.654382356
 30
0.0
 11
1339.014398118
 21
798.045676255
 31
0.0
  0
LINE
  8
0
  6
CONTINUOUS
 62
     1
 10
1341.932913995
 20
787.687357613
 30
0.0
 11
1338.638898324
 21
775.393923767
 31
0.0
  0
LINE
  8
0
  6
CONTINUOUS
 62
     1
 10
1332.590377919
 20
812.707939534
 30
0.0
 11
1345.147413661
 21
809.343291948
 31
0.0
  0
LINE
  8
0
  6
CONTINUOUS
 62
     1
 10
1339.014398118
 20
798.045676255
 30
0.0
 11
1342.249636182
 21
810.119749083
 31
0.0
  0
LINE
  8
0
  6
CONTINUOUS
 62
     1
 10
1357.094566532
 20
834.612156945
 30
0.0
 11
1346.741804728
 21
795.975123894
 31
0.0
  0
LINE
  8
0
  6
CONTINUOUS
 62
     1
 10
1355.782218313
 20
829.714406712
 30
0.0
 11
1346.741804728
 21
795.975123894
 31
0.0
  0
LINE
  8
0
  6
CONTINUOUS
 62
     1
 10
1352.264937401
 20
835.906252171
 30
0.0
 11
1341.912175597
 21
797.269219119
 31
0.0
  0
LINE
  8
0
  6
CONTINUOUS
 62
     1
 10
1336.472663595
 20
827.196826929
 30
0.0
 11
1349.029699337
 21
823.832179342
 31
0.0
  0
LINE
  8
0
  6
LTYPE2
 62
     2
 10
1385.101569779
 20
790.769509111
 30
0.0
 11
1339.703055943
 21
802.93400423
 31
0.0
  0
LINE
  8
0
  6
CONTINUOUS
 62
     1
 10
1341.912175597
 20
797.269219119
 30
0.0
 11
1380.549208648
 21
786.916457315
 31
0.0
  0
LINE
  8
0
  6
CONTINUOUS
 62
     1
 10
1367.363707665
 20
803.390453911
 30
0.0
 11
1379.920743407
 21
800.025806324
 31
0.0
  0
LINE
  8
0
  6
CONTINUOUS
 62
     1
 10
1387.038267147
 20
826.588766547
 30
0.0
 11
1376.685505343
 21
787.951733496
 31
0.0
  0
LINE
  8
0
  6
CONTINUOUS
 62
     1
 10
1371.245993342
 20
817.879341305
 30
0.0
 11
1383.803029084
 21
814.514693719
 31
0.0
  0
LINE
  8
0
  6
CONTINUOUS
 62
     1
 10
1373.787727864
 20
788.728190631
 30
0.0
 11
1377.022965928
 21
800.802263459
 31
0.0
  0
LINE
  8
0
  6
CONTINUOUS
 62
     1
 10
1392.066656155
 20
829.900156585
 30
0.0
 11
1397.862211113
 21
828.347242314
 31
0.0
  0
TEXT
  8
7
  6
CONTINUOUS
 62
     2
 10
1210.517091025
 20
851.429835768
 30
0.0
 40
15.0
  1
ＬＳユニット組付位置
 50
0.0
 41
0.9
 51
0.0
  7
KANJI28
  0
LINE
  8
0
  6
LTYPE1
 62
     1
 10
1335.959337559
 20
775.052925115
 30
0.0
 11
1336.274773271
 21
776.230147215
 31
0.0
  0
LINE
  8
0
  6
LTYPE3
 62
     2
 10
1307.5
 20
767.149438925
 30
0.0
 11
1483.163497148
 21
720.080546724
 31
0.0
  0
LINE
  8
0
  6
CONTINUOUS
 62
     1
 10
1315.318852251
 20
752.113431523
 30
0.0
 11
1321.789328379
 21
776.26157718
 31
0.0
  0
LINE
  8
0
  6
CONTINUOUS
 62
     1
 10
1323.987355887
 20
747.75954612
 30
0.0
 11
1320.289338118
 21
733.958355917
 31
0.0
  0
LINE
  8
0
  6
LTYPE1
 62
     2
 10
1324.818671407
 20
750.862057877
 30
0.0
 11
1323.987355887
 21
747.75954612
 31
0.0
  0
LINE
  8
0
  6
CONTINUOUS
 62
     1
 10
1335.171433211
 20
789.499090929
 30
0.0
 11
1331.473415442
 21
775.697900726
 31
0.0
  0
LINE
  8
0
  6
CONTINUOUS
 62
     1
 10
1321.789328379
 20
776.26157718
 30
0.0
 11
1462.463435192
 21
768.073435005
 31
0.0
  0
LINE
  8
0
  6
CONTINUOUS
 62
     1
 10
1315.318852251
 20
752.113431523
 30
0.0
 11
1441.240273494
 21
688.86751725
 31
0.0
  0
LINE
  8
0
  6
CONTINUOUS
 62
     1
 10
1370.06729627
 20
724.615207926
 30
0.0
 11
1355.157068671
 21
668.969480977
 31
0.0
  0
LINE
  8
0
  6
CONTINUOUS
 62
     1
 10
1349.361513714
 20
670.522395247
 30
0.0
 11
1364.592451868
 21
727.365030286
 31
0.0
  0
LINE
  8
0
  6
CONTINUOUS
 62
     1
 10
1376.835718001
 20
773.057521547
 30
0.0
 11
1392.066656155
 21
829.900156585
 31
0.0
  0
LINE
  8
0
  6
CONTINUOUS
 62
     1
 10
1397.862211113
 20
828.347242314
 30
0.0
 11
1382.951983515
 21
772.701515365
 31
0.0
  0
LINE
  8
0
  6
LTYPE4
 62
     2
 10
1463.004464167
 20
673.5
 30
0.0
 11
1487.882308775
 21
766.34538006
 31
0.0
  0
LINE
  8
0
  6
CONTINUOUS
 62
     1
 10
1463.939530411
 20
682.78526969
 30
0.0
 11
1485.16269211
 21
761.991187446
 31
0.0
  0
LINE
  8
0
  6
CONTINUOUS
 62
     1
 10
1466.83730789
 20
682.008812554
 30
0.0
 11
1488.060469589
 21
761.21473031
 31
0.0
  0
LINE
  8
0
  6
CONTINUOUS
 62
     1
 10
1488.060469589
 20
761.21473031
 30
0.0
 11
1520.418984769
 21
752.544292299
 31
0.0
  0
LINE
  8
0
  6
CONTINUOUS
 62
     1
 10
1462.463435192
 20
768.073435005
 30
0.0
 11
1485.16269211
 21
761.991187446
 31
0.0
  0
LINE
  8
0
  6
CONTINUOUS
 62
     1
 10
1466.83730789
 20
682.008812554
 30
0.0
 11
1499.195823071
 21
673.338374544
 31
0.0
  0
LINE
  8
0
  6
CONTINUOUS
 62
     1
 10
1441.240273494
 20
688.86751725
 30
0.0
 11
1463.939530411
 21
682.78526969
 31
0.0
  0
LINE
  8
0
  6
CONTINUOUS
 62
     1
 10
1367.933936227
 20
714.721548203
 30
0.0
 11
1394.979859363
 21
707.47461494
 31
0.0
  0
ARC
  8
0
  6
CONTINUOUS
 62
     1
 10
1395.497497453
 20
709.406466593
 30
0.0
 40
2.0
 50
255.0
 51
345.0
  0
LINE
  8
0
  6
CONTINUOUS
 62
     1
 10
1386.051269384
 20
782.336356043
 30
0.0
 11
1413.09719252
 21
775.08942278
 31
0.0
  0
LINE
  8
0
  6
CONTINUOUS
 62
     1
 10
1397.429349106
 20
708.888828502
 30
0.0
 11
1397.897755312
 21
710.636944264
 31
0.0
  0
ARC
  8
0
  6
CONTINUOUS
 62
     1
 10
1412.57955443
 20
773.157571128
 30
0.0
 40
2.0
 50
26.409622113
 51
75.0
  0
LINE
  8
0
  6
CONTINUOUS
 62
     1
 10
1383.461672308
 20
772.671848183
 30
0.0
 11
1386.051269384
 21
782.336356043
 31
0.0
  0
LINE
  8
0
  6
CONTINUOUS
 62
     1
 10
1367.933936227
 20
714.721548203
 30
0.0
 11
1370.550259183
 21
724.485798403
 31
0.0
  0
ARC
  8
0
  6
CONTINUOUS
 62
     1
 10
1429.545138047
 20
685.789562266
 30
0.0
 40
2.0
 50
165.0
 51
255.0
  0
ARC
  8
0
  6
CONTINUOUS
 62
     1
 10
1453.874128287
 20
776.586589937
 30
0.0
 40
2.0
 50
75.0
 51
165.0
  0
LINE
  8
0
  6
CONTINUOUS
 62
     1
 10
1427.613286394
 20
686.307200356
 30
0.0
 11
1429.834347656
 21
694.596313832
 31
0.0
  0
ARC
  8
0
  6
CONTINUOUS
 62
     1
 10
1476.0
 20
722.0
 30
0.0
 40
55.0
 50
209.179709638
 51
121.569008097
  0
LINE
  8
0
  6
CONTINUOUS
 62
     1
 10
1514.0
 20
728.588315007
 30
0.0
 11
1520.418984769
 21
752.544292299
 31
0.0
  0
LINE
  8
0
  6
CONTINUOUS
 62
     1
 10
1499.195823071
 20
673.338374544
 30
0.0
 11
1506.392304845
 21
700.196010162
 31
0.0
  0
LINE
  8
0
  6
CONTINUOUS
 62
     1
 10
1454.391766377
 20
778.518441589
 30
0.0
 11
1464.0
 21
775.943923149
 31
0.0
  0
LINE
  8
0
  6
CONTINUOUS
 62
     1
 10
1429.027499957
 20
683.857710613
 30
0.0
 11
1440.0
 21
680.917638087
 31
0.0
  0
LINE
  8
0
  6
CONTINUOUS
 62
     2
 10
1301.103699259
 20
768.863322543
 30
0.0
 11
1295.103699259
 21
758.471017697
 31
0.0
  0
LINE
  8
0
  6
CONTINUOUS
 62
     2
 10
1301.103699259
 20
768.863322543
 30
0.0
 11
1301.103699259
 21
756.863322543
 31
0.0
  0
ARC
  8
0
  6
CONTINUOUS
 62
     2
 10
1476.0
 20
722.0
 30
0.0
 40
181.065974199
 50
165.0
 51
180.0
  0
LINE
  8
0
  6
CONTINUOUS
 62
     2
 10
1294.934025801
 20
722.0
 30
0.0
 11
1298.039854343
 21
733.591109915
 31
0.0
  0
LINE
  8
0
  6
CONTINUOUS
 62
     2
 10
1294.934025801
 20
722.0
 30
0.0
 11
1291.82819726
 21
733.591109915
 31
0.0
  0
LINE
  8
0
  6
LTYPE3
 62
     2
 10
1563.5
 20
722.0
 30
0.0
 11
1286.308144302
 21
722.0
 31
0.0
  0
LINE
  8
0
  6
CONTINUOUS
 62
     2
 10
1309.308144302
 20
766.664948119
 30
0.0
 11
1295.308144302
 21
770.416236813
 31
0.0
  0
LINE
  8
0
  6
CONTINUOUS
 62
     1
 10
1450.038704471
 20
770.0
 30
0.0
 11
1451.942276634
 21
777.104228027
 31
0.0
  0
TEXT
  8
0
  6
CONTINUOUS
 62
     3
 10
178.466667
 20
952.266683
 30
1.5
 40
15.0
  1
手動軸□８
 50
0.0
 41
0.9
 51
0.0
  7
KANJI24
  0
LINE
  8
0
  6
CONTINUOUS
 62
     1
 10
947.182501379
 20
583.0
 30
0.0
 11
955.842755417
 21
588.0
 31
0.0
  0
LINE
  8
0
  6
CONTINUOUS
 62
     1
 10
955.832501379
 20
556.0
 30
0.0
 11
955.832501379
 21
588.0
 31
0.0
  0
LINE
  8
0
  6
CONTINUOUS
 62
     1
 10
955.832501379
 20
588.0
 30
0.0
 11
980.532501379
 21
588.0
 31
0.0
  0
LINE
  8
0
  6
CONTINUOUS
 62
     1
 10
947.182501379
 20
561.0
 30
0.0
 11
947.182501379
 21
583.0
 31
0.0
  0
LINE
  8
0
  6
CONTINUOUS
 62
     1
 10
980.532501379
 20
556.0
 30
0.0
 11
980.532501379
 21
588.0
 31
0.0
  0
LINE
  8
0
  6
CONTINUOUS
 62
     1
 10
989.182501379
 20
583.0
 30
0.0
 11
980.522247342
 21
588.0
 31
0.0
  0
LINE
  8
0
  6
CONTINUOUS
 62
     1
 10
989.182501379
 20
561.0
 30
0.0
 11
989.182501379
 21
583.0
 31
0.0
  0
LINE
  8
0
  6
CONTINUOUS
 62
     1
 10
955.832501379
 20
556.0
 30
0.0
 11
980.532501379
 21
556.0
 31
0.0
  0
LINE
  8
0
  6
CONTINUOUS
 62
     1
 10
989.182501379
 20
561.0
 30
0.0
 11
980.522247342
 21
556.0
 31
0.0
  0
LINE
  8
0
  6
CONTINUOUS
 62
     1
 10
947.182501379
 20
561.0
 30
0.0
 11
955.842755417
 21
556.0
 31
0.0
  0
LINE
  8
0
  6
CONTINUOUS
 62
     1
 10
930.682501379
 20
237.6
 30
0.0
 11
939.342755417
 21
242.6
 31
0.0
  0
LINE
  8
0
  6
CONTINUOUS
 62
     1
 10
939.332501379
 20
210.6
 30
0.0
 11
939.332501379
 21
242.6
 31
0.0
  0
LINE
  8
0
  6
CONTINUOUS
 62
     1
 10
939.332501379
 20
242.6
 30
0.0
 11
964.032501379
 21
242.6
 31
0.0
  0
LINE
  8
0
  6
CONTINUOUS
 62
     1
 10
930.682501379
 20
215.6
 30
0.0
 11
930.682501379
 21
237.6
 31
0.0
  0
LINE
  8
0
  6
CONTINUOUS
 62
     1
 10
964.032501379
 20
210.6
 30
0.0
 11
964.032501379
 21
242.6
 31
0.0
  0
LINE
  8
0
  6
CONTINUOUS
 62
     1
 10
972.682501379
 20
237.6
 30
0.0
 11
964.022247342
 21
242.6
 31
0.0
  0
LINE
  8
0
  6
CONTINUOUS
 62
     1
 10
972.682501379
 20
215.6
 30
0.0
 11
972.682501379
 21
237.6
 31
0.0
  0
LINE
  8
0
  6
CONTINUOUS
 62
     1
 10
939.332501379
 20
210.6
 30
0.0
 11
964.032501379
 21
210.6
 31
0.0
  0
LINE
  8
0
  6
CONTINUOUS
 62
     1
 10
972.682501379
 20
215.6
 30
0.0
 11
964.022247342
 21
210.6
 31
0.0
  0
LINE
  8
0
  6
CONTINUOUS
 62
     1
 10
930.682501379
 20
215.6
 30
0.0
 11
939.342755417
 21
210.6
 31
0.0
  0
LINE
  8
0
  6
CONTINUOUS
 62
     1
 10
972.682501379
 20
234.6
 30
0.0
 11
998.991923417
 21
234.6
 31
0.0
  0
LINE
  8
0
  6
CONTINUOUS
 62
     1
 10
998.991923417
 20
218.6
 30
0.0
 11
972.682501379
 21
218.6
 31
0.0
  0
LINE
  8
0
  6
CONTINUOUS
 62
     1
 10
871.182501379
 20
234.6
 30
0.0
 11
930.682501379
 21
234.6
 31
0.0
  0
LINE
  8
0
  6
CONTINUOUS
 62
     1
 10
930.682501379
 20
218.6
 30
0.0
 11
871.182501379
 21
218.6
 31
0.0
  0
LINE
  8
0
  6
CONTINUOUS
 62
     1
 10
1003.12
 20
1505.24
 30
0.0
 11
1780.72
 21
1505.24
 31
0.0
  0
LINE
  8
0
  6
CONTINUOUS
 62
     1
 10
1003.12
 20
1471.64
 30
0.0
 11
1780.72
 21
1471.64
 31
0.0
  0
TEXT
  8
0
  6
CONTINUOUS
 62
     2
 10
1051.12
 20
1481.24
 30
1.536
 40
15.36
  1
形
 50
0.0
 41
0.9
 51
0.0
  7
KANJI46
  0
TEXT
  8
0
  6
CONTINUOUS
 62
     2
 10
1144.72
 20
1481.24
 30
1.536
 40
15.36
  1
式
 50
0.0
 41
0.9
 51
0.0
  7
KANJI46
  0
TEXT
  8
0
  6
CONTINUOUS
 62
     2
 10
1217.2
 20
1480.28
 30
1.44
 40
14.4
  1
ストローク
 50
0.0
 41
0.9
 51
0.0
  7
KANJI47
  0
TEXT
  8
0
  6
CONTINUOUS
 62
     2
 10
1309.36
 20
1479.32
 30
0.0
 40
14.4
  1
ｍｉｎ　
 50
0.0
 41
0.9
 51
0.0
  7
KANJI48
  0
TEXT
  8
0
  6
CONTINUOUS
 62
     2
 10
1405.36
 20
1479.32
 30
0.0
 40
14.4
  1
ｍｉｎ　
 50
0.0
 41
0.9
 51
0.0
  7
KANJI48
  0
TEXT
  8
0
  6
CONTINUOUS
 62
     2
 10
1597.36
 20
1479.32
 30
0.0
 40
14.4
  1
ｍｉｎ　
 50
0.0
 41
0.9
 51
0.0
  7
KANJI48
  0
TEXT
  8
0
  6
CONTINUOUS
 62
     2
 10
1358.32
 20
1480.28
 30
1.68
 40
16.8
  1
ＡＬ
 50
0.0
 41
0.9
 51
0.0
  7
KANJI49
  0
TEXT
  8
0
  6
CONTINUOUS
 62
     2
 10
1454.32
 20
1480.28
 30
1.68
 40
16.8
  1
Ｌ
 50
0.0
 41
0.9
 51
0.0
  7
KANJI49
  0
TEXT
  8
0
  6
CONTINUOUS
 62
     2
 10
1535.92
 20
1480.28
 30
1.68
 40
16.8
  1
Ｃ
 50
0.0
 41
0.9
 51
0.0
  7
KANJI49
  0
TEXT
  8
0
  6
CONTINUOUS
 62
     2
 10
1646.32
 20
1480.28
 30
1.68
 40
16.8
  1
Ｐ
 50
0.0
 41
0.9
 51
0.0
  7
KANJI49
  0
TEXT
  8
0
  6
CONTINUOUS
 62
     2
 10
1745.08
 20
1479.92
 30
0.0
 40
12.96
  1
（ｋｇ）
 50
0.0
 41
0.740740741
 51
0.0
  7
KANJI50
  0
TEXT
  8
0
  6
CONTINUOUS
 62
     2
 10
1687.48
 20
1479.68
 30
1.44
 40
16.8
  1
概算重量
 50
0.0
 41
0.857142857
 51
0.0
  7
KANJI51
  0
TEXT
  8
0
  6
CONTINUOUS
 62
     2
 10
1226.32
 20
1451.08
 30
1.44
 40
14.4
  1
　２００
 50
0.0
 41
0.9
 51
0.0
  7
KANJI47
  0
TEXT
  8
0
  6
CONTINUOUS
 62
     2
 10
1226.32
 20
1422.48
 30
1.44
 40
14.4
  1
　３００
 50
0.0
 41
0.9
 51
0.0
  7
KANJI47
  0
TEXT
  8
0
  6
CONTINUOUS
 62
     2
 10
1226.32
 20
1393.88
 30
1.44
 40
14.4
  1
　４００
 50
0.0
 41
0.9
 51
0.0
  7
KANJI47
  0
TEXT
  8
0
  6
CONTINUOUS
 62
     2
 10
1226.32
 20
1365.28
 30
1.44
 40
14.4
  1
　５００
 50
0.0
 41
0.9
 51
0.0
  7
KANJI47
  0
TEXT
  8
0
  6
CONTINUOUS
 62
     2
 10
1226.32
 20
1336.68
 30
1.44
 40
14.4
  1
　６００
 50
0.0
 41
0.9
 51
0.0
  7
KANJI47
  0
TEXT
  8
0
  6
CONTINUOUS
 62
     2
 10
1226.32
 20
1308.08
 30
1.44
 40
14.4
  1
　７００
 50
0.0
 41
0.9
 51
0.0
  7
KANJI47
  0
TEXT
  8
0
  6
CONTINUOUS
 62
     2
 10
1226.32
 20
1279.48
 30
1.44
 40
14.4
  1
　８００
 50
0.0
 41
0.9
 51
0.0
  7
KANJI47
  0
TEXT
  8
0
  6
CONTINUOUS
 62
     2
 10
1226.32
 20
1250.88
 30
1.44
 40
14.4
  1
　９００
 50
0.0
 41
0.9
 51
0.0
  7
KANJI47
  0
TEXT
  8
0
  6
CONTINUOUS
 62
     2
 10
1226.32
 20
1222.28
 30
1.44
 40
14.4
  1
１０００
 50
0.0
 41
0.9
 51
0.0
  7
KANJI47
  0
LINE
  8
0
  6
CONTINUOUS
 62
     1
 10
1003.12
 20
1042.24
 30
0.0
 11
1780.72
 21
1042.24
 31
0.0
  0
LINE
  8
0
  6
CONTINUOUS
 62
     1
 10
1003.12
 20
1505.24
 30
0.0
 11
1003.12
 21
1042.24
 31
0.0
  0
LINE
  8
0
  6
CONTINUOUS
 62
     1
 10
1780.72
 20
1505.24
 30
0.0
 11
1780.72
 21
1042.24
 31
0.0
  0
LINE
  8
0
  6
CONTINUOUS
 62
     1
 10
1204.72
 20
1505.24
 30
0.0
 11
1204.72
 21
1042.24
 31
0.0
  0
LINE
  8
0
  6
CONTINUOUS
 62
     2
 10
1300.72
 20
1505.24
 30
0.0
 11
1300.72
 21
1042.24
 31
0.0
  0
LINE
  8
0
  6
CONTINUOUS
 62
     2
 10
1396.72
 20
1505.24
 30
0.0
 11
1396.72
 21
1042.24
 31
0.0
  0
LINE
  8
0
  6
CONTINUOUS
 62
     2
 10
1492.72
 20
1505.24
 30
0.0
 11
1492.72
 21
1042.24
 31
0.0
  0
LINE
  8
0
  6
CONTINUOUS
 62
     2
 10
1588.72
 20
1505.24
 30
0.0
 11
1588.72
 21
1042.24
 31
0.0
  0
LINE
  8
0
  6
CONTINUOUS
 62
     2
 10
1684.72
 20
1505.24
 30
0.0
 11
1684.72
 21
1042.24
 31
0.0
  0
TEXT
  8
0
  6
CONTINUOUS
 62
     2
 10
1226.32
 20
1193.68
 30
1.44
 40
14.4
  1
１１００
 50
0.0
 41
0.9
 51
0.0
  7
KANJI47
  0
TEXT
  8
0
  6
CONTINUOUS
 62
     2
 10
1226.32
 20
1165.08
 30
1.44
 40
14.4
  1
１２００
 50
0.0
 41
0.9
 51
0.0
  7
KANJI47
  0
TEXT
  8
0
  6
CONTINUOUS
 62
     2
 10
1226.32
 20
1136.48
 30
1.44
 40
14.4
  1
１３００
 50
0.0
 41
0.9
 51
0.0
  7
KANJI47
  0
TEXT
  8
0
  6
CONTINUOUS
 62
     2
 10
1226.32
 20
1107.88
 30
1.44
 40
14.4
  1
１４００
 50
0.0
 41
0.9
 51
0.0
  7
KANJI47
  0
TEXT
  8
0
  6
CONTINUOUS
 62
     2
 10
1226.32
 20
1079.28
 30
1.44
 40
14.4
  1
１５００
 50
0.0
 41
0.9
 51
0.0
  7
KANJI47
  0
TEXT
  8
0
  6
CONTINUOUS
 62
     2
 10
1322.32
 20
1451.48
 30
1.44
 40
14.4
  1
　６１９
 50
0.0
 41
0.9
 51
0.0
  7
KANJI47
  0
TEXT
  8
0
  6
CONTINUOUS
 62
     2
 10
1322.32
 20
1422.88
 30
1.44
 40
14.4
  1
　７１９
 50
0.0
 41
0.9
 51
0.0
  7
KANJI47
  0
TEXT
  8
0
  6
CONTINUOUS
 62
     2
 10
1418.32
 20
1451.48
 30
1.44
 40
14.4
  1
　４７３
 50
0.0
 41
0.9
 51
0.0
  7
KANJI47
  0
TEXT
  8
0
  6
CONTINUOUS
 62
     2
 10
1418.32
 20
1422.88
 30
1.44
 40
14.4
  1
　５７３
 50
0.0
 41
0.9
 51
0.0
  7
KANJI47
  0
TEXT
  8
0
  6
CONTINUOUS
 62
     2
 10
1514.32
 20
1451.48
 30
1.44
 40
14.4
  1
　３７８
 50
0.0
 41
0.9
 51
0.0
  7
KANJI47
  0
TEXT
  8
0
  6
CONTINUOUS
 62
     2
 10
1514.32
 20
1422.88
 30
1.44
 40
14.4
  1
　４７８
 50
0.0
 41
0.9
 51
0.0
  7
KANJI47
  0
TEXT
  8
0
  6
CONTINUOUS
 62
     2
 10
1514.32
 20
1394.28
 30
1.44
 40
14.4
  1
　５７８
 50
0.0
 41
0.9
 51
0.0
  7
KANJI47
  0
TEXT
  8
0
  6
CONTINUOUS
 62
     2
 10
1514.32
 20
1365.68
 30
1.44
 40
14.4
  1
　６７８
 50
0.0
 41
0.9
 51
0.0
  7
KANJI47
  0
TEXT
  8
0
  6
CONTINUOUS
 62
     2
 10
1514.32
 20
1337.08
 30
1.44
 40
14.4
  1
　８１８
 50
0.0
 41
0.9
 51
0.0
  7
KANJI47
  0
TEXT
  8
0
  6
CONTINUOUS
 62
     2
 10
1514.32
 20
1308.48
 30
1.44
 40
14.4
  1
　９１８
 50
0.0
 41
0.9
 51
0.0
  7
KANJI47
  0
TEXT
  8
0
  6
CONTINUOUS
 62
     2
 10
1514.32
 20
1279.88
 30
1.44
 40
14.4
  1
１０１８
 50
0.0
 41
0.9
 51
0.0
  7
KANJI47
  0
TEXT
  8
0
  6
CONTINUOUS
 62
     2
 10
1514.32
 20
1251.28
 30
1.44
 40
14.4
  1
１１１８
 50
0.0
 41
0.9
 51
0.0
  7
KANJI47
  0
TEXT
  8
0
  6
CONTINUOUS
 62
     2
 10
1514.32
 20
1222.68
 30
1.44
 40
14.4
  1
１２１８
 50
0.0
 41
0.9
 51
0.0
  7
KANJI47
  0
TEXT
  8
0
  6
CONTINUOUS
 62
     2
 10
1514.32
 20
1194.08
 30
1.44
 40
14.4
  1
１３１８
 50
0.0
 41
0.9
 51
0.0
  7
KANJI47
  0
TEXT
  8
0
  6
CONTINUOUS
 62
     2
 10
1514.32
 20
1165.48
 30
1.44
 40
14.4
  1
１４１８
 50
0.0
 41
0.9
 51
0.0
  7
KANJI47
  0
TEXT
  8
0
  6
CONTINUOUS
 62
     2
 10
1514.32
 20
1136.88
 30
1.44
 40
14.4
  1
１５１８
 50
0.0
 41
0.9
 51
0.0
  7
KANJI47
  0
TEXT
  8
0
  6
CONTINUOUS
 62
     2
 10
1514.32
 20
1108.28
 30
1.44
 40
14.4
  1
１６１８
 50
0.0
 41
0.9
 51
0.0
  7
KANJI47
  0
TEXT
  8
0
  6
CONTINUOUS
 62
     2
 10
1514.32
 20
1079.68
 30
1.44
 40
14.4
  1
１７１８
 50
0.0
 41
0.9
 51
0.0
  7
KANJI47
  0
TEXT
  8
0
  6
CONTINUOUS
 62
     2
 10
1611.74
 20
1451.33
 30
1.44
 40
14.4
  1
　　４５
 50
0.0
 41
0.9
 51
0.0
  7
KANJI47
  0
LINE
  8
0
  6
CONTINUOUS
 62
     2
 10
1004.54
 20
1443.69
 30
0.0
 11
1782.14
 21
1443.69
 31
0.0
  0
TEXT
  8
0
  6
CONTINUOUS
 62
     2
 10
1611.74
 20
1422.73
 30
1.44
 40
14.4
  1
　　４５
 50
0.0
 41
0.9
 51
0.0
  7
KANJI47
  0
LINE
  8
0
  6
CONTINUOUS
 62
     2
 10
1004.54
 20
1415.09
 30
0.0
 11
1782.14
 21
1415.09
 31
0.0
  0
TEXT
  8
0
  6
CONTINUOUS
 62
     2
 10
1611.74
 20
1394.13
 30
1.44
 40
14.4
  1
　　８５
 50
0.0
 41
0.9
 51
0.0
  7
KANJI47
  0
LINE
  8
0
  6
CONTINUOUS
 62
     2
 10
1004.54
 20
1386.49
 30
0.0
 11
1782.14
 21
1386.49
 31
0.0
  0
TEXT
  8
0
  6
CONTINUOUS
 62
     2
 10
1611.74
 20
1365.53
 30
1.44
 40
14.4
  1
　１１２
 50
0.0
 41
0.9
 51
0.0
  7
KANJI47
  0
LINE
  8
0
  6
CONTINUOUS
 62
     2
 10
1004.54
 20
1357.89
 30
0.0
 11
1782.14
 21
1357.89
 31
0.0
  0
TEXT
  8
0
  6
CONTINUOUS
 62
     2
 10
1611.74
 20
1336.93
 30
1.44
 40
14.4
  1
　１２８
 50
0.0
 41
0.9
 51
0.0
  7
KANJI47
  0
LINE
  8
0
  6
CONTINUOUS
 62
     2
 10
1004.54
 20
1329.29
 30
0.0
 11
1782.14
 21
1329.29
 31
0.0
  0
TEXT
  8
0
  6
CONTINUOUS
 62
     2
 10
1611.74
 20
1308.33
 30
1.44
 40
14.4
  1
　１４８
 50
0.0
 41
0.9
 51
0.0
  7
KANJI47
  0
LINE
  8
0
  6
CONTINUOUS
 62
     2
 10
1004.54
 20
1300.69
 30
0.0
 11
1782.14
 21
1300.69
 31
0.0
  0
TEXT
  8
0
  6
CONTINUOUS
 62
     2
 10
1611.74
 20
1279.73
 30
1.44
 40
14.4
  1
　１６８
 50
0.0
 41
0.9
 51
0.0
  7
KANJI47
  0
LINE
  8
0
  6
CONTINUOUS
 62
     2
 10
1004.54
 20
1272.09
 30
0.0
 11
1782.14
 21
1272.09
 31
0.0
  0
TEXT
  8
0
  6
CONTINUOUS
 62
     2
 10
1611.74
 20
1251.13
 30
1.44
 40
14.4
  1
　１９８
 50
0.0
 41
0.9
 51
0.0
  7
KANJI47
  0
LINE
  8
0
  6
CONTINUOUS
 62
     2
 10
1004.54
 20
1243.49
 30
0.0
 11
1782.14
 21
1243.49
 31
0.0
  0
TEXT
  8
0
  6
CONTINUOUS
 62
     2
 10
1611.74
 20
1222.53
 30
1.44
 40
14.4
  1
　２３１
 50
0.0
 41
0.9
 51
0.0
  7
KANJI47
  0
LINE
  8
0
  6
CONTINUOUS
 62
     2
 10
1004.54
 20
1214.89
 30
0.0
 11
1782.14
 21
1214.89
 31
0.0
  0
LINE
  8
0
  6
CONTINUOUS
 62
     2
 10
1004.54
 20
1186.29
 30
0.0
 11
1782.14
 21
1186.29
 31
0.0
  0
LINE
  8
0
  6
CONTINUOUS
 62
     2
 10
1004.54
 20
1157.69
 30
0.0
 11
1782.14
 21
1157.69
 31
0.0
  0
LINE
  8
0
  6
CONTINUOUS
 62
     2
 10
1004.54
 20
1129.09
 30
0.0
 11
1782.14
 21
1129.09
 31
0.0
  0
LINE
  8
0
  6
CONTINUOUS
 62
     2
 10
1004.54
 20
1100.49
 30
0.0
 11
1782.14
 21
1100.49
 31
0.0
  0
LINE
  8
0
  6
CONTINUOUS
 62
     2
 10
1004.54
 20
1071.89
 30
0.0
 11
1782.14
 21
1071.89
 31
0.0
  0
TEXT
  8
0
  6
CONTINUOUS
 62
     2
 10
1611.74
 20
1193.93
 30
1.44
 40
14.4
  1
　２４５
 50
0.0
 41
0.9
 51
0.0
  7
KANJI47
  0
TEXT
  8
0
  6
CONTINUOUS
 62
     2
 10
1611.74
 20
1165.33
 30
1.44
 40
14.4
  1
　２６８
 50
0.0
 41
0.9
 51
0.0
  7
KANJI47
  0
TEXT
  8
0
  6
CONTINUOUS
 62
     2
 10
1611.74
 20
1136.73
 30
1.44
 40
14.4
  1
　２８８
 50
0.0
 41
0.9
 51
0.0
  7
KANJI47
  0
TEXT
  8
0
  6
CONTINUOUS
 62
     2
 10
1611.74
 20
1108.13
 30
1.44
 40
14.4
  1
　３１０
 50
0.0
 41
0.9
 51
0.0
  7
KANJI47
  0
TEXT
  8
0
  6
CONTINUOUS
 62
     2
 10
1611.74
 20
1079.53
 30
1.44
 40
14.4
  1
　３５０
 50
0.0
 41
0.9
 51
0.0
  7
KANJI47
  0
TEXT
  8
0
  6
CONTINUOUS
 62
     2
 10
1418.32
 20
1394.28
 30
1.44
 40
14.4
  1
　７１３
 50
0.0
 41
0.9
 51
0.0
  7
KANJI47
  0
TEXT
  8
0
  6
CONTINUOUS
 62
     2
 10
1322.32
 20
1394.28
 30
1.44
 40
14.4
  1
　８５９
 50
0.0
 41
0.9
 51
0.0
  7
KANJI47
  0
TEXT
  8
0
  6
CONTINUOUS
 62
     2
 10
1418.32
 20
1365.68
 30
1.44
 40
14.4
  1
　８４０
 50
0.0
 41
0.9
 51
0.0
  7
KANJI47
  0
TEXT
  8
0
  6
CONTINUOUS
 62
     2
 10
1322.32
 20
1365.68
 30
1.44
 40
14.4
  1
　９８６
 50
0.0
 41
0.9
 51
0.0
  7
KANJI47
  0
TEXT
  8
0
  6
CONTINUOUS
 62
     2
 10
1418.32
 20
1337.08
 30
1.44
 40
14.4
  1
　９９６
 50
0.0
 41
0.9
 51
0.0
  7
KANJI47
  0
TEXT
  8
0
  6
CONTINUOUS
 62
     2
 10
1322.32
 20
1337.08
 30
1.44
 40
14.4
  1
１１４２
 50
0.0
 41
0.9
 51
0.0
  7
KANJI47
  0
TEXT
  8
0
  6
CONTINUOUS
 62
     2
 10
1418.32
 20
1308.48
 30
1.44
 40
14.4
  1
１１１６
 50
0.0
 41
0.9
 51
0.0
  7
KANJI47
  0
TEXT
  8
0
  6
CONTINUOUS
 62
     2
 10
1322.32
 20
1308.48
 30
1.44
 40
14.4
  1
１２６２
 50
0.0
 41
0.9
 51
0.0
  7
KANJI47
  0
TEXT
  8
0
  6
CONTINUOUS
 62
     2
 10
1418.32
 20
1279.88
 30
1.44
 40
14.4
  1
１２３６
 50
0.0
 41
0.9
 51
0.0
  7
KANJI47
  0
TEXT
  8
0
  6
CONTINUOUS
 62
     2
 10
1322.32
 20
1279.88
 30
1.44
 40
14.4
  1
１３８２
 50
0.0
 41
0.9
 51
0.0
  7
KANJI47
  0
TEXT
  8
0
  6
CONTINUOUS
 62
     2
 10
1418.32
 20
1251.28
 30
1.44
 40
14.4
  1
１３６６
 50
0.0
 41
0.9
 51
0.0
  7
KANJI47
  0
TEXT
  8
0
  6
CONTINUOUS
 62
     2
 10
1322.32
 20
1251.28
 30
1.44
 40
14.4
  1
１５１２
 50
0.0
 41
0.9
 51
0.0
  7
KANJI47
  0
TEXT
  8
0
  6
CONTINUOUS
 62
     2
 10
1418.32
 20
1222.68
 30
1.44
 40
14.4
  1
１４９９
 50
0.0
 41
0.9
 51
0.0
  7
KANJI47
  0
TEXT
  8
0
  6
CONTINUOUS
 62
     2
 10
1322.32
 20
1222.68
 30
1.44
 40
14.4
  1
１６４５
 50
0.0
 41
0.9
 51
0.0
  7
KANJI47
  0
TEXT
  8
0
  6
CONTINUOUS
 62
     2
 10
1418.32
 20
1194.08
 30
1.44
 40
14.4
  1
１５６３
 50
0.0
 41
0.9
 51
0.0
  7
KANJI47
  0
TEXT
  8
0
  6
CONTINUOUS
 62
     2
 10
1322.32
 20
1194.08
 30
1.44
 40
14.4
  1
１７０９
 50
0.0
 41
0.9
 51
0.0
  7
KANJI47
  0
TEXT
  8
0
  6
CONTINUOUS
 62
     2
 10
1418.32
 20
1165.48
 30
1.44
 40
14.4
  1
１７３６
 50
0.0
 41
0.9
 51
0.0
  7
KANJI47
  0
TEXT
  8
0
  6
CONTINUOUS
 62
     2
 10
1322.32
 20
1165.48
 30
1.44
 40
14.4
  1
１８８２
 50
0.0
 41
0.9
 51
0.0
  7
KANJI47
  0
TEXT
  8
0
  6
CONTINUOUS
 62
     2
 10
1418.32
 20
1136.88
 30
1.44
 40
14.4
  1
１８５６
 50
0.0
 41
0.9
 51
0.0
  7
KANJI47
  0
TEXT
  8
0
  6
CONTINUOUS
 62
     2
 10
1322.32
 20
1136.88
 30
1.44
 40
14.4
  1
２００２
 50
0.0
 41
0.9
 51
0.0
  7
KANJI47
  0
TEXT
  8
0
  6
CONTINUOUS
 62
     2
 10
1418.32
 20
1108.28
 30
1.44
 40
14.4
  1
１９７８
 50
0.0
 41
0.9
 51
0.0
  7
KANJI47
  0
TEXT
  8
0
  6
CONTINUOUS
 62
     2
 10
1322.32
 20
1108.28
 30
1.44
 40
14.4
  1
２１２４
 50
0.0
 41
0.9
 51
0.0
  7
KANJI47
  0
TEXT
  8
0
  6
CONTINUOUS
 62
     2
 10
1418.32
 20
1079.68
 30
1.44
 40
14.4
  1
２１１８
 50
0.0
 41
0.9
 51
0.0
  7
KANJI47
  0
TEXT
  8
0
  6
CONTINUOUS
 62
     2
 10
1322.32
 20
1079.68
 30
1.44
 40
14.4
  1
２２６４
 50
0.0
 41
0.9
 51
0.0
  7
KANJI47
  0
LINE
  8
0
  6
CONTINUOUS
 62
     1
 10
1046.0
 20
944.6
 30
0.0
 11
1106.0
 21
944.6
 31
0.0
  0
LINE
  8
0
  6
CONTINUOUS
 62
     1
 10
1106.0
 20
929.6
 30
0.0
 11
1106.0
 21
944.6
 31
0.0
  0
LINE
  8
0
  6
CONTINUOUS
 62
     1
 10
1031.0
 20
929.6
 30
0.0
 11
1106.0
 21
929.6
 31
0.0
  0
LINE
  8
0
  6
CONTINUOUS
 62
     1
 10
1059.0
 20
925.1
 30
0.0
 11
1103.0
 21
925.1
 31
0.0
  0
LINE
  8
0
  6
CONTINUOUS
 62
     1
 10
1068.5
 20
919.1
 30
0.0
 11
1093.5
 21
919.1
 31
0.0
  0
LINE
  8
0
  6
CONTINUOUS
 62
     1
 10
1093.5
 20
919.1
 30
0.0
 11
1093.5
 21
925.1
 31
0.0
  0
LINE
  8
0
  6
CONTINUOUS
 62
     1
 10
1068.5
 20
919.1
 30
0.0
 11
1068.5
 21
925.1
 31
0.0
  0
LINE
  8
0
  6
CONTINUOUS
 62
     1
 10
1103.0
 20
925.1
 30
0.0
 11
1103.0
 21
929.6
 31
0.0
  0
LINE
  8
0
  6
CONTINUOUS
 62
     1
 10
1059.0
 20
925.1
 30
0.0
 11
1059.0
 21
929.6
 31
0.0
  0
CIRCLE
  8
0
  6
CONTINUOUS
 62
     1
 10
1081.0
 20
923.1
 30
0.0
 40
2.0
  0
LINE
  8
0
  6
LTYPE3
 62
     2
 10
1077.0
 20
923.2
 30
0.0
 11
1085.2
 21
923.2
 31
0.0
  0
LINE
  8
0
  6
LTYPE1
 62
     2
 10
1093.5
 20
925.1
 30
0.0
 11
1093.5
 21
944.6
 31
0.0
  0
LINE
  8
0
  6
LTYPE1
 62
     2
 10
1068.5
 20
925.1
 30
0.0
 11
1068.5
 21
944.6
 31
0.0
  0
LINE
  8
0
  6
CONTINUOUS
 62
     1
 10
1046.0
 20
969.6
 30
0.0
 11
1106.0
 21
969.6
 31
0.0
  0
LINE
  8
0
  6
CONTINUOUS
 62
     1
 10
1106.0
 20
984.6
 30
0.0
 11
1106.0
 21
969.6
 31
0.0
  0
LINE
  8
0
  6
CONTINUOUS
 62
     1
 10
1031.0
 20
984.6
 30
0.0
 11
1106.0
 21
984.6
 31
0.0
  0
LINE
  8
0
  6
CONTINUOUS
 62
     1
 10
1059.0
 20
989.1
 30
0.0
 11
1103.0
 21
989.1
 31
0.0
  0
LINE
  8
0
  6
CONTINUOUS
 62
     1
 10
1068.5
 20
995.1
 30
0.0
 11
1093.5
 21
995.1
 31
0.0
  0
LINE
  8
0
  6
CONTINUOUS
 62
     1
 10
1093.5
 20
995.1
 30
0.0
 11
1093.5
 21
989.1
 31
0.0
  0
LINE
  8
0
  6
CONTINUOUS
 62
     1
 10
1068.5
 20
995.1
 30
0.0
 11
1068.5
 21
989.1
 31
0.0
  0
LINE
  8
0
  6
CONTINUOUS
 62
     1
 10
1103.0
 20
989.1
 30
0.0
 11
1103.0
 21
984.6
 31
0.0
  0
LINE
  8
0
  6
CONTINUOUS
 62
     1
 10
1059.0
 20
989.1
 30
0.0
 11
1059.0
 21
984.6
 31
0.0
  0
CIRCLE
  8
0
  6
CONTINUOUS
 62
     1
 10
1081.0
 20
991.1
 30
0.0
 40
2.0
  0
LINE
  8
0
  6
LTYPE3
 62
     2
 10
1077.0
 20
991.0
 30
0.0
 11
1085.2
 21
991.0
 31
0.0
  0
LINE
  8
0
  6
LTYPE1
 62
     2
 10
1093.5
 20
989.1
 30
0.0
 11
1093.5
 21
969.6
 31
0.0
  0
LINE
  8
0
  6
LTYPE1
 62
     2
 10
1068.5
 20
989.1
 30
0.0
 11
1068.5
 21
969.6
 31
0.0
  0
LINE
  8
0
  6
CONTINUOUS
 62
     1
 10
1046.0
 20
944.6
 30
0.0
 11
1046.0
 21
969.6
 31
0.0
  0
LINE
  8
0
  6
CONTINUOUS
 62
     1
 10
1068.5
 20
944.6
 30
0.0
 11
1068.5
 21
969.6
 31
0.0
  0
LINE
  8
0
  6
CONTINUOUS
 62
     1
 10
1093.5
 20
944.6
 30
0.0
 11
1093.5
 21
969.6
 31
0.0
  0
LINE
  8
0
  6
LTYPE3
 62
     2
 10
1081.0
 20
914.1
 30
0.0
 11
1081.0
 21
995.1
 31
0.0
  0
LINE
  8
0
  6
LTYPE3
 62
     2
 10
1081.0
 20
1000.1
 30
0.0
 11
1081.0
 21
919.1
 31
0.0
  0
LINE
  8
0
  6
CONTINUOUS
 62
     1
 10
1068.5
 20
969.6
 30
0.0
 11
1068.5
 21
944.6
 31
0.0
  0
LINE
  8
0
  6
CONTINUOUS
 62
     1
 10
1093.5
 20
969.6
 30
0.0
 11
1093.5
 21
944.6
 31
0.0
  0
LINE
  8
0
  6
CONTINUOUS
 62
     2
 10
1113.5
 20
929.6
 30
0.0
 11
1191.0
 21
929.6
 31
0.0
  0
LINE
  8
0
  6
CONTINUOUS
 62
     2
 10
1113.5
 20
984.6
 30
0.0
 11
1191.0
 21
984.6
 31
0.0
  0
LINE
  8
0
  6
CONTINUOUS
 62
     2
 10
1113.5
 20
944.6
 30
0.0
 11
1162.5
 21
944.6
 31
0.0
  0
LINE
  8
0
  6
CONTINUOUS
 62
     2
 10
1113.5
 20
969.6
 30
0.0
 11
1162.5
 21
969.6
 31
0.0
  0
LINE
  8
0
  6
LTYPE5
 62
     2
 10
992.676112865
 20
917.1
 30
0.0
 11
961.730004728
 21
917.1
 31
0.0
  0
LINE
  8
0
  6
LTYPE5
 62
     2
 10
998.230005553
 20
902.1
 30
0.0
 11
961.730004728
 21
902.1
 31
0.0
  0
ARC
  8
0
  6
CONTINUOUS
 62
     1
 10
1009.337790779
 20
903.1
 30
0.0
 40
1.0
 50
270.0
 51
345.0
  0
ARC
  8
0
  6
CONTINUOUS
 62
     1
 10
1009.337789953
 20
903.1
 30
0.0
 40
1.0
 50
195.0
 51
270.0
  0
LINE
  8
0
  6
CONTINUOUS
 62
     1
 10
1004.749823916
 20
916.358819045
 30
0.0
 11
1008.371864126
 21
902.841180955
 31
0.0
  0
ARC
  8
0
  6
CONTINUOUS
 62
     1
 10
1003.78389809
 20
916.1
 30
0.0
 40
1.0
 50
15.0
 51
90.0
  0
ARC
  8
0
  6
CONTINUOUS
 62
     1
 10
1003.783897416
 20
916.1
 30
0.0
 40
1.0
 50
90.0
 51
165.0
  0
LINE
  8
0
  6
CONTINUOUS
 62
     1
 10
1002.81797159
 20
916.358819045
 30
0.0
 11
999.19593138
 21
902.841180955
 31
0.0
  0
ARC
  8
0
  6
CONTINUOUS
 62
     1
 10
998.230005553
 20
903.1
 30
0.0
 40
1.0
 50
270.0
 51
345.0
  0
ARC
  8
0
  6
CONTINUOUS
 62
     1
 10
998.230003902
 20
903.1
 30
0.0
 40
1.0
 50
195.0
 51
270.0
  0
ARC
  8
0
  6
CONTINUOUS
 62
     1
 10
992.676112865
 20
916.1
 30
0.0
 40
1.0
 50
15.0
 51
90.0
  0
LINE
  8
0
  6
CONTINUOUS
 62
     1
 10
993.642038691
 20
916.358819045
 30
0.0
 11
997.264078901
 21
902.841180955
 31
0.0
  0
LINE
  8
0
  6
CONTINUOUS
 62
     1
 10
1016.0
 20
924.1
 30
0.0
 11
1010.303716605
 21
902.841180955
 31
0.0
  0
LINE
  8
0
  6
CONTINUOUS
 62
     1
 10
1028.5
 20
922.1
 30
0.0
 11
1018.5
 21
922.1
 31
0.0
  0
LINE
  8
0
  6
CONTINUOUS
 62
     1
 10
1031.0
 20
924.1
 30
0.0
 11
1016.0
 21
924.1
 31
0.0
  0
LINE
  8
0
  6
CONTINUOUS
 62
     1
 10
1028.5
 20
924.1
 30
0.0
 11
1028.5
 21
922.1
 31
0.0
  0
LINE
  8
0
  6
CONTINUOUS
 62
     1
 10
1018.5
 20
924.1
 30
0.0
 11
1018.5
 21
922.1
 31
0.0
  0
LINE
  8
0
  6
LTYPE5
 62
     2
 10
992.676112865
 20
997.1
 30
0.0
 11
961.730004728
 21
997.1
 31
0.0
  0
LINE
  8
0
  6
CONTINUOUS
 62
     1
 10
1004.749823916
 20
997.841180955
 30
0.0
 11
1008.371864126
 21
1011.358819045
 31
0.0
  0
ARC
  8
0
  6
CONTINUOUS
 62
     1
 10
1003.78389809
 20
998.1
 30
0.0
 40
1.0
 50
270.0
 51
345.0
  0
ARC
  8
0
  6
CONTINUOUS
 62
     1
 10
1003.783897416
 20
998.1
 30
0.0
 40
1.0
 50
195.0
 51
270.0
  0
LINE
  8
0
  6
CONTINUOUS
 62
     1
 10
1002.81797159
 20
997.841180955
 30
0.0
 11
999.19593138
 21
1011.358819045
 31
0.0
  0
ARC
  8
0
  6
CONTINUOUS
 62
     1
 10
992.676112865
 20
998.1
 30
0.0
 40
1.0
 50
270.0
 51
345.0
  0
LINE
  8
0
  6
CONTINUOUS
 62
     1
 10
993.642038691
 20
997.841180955
 30
0.0
 11
997.264078901
 21
1011.358819045
 31
0.0
  0
LINE
  8
0
  6
CONTINUOUS
 62
     1
 10
1016.0
 20
990.1
 30
0.0
 11
1010.303716605
 21
1011.358819045
 31
0.0
  0
LINE
  8
0
  6
CONTINUOUS
 62
     1
 10
1028.5
 20
992.1
 30
0.0
 11
1018.5
 21
992.1
 31
0.0
  0
LINE
  8
0
  6
CONTINUOUS
 62
     1
 10
1031.0
 20
990.1
 30
0.0
 11
1016.0
 21
990.1
 31
0.0
  0
LINE
  8
0
  6
CONTINUOUS
 62
     1
 10
1028.5
 20
990.1
 30
0.0
 11
1028.5
 21
992.1
 31
0.0
  0
LINE
  8
0
  6
CONTINUOUS
 62
     1
 10
1018.5
 20
990.1
 30
0.0
 11
1018.5
 21
992.1
 31
0.0
  0
LINE
  8
0
  6
CONTINUOUS
 62
     1
 10
1031.0
 20
957.1
 30
0.0
 11
1031.0
 21
990.1
 31
0.0
  0
LINE
  8
0
  6
CONTINUOUS
 62
     1
 10
1016.0
 20
957.1
 30
0.0
 11
1016.0
 21
990.1
 31
0.0
  0
LINE
  8
0
  6
CONTINUOUS
 62
     1
 10
992.676112865
 20
997.1
 30
0.0
 11
992.676112865
 21
957.1
 31
0.0
  0
LINE
  8
0
  6
CONTINUOUS
 62
     1
 10
998.230004728
 20
1012.1
 30
0.0
 11
998.230004728
 21
957.1
 31
0.0
  0
LINE
  8
0
  6
CONTINUOUS
 62
     1
 10
1009.337790779
 20
1012.1
 30
0.0
 11
1009.337790779
 21
957.1
 31
0.0
  0
LINE
  8
0
  6
CONTINUOUS
 62
     1
 10
1003.78389809
 20
957.1
 30
0.0
 11
1003.78389809
 21
997.1
 31
0.0
  0
LINE
  8
0
  6
LTYPE4
 62
     2
 10
963.7
 20
957.1
 30
0.0
 11
1126.0
 21
957.1
 31
0.0
  0
LINE
  8
0
  6
CONTINUOUS
 62
     1
 10
1016.0
 20
957.1
 30
0.0
 11
1016.0
 21
924.1
 31
0.0
  0
LINE
  8
0
  6
CONTINUOUS
 62
     1
 10
992.676112865
 20
917.1
 30
0.0
 11
992.676112865
 21
957.1
 31
0.0
  0
LINE
  8
0
  6
CONTINUOUS
 62
     1
 10
998.230004728
 20
902.1
 30
0.0
 11
998.230004728
 21
957.1
 31
0.0
  0
LINE
  8
0
  6
CONTINUOUS
 62
     1
 10
1009.337790779
 20
902.1
 30
0.0
 11
1009.337790779
 21
957.1
 31
0.0
  0
LINE
  8
0
  6
CONTINUOUS
 62
     1
 10
1003.78389809
 20
957.1
 30
0.0
 11
1003.78389809
 21
917.1
 31
0.0
  0
LINE
  8
0
  6
CONTINUOUS
 62
     2
 10
954.230004728
 20
902.1
 30
0.0
 11
941.9
 21
902.1
 31
0.0
  0
LINE
  8
0
  6
CONTINUOUS
 62
     1
 10
1031.0
 20
924.1
 30
0.0
 11
1031.0
 21
984.6
 31
0.0
  0
LINE
  8
0
  6
CONTINUOUS
 62
     2
 10
1046.0
 20
874.6
 30
0.0
 11
1058.074072829
 21
871.364761936
 31
0.0
  0
LINE
  8
0
  6
CONTINUOUS
 62
     2
 10
1046.0
 20
874.6
 30
0.0
 11
1058.074072829
 21
877.835238064
 31
0.0
  0
LINE
  8
0
  6
CONTINUOUS
 62
     2
 10
1046.0
 20
874.6
 30
0.0
 11
1081.0
 21
874.6
 31
0.0
  0
LINE
  8
0
  6
CONTINUOUS
 62
     2
 10
1081.0
 20
874.6
 30
0.0
 11
1068.925927171
 21
877.835238064
 31
0.0
  0
LINE
  8
0
  6
CONTINUOUS
 62
     2
 10
1081.0
 20
874.6
 30
0.0
 11
1068.925927171
 21
871.364761936
 31
0.0
  0
LINE
  8
0
  6
CONTINUOUS
 62
     2
 10
1046.0
 20
874.6
 30
0.0
 11
1058.074072829
 21
871.364761936
 31
0.0
  0
LINE
  8
0
  6
CONTINUOUS
 62
     2
 10
1046.0
 20
874.6
 30
0.0
 11
1058.074072829
 21
877.835238064
 31
0.0
  0
LINE
  8
0
  6
CONTINUOUS
 62
     2
 10
1064.75
 20
874.6
 30
0.0
 11
983.75
 21
874.6
 31
0.0
  0
LINE
  8
0
  6
CONTINUOUS
 62
     2
 10
1031.0
 20
874.6
 30
0.0
 11
1018.925927171
 21
877.835238064
 31
0.0
  0
LINE
  8
0
  6
CONTINUOUS
 62
     2
 10
1031.0
 20
874.6
 30
0.0
 11
1018.925927171
 21
871.364761936
 31
0.0
  0
LINE
  8
0
  6
CONTINUOUS
 62
     2
 10
1081.0
 20
909.5
 30
0.0
 11
1081.0
 21
867.1
 31
0.0
  0
LINE
  8
0
  6
CONTINUOUS
 62
     2
 10
1046.0
 20
942.0
 30
0.0
 11
1046.0
 21
867.1
 31
0.0
  0
LINE
  8
0
  6
CONTINUOUS
 62
     2
 10
1031.0
 20
918.0
 30
0.0
 11
1031.0
 21
867.1
 31
0.0
  0
LINE
  8
0
  6
CONTINUOUS
 62
     2
 10
1155.0
 20
944.6
 30
0.0
 11
1151.764761936
 21
932.525927171
 31
0.0
  0
LINE
  8
0
  6
CONTINUOUS
 62
     2
 10
1155.0
 20
944.6
 30
0.0
 11
1158.235238064
 21
932.525927171
 31
0.0
  0
LINE
  8
0
  6
CONTINUOUS
 62
     2
 10
1155.0
 20
925.85
 30
0.0
 11
1155.0
 21
1016.85
 31
0.0
  0
LINE
  8
0
  6
CONTINUOUS
 62
     2
 10
1155.0
 20
969.6
 30
0.0
 11
1158.235238064
 21
981.674072829
 31
0.0
  0
LINE
  8
0
  6
CONTINUOUS
 62
     2
 10
1155.0
 20
969.6
 30
0.0
 11
1151.764761936
 21
981.674072829
 31
0.0
  0
TEXT
  8
0
  6
CONTINUOUS
 62
     2
 10
1150.0
 20
988.35
 30
0.0
 40
18.0
  1
２５
 50
90.0
 41
0.9
 51
0.0
  7
KANJI20
  0
TEXT
  8
0
  6
CONTINUOUS
 62
     2
 10
1049.25
 20
879.6
 30
0.0
 40
18.0
  1
３５
 50
0.0
 41
0.9
 51
0.0
  7
KANJI20
  0
TEXT
  8
0
  6
CONTINUOUS
 62
     2
 10
984.75
 20
877.6
 30
0.0
 40
18.0
  1
１５
 50
0.0
 41
0.9
 51
0.0
  7
KANJI20
  0
LINE
  8
2
  6
CONTINUOUS
 62
     2
 10
1081.0
 20
875.6
 30
0.0
 11
1081.0
 21
868.6
 31
0.0
  0
LINE
  8
2
  6
CONTINUOUS
 62
     2
 10
1081.0
 20
874.6
 30
0.0
 11
1066.511112606
 21
878.482285677
 31
0.0
  0
LINE
  8
2
  6
CONTINUOUS
 62
     2
 10
1081.0
 20
874.6
 30
0.0
 11
1066.511112606
 21
870.717714323
 31
0.0
  0
LINE
  8
2
  6
CONTINUOUS
 62
     2
 10
1058.5
 20
874.6
 30
0.0
 11
1081.0
 21
874.6
 31
0.0
  0
LINE
  8
2
  6
CONTINUOUS
 62
     2
 10
1081.0
 20
874.6
 30
0.0
 11
1106.0
 21
874.6
 31
0.0
  0
LINE
  8
2
  6
CONTINUOUS
 62
     2
 10
1106.0
 20
874.6
 30
0.0
 11
1160.9
 21
874.6
 31
0.0
  0
LINE
  8
2
  6
CONTINUOUS
 62
     2
 10
1106.0
 20
874.6
 30
0.0
 11
1120.488887394
 21
870.717714323
 31
0.0
  0
LINE
  8
2
  6
CONTINUOUS
 62
     2
 10
1106.0
 20
874.6
 30
0.0
 11
1120.488887394
 21
878.482285677
 31
0.0
  0
LINE
  8
2
  6
CONTINUOUS
 62
     2
 10
1106.0
 20
923.6
 30
0.0
 11
1106.0
 21
868.6
 31
0.0
  0
TEXT
  8
2
  6
CONTINUOUS
 62
     3
 10
1128.5
 20
880.6
 30
0.0
 40
18.0
  1
２５
 50
0.0
 41
0.9
 51
0.0
  7
KANJI20
  0
LINE
  8
0
  6
CONTINUOUS
 62
     2
 10
1183.5
 20
929.6
 30
0.0
 11
1186.735238064
 21
941.674072829
 31
0.0
  0
LINE
  8
0
  6
CONTINUOUS
 62
     2
 10
1183.5
 20
929.6
 30
0.0
 11
1180.264761936
 21
941.674072829
 31
0.0
  0
LINE
  8
0
  6
CONTINUOUS
 62
     2
 10
1183.5
 20
929.6
 30
0.0
 11
1183.5
 21
984.6
 31
0.0
  0
LINE
  8
0
  6
CONTINUOUS
 62
     2
 10
1183.5
 20
984.6
 30
0.0
 11
1180.264761936
 21
972.525927171
 31
0.0
  0
LINE
  8
0
  6
CONTINUOUS
 62
     2
 10
1183.5
 20
984.6
 30
0.0
 11
1186.735238064
 21
972.525927171
 31
0.0
  0
TEXT
  8
0
  6
CONTINUOUS
 62
     2
 10
1178.5
 20
942.85
 30
0.0
 40
18.0
  1
５５
 50
90.0
 41
0.9
 51
0.0
  7
KANJI20
  0
LINE
  8
0
  6
LTYPE5
 62
     2
 10
998.230005553
 20
1012.1
 30
0.0
 11
961.730004728
 21
1012.1
 31
0.0
  0
LINE
  8
0
  6
CONTINUOUS
 62
     2
 10
954.230004728
 20
1012.1
 30
0.0
 11
941.9
 21
1012.1
 31
0.0
  0
LINE
  8
0
  6
CONTINUOUS
 62
     2
 10
949.4
 20
1012.1
 30
0.0
 11
946.164761936
 21
1000.025927171
 31
0.0
  0
LINE
  8
0
  6
CONTINUOUS
 62
     2
 10
949.4
 20
1012.1
 30
0.0
 11
952.635238064
 21
1000.025927171
 31
0.0
  0
LINE
  8
0
  6
CONTINUOUS
 62
     2
 10
949.4
 20
1012.1
 30
0.0
 11
949.4
 21
902.1
 31
0.0
  0
LINE
  8
0
  6
CONTINUOUS
 62
     2
 10
949.4
 20
902.1
 30
0.0
 11
952.635238064
 21
914.174072829
 31
0.0
  0
LINE
  8
0
  6
CONTINUOUS
 62
     2
 10
949.4
 20
902.1
 30
0.0
 11
946.164761936
 21
914.174072829
 31
0.0
  0
TEXT
  8
0
  6
CONTINUOUS
 62
     2
 10
944.4
 20
928.6
 30
0.0
 40
18.0
  1
φ１１０
 50
90.0
 41
0.9
 51
0.0
  7
KANJI20
  0
TEXT
  8
0
  6
CONTINUOUS
 62
     2
 10
1018.72
 20
1450.72
 30
0.96
 40
14.4
  1
ＭＣＬＢ０５－　　２ＪＬ
 50
0.0
 41
0.833333333
 51
0.0
  7
KANJI52
  0
TEXT
  8
0
  6
CONTINUOUS
 62
     2
 10
1018.72
 20
1422.12
 30
0.96
 40
14.4
  1
ＭＣＬＢ０５－　　３ＪＬ
 50
0.0
 41
0.833333333
 51
0.0
  7
KANJI52
  0
TEXT
  8
0
  6
CONTINUOUS
 62
     2
 10
1018.72
 20
1393.52
 30
0.96
 40
14.4
  1
ＭＣＬＢ０５－　　４ＪＬ
 50
0.0
 41
0.833333333
 51
0.0
  7
KANJI52
  0
TEXT
  8
0
  6
CONTINUOUS
 62
     2
 10
1018.72
 20
1364.92
 30
0.96
 40
14.4
  1
ＭＣＬＢ０５－　　５ＪＬ
 50
0.0
 41
0.833333333
 51
0.0
  7
KANJI52
  0
TEXT
  8
0
  6
CONTINUOUS
 62
     2
 10
1018.72
 20
1336.32
 30
0.96
 40
14.4
  1
ＭＣＬＢ０５－　　６ＪＬ
 50
0.0
 41
0.833333333
 51
0.0
  7
KANJI52
  0
TEXT
  8
0
  6
CONTINUOUS
 62
     2
 10
1018.72
 20
1307.72
 30
0.96
 40
14.4
  1
ＭＣＬＢ０５－　　７ＪＬ
 50
0.0
 41
0.833333333
 51
0.0
  7
KANJI52
  0
TEXT
  8
0
  6
CONTINUOUS
 62
     2
 10
1018.72
 20
1279.12
 30
0.96
 40
14.4
  1
ＭＣＬＢ０５－　　８ＪＬ
 50
0.0
 41
0.833333333
 51
0.0
  7
KANJI52
  0
TEXT
  8
0
  6
CONTINUOUS
 62
     2
 10
1018.72
 20
1250.52
 30
0.96
 40
14.4
  1
ＭＣＬＢ０５－　　９ＪＬ
 50
0.0
 41
0.833333333
 51
0.0
  7
KANJI52
  0
TEXT
  8
0
  6
CONTINUOUS
 62
     2
 10
1018.72
 20
1221.92
 30
0.96
 40
14.4
  1
ＭＣＬＢ０５－　１０ＪＬ
 50
0.0
 41
0.833333333
 51
0.0
  7
KANJI52
  0
TEXT
  8
0
  6
CONTINUOUS
 62
     2
 10
1018.72
 20
1193.32
 30
0.96
 40
14.4
  1
ＭＣＬＢ０５－　１１ＪＬ
 50
0.0
 41
0.833333333
 51
0.0
  7
KANJI52
  0
TEXT
  8
0
  6
CONTINUOUS
 62
     2
 10
1018.72
 20
1164.72
 30
0.96
 40
14.4
  1
ＭＣＬＢ０５－　１２ＪＬ
 50
0.0
 41
0.833333333
 51
0.0
  7
KANJI52
  0
TEXT
  8
0
  6
CONTINUOUS
 62
     2
 10
1018.72
 20
1136.12
 30
0.96
 40
14.4
  1
ＭＣＬＢ０５－　１３ＪＬ
 50
0.0
 41
0.833333333
 51
0.0
  7
KANJI52
  0
TEXT
  8
0
  6
CONTINUOUS
 62
     2
 10
1018.72
 20
1107.52
 30
0.96
 40
14.4
  1
ＭＣＬＢ０５－　１４ＪＬ
 50
0.0
 41
0.833333333
 51
0.0
  7
KANJI52
  0
TEXT
  8
0
  6
CONTINUOUS
 62
     2
 10
1018.72
 20
1078.92
 30
0.96
 40
14.4
  1
ＭＣＬＢ０５－　１５ＪＬ
 50
0.0
 41
0.833333333
 51
0.0
  7
KANJI52
  0
TEXT
  8
0
  6
CONTINUOUS
 62
     2
 10
1018.72
 20
1049.92
 30
0.96
 40
14.4
  1
ＭＣＬＢ０５－　　　ＪＬ
 50
0.0
 41
0.833333333
 51
0.0
  7
KANJI52
  0
TEXT
  8
0
  6
CONTINUOUS
 62
     2
 10
1706.32
 20
1451.08
 30
1.44
 40
14.4
  1
　４２
 50
0.0
 41
0.9
 51
0.0
  7
KANJI47
  0
TEXT
  8
0
  6
CONTINUOUS
 62
     2
 10
1706.32
 20
1422.48
 30
1.44
 40
14.4
  1
　４５
 50
0.0
 41
0.9
 51
0.0
  7
KANJI47
  0
TEXT
  8
0
  6
CONTINUOUS
 62
     2
 10
1706.32
 20
1393.88
 30
1.44
 40
14.4
  1
　４７
 50
0.0
 41
0.9
 51
0.0
  7
KANJI47
  0
TEXT
  8
0
  6
CONTINUOUS
 62
     2
 10
1706.32
 20
1365.28
 30
1.44
 40
14.4
  1
　４９
 50
0.0
 41
0.9
 51
0.0
  7
KANJI47
  0
TEXT
  8
0
  6
CONTINUOUS
 62
     2
 10
1706.32
 20
1336.68
 30
1.44
 40
14.4
  1
　５１
 50
0.0
 41
0.9
 51
0.0
  7
KANJI47
  0
TEXT
  8
0
  6
CONTINUOUS
 62
     2
 10
1706.32
 20
1308.08
 30
1.44
 40
14.4
  1
　５４
 50
0.0
 41
0.9
 51
0.0
  7
KANJI47
  0
TEXT
  8
0
  6
CONTINUOUS
 62
     2
 10
1706.32
 20
1279.48
 30
1.44
 40
14.4
  1
　５７
 50
0.0
 41
0.9
 51
0.0
  7
KANJI47
  0
TEXT
  8
0
  6
CONTINUOUS
 62
     2
 10
1706.32
 20
1250.88
 30
1.44
 40
14.4
  1
　５９
 50
0.0
 41
0.9
 51
0.0
  7
KANJI47
  0
TEXT
  8
0
  6
CONTINUOUS
 62
     2
 10
1706.32
 20
1222.28
 30
1.44
 40
14.4
  1
　６１
 50
0.0
 41
0.9
 51
0.0
  7
KANJI47
  0
TEXT
  8
0
  6
CONTINUOUS
 62
     2
 10
1706.32
 20
1193.68
 30
1.44
 40
14.4
  1
　６３
 50
0.0
 41
0.9
 51
0.0
  7
KANJI47
  0
TEXT
  8
0
  6
CONTINUOUS
 62
     2
 10
1706.32
 20
1165.08
 30
1.44
 40
14.4
  1
　６５
 50
0.0
 41
0.9
 51
0.0
  7
KANJI47
  0
TEXT
  8
0
  6
CONTINUOUS
 62
     2
 10
1706.32
 20
1136.48
 30
1.44
 40
14.4
  1
　６７
 50
0.0
 41
0.9
 51
0.0
  7
KANJI47
  0
TEXT
  8
0
  6
CONTINUOUS
 62
     2
 10
1706.32
 20
1107.88
 30
1.44
 40
14.4
  1
　６９
 50
0.0
 41
0.9
 51
0.0
  7
KANJI47
  0
TEXT
  8
0
  6
CONTINUOUS
 62
     2
 10
1706.32
 20
1079.28
 30
1.44
 40
14.4
  1
　７１
 50
0.0
 41
0.9
 51
0.0
  7
KANJI47
  0
LINE
  8
0
  6
CONTINUOUS
 62
     2
 10
433.6
 20
254.0
 30
0.0
 11
433.6
 21
197.2
 31
0.0
  0
LINE
  8
0
  6
CONTINUOUS
 62
     2
 10
274.4
 20
239.2
 30
0.0
 11
433.6
 21
239.2
 31
0.0
  0
LINE
  8
0
  6
CONTINUOUS
 62
     2
 10
433.6
 20
239.2
 30
0.0
 11
425.87259339
 21
241.270552361
 31
0.0
  0
LINE
  8
0
  6
CONTINUOUS
 62
     2
 10
433.6
 20
239.2
 30
0.0
 11
425.87259339
 21
237.129447639
 31
0.0
  0
TEXT
  8
0
  6
CONTINUOUS
 62
     3
 10
307.4
 20
241.2
 30
0.0
 40
15.0
  1
常用ストローク
 50
0.0
 41
0.9
 51
0.0
  7
KANJI28
  0
LINE
  8
0
  6
CONTINUOUS
 62
     2
 10
1364.367964258
 20
821.964647586
 30
0.0
 11
1363.022960148
 21
831.873782965
 31
0.0
  0
LINE
  8
0
  6
CONTINUOUS
 62
     2
 10
1364.367964258
 20
821.964647586
 30
0.0
 11
1358.248588842
 21
829.873708498
 31
0.0
  0
LINE
  8
0
  6
CONTINUOUS
 62
     2
 10
1364.367964258
 20
821.964647586
 30
0.0
 11
1333.299982657
 21
896.126926248
 31
0.0
  0
LINE
  8
0
  6
LTYPE1
 62
     2
 10
1399.0
 20
743.360720927
 30
0.0
 11
1399.0
 21
778.866754132
 31
0.0
  0
LINE
  8
0
  6
CONTINUOUS
 62
     1
 10
1399.0
 20
778.866754132
 30
0.0
 11
1399.0
 21
835.297465586
 31
0.0
  0
LINE
  8
0
  6
LTYPE1
 62
     2
 10
1417.0
 20
745.525046491
 30
0.0
 11
1417.0
 21
770.537381816
 31
0.0
  0
ARC
  8
0
  6
CONTINUOUS
 62
     1
 10
1422.0
 20
776.0
 30
0.0
 40
5.0
 50
90.0
 51
179.999825149
  0
LINE
  8
0
  6
CONTINUOUS
 62
     1
 10
1417.0
 20
770.719700758
 30
0.0
 11
1417.0
 21
776.000015259
 31
0.0
  0
LINE
  8
0
  6
LTYPE4
 62
     2
 10
1434.0
 20
806.0
 30
0.0
 11
1417.0
 21
806.0
 31
0.0
  0
LINE
  8
0
  6
LTYPE4
 62
     2
 10
1425.0
 20
798.0
 30
0.0
 11
1425.0
 21
814.5
 31
0.0
  0
LINE
  8
0
  6
CONTINUOUS
 62
     6
 10
1431.49995
 20
802.25297
 30
0.0
 11
1431.49995
 21
809.74703
 31
0.0
  0
LINE
  8
0
  6
CONTINUOUS
 62
     6
 10
1431.49995
 20
802.25297
 30
0.0
 11
1425.0
 21
798.50594
 31
0.0
  0
LINE
  8
0
  6
CONTINUOUS
 62
     6
 10
1418.50005
 20
802.25297
 30
0.0
 11
1418.50005
 21
809.74703
 31
0.0
  0
LINE
  8
0
  6
CONTINUOUS
 62
     6
 10
1418.50005
 20
802.25297
 30
0.0
 11
1425.0
 21
798.50594
 31
0.0
  0
LINE
  8
0
  6
CONTINUOUS
 62
     6
 10
1418.50005
 20
809.74703
 30
0.0
 11
1425.0
 21
813.49406
 31
0.0
  0
LINE
  8
0
  6
CONTINUOUS
 62
     6
 10
1431.49995
 20
809.74703
 30
0.0
 11
1425.0
 21
813.49406
 31
0.0
  0
CIRCLE
  8
0
  6
CONTINUOUS
 62
     6
 10
1425.0
 20
806.0
 30
0.0
 40
6.49995
  0
LINE
  8
0
  6
CONTINUOUS
 62
     1
 10
1420.0
 20
796.0
 30
0.0
 11
1532.0
 21
796.0
 31
0.0
  0
ARC
  8
0
  6
CONTINUOUS
 62
     1
 10
1420.0
 20
801.0
 30
0.0
 40
5.0
 50
179.999876362
 51
270.0
  0
LINE
  8
0
  6
CONTINUOUS
 62
     1
 10
1415.0
 20
801.00001079
 30
0.0
 11
1415.0
 21
913.0
 31
0.0
  0
LINE
  8
0
  6
LTYPE1
 62
     2
 10
1396.0
 20
707.47461494
 30
0.0
 11
1396.0
 21
743.0
 31
0.0
  0
LINE
  8
0
  6
LTYPE1
 62
     2
 10
1423.721040822
 20
697.666813483
 30
0.0
 11
1429.266714218
 21
697.0
 31
0.0
  0
LINE
  8
0
  6
CONTINUOUS
 62
     1
 10
1417.0
 20
698.474953509
 30
0.0
 11
1417.0
 21
668.0
 31
0.0
  0
LINE
  8
0
  6
CONTINUOUS
 62
     1
 10
1396.0
 20
701.0
 30
0.0
 11
1396.0
 21
707.47461494
 31
0.0
  0
LINE
  8
0
  6
CONTINUOUS
 62
     1
 10
1396.0
 20
701.0
 30
0.0
 11
1423.721040822
 21
697.666813483
 31
0.0
  0
LINE
  8
7
  6
CONTINUOUS
 62
     2
 10
1345.0
 20
847.429835768
 30
0.0
 11
1201.283705995
 21
847.429835768
 31
0.0
  0
TEXT
  8
2
  6
CONTINUOUS
 62
     2
 10
1236.278145063
 20
900.126926248
 30
0.0
 40
15.0
  1
２－ＰＦ１／２
 50
0.0
 41
0.9
 51
0.0
  7
KANJI28
  0
LINE
  8
2
  6
CONTINUOUS
 62
     2
 10
1333.299982657
 20
896.126926248
 30
0.0
 11
1234.367964258
 21
896.126926248
 31
0.0
  0
TEXT
  8
0
  6
CONTINUOUS
 62
     2
 10
1637.5200334
 20
120.899994
 30
1.8
 40
21.0
  1
０７．０９．２７
 50
0.0
 41
0.571428571
 51
0.0
  7
KANJI53
  0
LINE
  8
0
  6
CONTINUOUS
 62
     1
 10
920.182501379
 20
218.6
 30
0.0
 11
920.182501379
 21
201.05
 31
0.0
  0
LINE
  8
0
  6
CONTINUOUS
 62
     2
 10
1862.92
 20
890.7
 30
0.0
 11
2387.92
 21
890.7
 31
0.0
  0
LINE
  8
0
  6
CONTINUOUS
 62
     2
 10
1862.92
 20
848.7
 30
0.0
 11
2387.92
 21
848.7
 31
0.0
  0
LINE
  8
0
  6
CONTINUOUS
 62
     2
 10
1910.92
 20
1226.7
 30
0.0
 11
1910.92
 21
890.7
 31
0.0
  0
TEXT
  8
0
  6
CONTINUOUS
 62
     2
 10
1895.92
 20
859.5
 30
79.962857143
 40
22.8
  1
付属品
 50
0.0
 41
0.9
 51
0.0
  7
KANJI54
  0
TEXT
  8
0
  6
CONTINUOUS
 62
     2
 10
1895.92
 20
817.5
 30
180.445714286
 40
22.8
  1
台数
 50
0.0
 41
0.9
 51
0.0
  7
KANJI55
  0
LINE
  8
0
  6
CONTINUOUS
 62
     1
 10
1862.92
 20
1622.7
 30
0.0
 11
2387.92
 21
1622.7
 31
0.0
  0
TEXT
  8
0
  6
CONTINUOUS
 62
     2
 10
1937.92
 20
1578.9
 30
17.09964
 40
27.0
  1
マイティシリンダ仕様
 50
0.0
 41
0.9
 51
0.0
  7
KANJI56
  0
LINE
  8
0
  6
CONTINUOUS
 62
     2
 10
1910.92
 20
932.7
 30
0.0
 11
2387.92
 21
932.7
 31
0.0
  0
LINE
  8
0
  6
CONTINUOUS
 62
     2
 10
1910.92
 20
1058.7
 30
0.0
 11
2387.92
 21
1058.7
 31
0.0
  0
LINE
  8
0
  6
CONTINUOUS
 62
     2
 10
1910.92
 20
1100.7
 30
0.0
 11
2387.92
 21
1100.7
 31
0.0
  0
LINE
  8
0
  6
CONTINUOUS
 62
     2
 10
1862.92
 20
1310.7
 30
0.0
 11
2387.92
 21
1310.7
 31
0.0
  0
LINE
  8
0
  6
CONTINUOUS
 62
     2
 10
1862.92
 20
1268.7
 30
0.0
 11
2387.92
 21
1268.7
 31
0.0
  0
LINE
  8
0
  6
CONTINUOUS
 62
     2
 10
1862.92
 20
1226.7
 30
0.0
 11
2387.92
 21
1226.7
 31
0.0
  0
LINE
  8
0
  6
CONTINUOUS
 62
     2
 10
1910.92
 20
1142.7
 30
0.0
 11
2387.92
 21
1142.7
 31
0.0
  0
LINE
  8
0
  6
CONTINUOUS
 62
     2
 10
1910.92
 20
1184.7
 30
0.0
 11
2387.92
 21
1184.7
 31
0.0
  0
LINE
  8
0
  6
CONTINUOUS
 62
     2
 10
1862.92
 20
1520.7
 30
0.0
 11
2387.92
 21
1520.7
 31
0.0
  0
LINE
  8
0
  6
CONTINUOUS
 62
     2
 10
1862.92
 20
1478.7
 30
0.0
 11
2387.92
 21
1478.7
 31
0.0
  0
LINE
  8
0
  6
CONTINUOUS
 62
     2
 10
1862.92
 20
1436.7
 30
0.0
 11
2387.92
 21
1436.7
 31
0.0
  0
LINE
  8
0
  6
CONTINUOUS
 62
     2
 10
1862.92
 20
1394.7
 30
0.0
 11
2387.92
 21
1394.7
 31
0.0
  0
LINE
  8
0
  6
CONTINUOUS
 62
     2
 10
1862.92
 20
1352.7
 30
0.0
 11
2387.92
 21
1352.7
 31
0.0
  0
LINE
  8
0
  6
CONTINUOUS
 62
     2
 10
1862.92
 20
1562.7
 30
0.0
 11
2387.92
 21
1562.7
 31
0.0
  0
TEXT
  8
0
  6
CONTINUOUS
 62
     2
 10
1937.92
 20
1153.5
 30
33.439782857
 40
22.8
  1
電源電圧
 50
0.0
 41
0.9
 51
0.0
  7
KANJI57
  0
TEXT
  8
0
  6
CONTINUOUS
 62
     2
 10
1937.92
 20
1111.5
 30
60.42
 40
22.8
  1
周波数
 50
0.0
 41
0.9
 51
0.0
  7
KANJI58
  0
TEXT
  8
0
  6
CONTINUOUS
 62
     2
 10
1937.92
 20
1069.5
 30
141.36
 40
22.8
  1
電流
 50
0.0
 41
0.9
 51
0.0
  7
KANJI59
  0
TEXT
  8
0
  6
CONTINUOUS
 62
     2
 10
1937.92
 20
1027.5
 30
60.42
 40
22.8
  1
絶縁級
 50
0.0
 41
0.9
 51
0.0
  7
KANJI58
  0
TEXT
  8
0
  6
CONTINUOUS
 62
     2
 10
1895.92
 20
1531.5
 30
180.445714286
 40
22.8
  1
形式
 50
0.0
 41
0.9
 51
0.0
  7
KANJI55
  0
TEXT
  8
0
  6
CONTINUOUS
 62
     2
 10
1895.92
 20
1489.5
 30
180.445714286
 40
22.8
  1
推力
 50
0.0
 41
0.9
 51
0.0
  7
KANJI55
  0
TEXT
  8
0
  6
CONTINUOUS
 62
     2
 10
1895.92
 20
1447.5
 30
29.721428571
 40
22.8
  1
ストローク
 50
0.0
 41
0.9
 51
0.0
  7
KANJI60
  0
TEXT
  8
0
  6
CONTINUOUS
 62
     2
 10
1895.92
 20
1321.5
 30
180.445714286
 40
22.8
  1
構造
 50
0.0
 41
0.9
 51
0.0
  7
KANJI55
  0
TEXT
  8
0
  6
CONTINUOUS
 62
     2
 10
1895.92
 20
1279.5
 30
12.973851429
 40
22.8
  1
過負荷安全装置
 50
0.0
 41
0.9
 51
0.0
  7
KANJI61
  0
TEXT
  8
0
  6
CONTINUOUS
 62
     2
 10
1895.92
 20
1237.5
 30
79.962857143
 40
22.8
  1
塗装色
 50
0.0
 41
0.9
 51
0.0
  7
KANJI54
  0
TEXT
  8
0
  6
CONTINUOUS
 62
     2
 10
1871.92
 20
1363.5
 30
1.954285714
 40
22.8
  1
ピストンロッド回転トルク
 50
0.0
 41
0.9
 51
0.0
  7
KANJI62
  0
LINE
  8
0
  6
CONTINUOUS
 62
     2
 10
1862.92
 20
1016.7
 30
0.0
 11
2387.92
 21
1016.7
 31
0.0
  0
LINE
  8
0
  6
CONTINUOUS
 62
     2
 10
1910.92
 20
974.7
 30
0.0
 11
2387.92
 21
974.7
 31
0.0
  0
TEXT
  8
0
  6
CONTINUOUS
 62
     2
 10
1887.37
 20
1220.7
 30
13.2
 40
21.0
  1
モ　トル仕様
 50
0.0
 41
0.9
 51
0.0
  7
KANJI63
  0
TEXT
  8
0
  6
CONTINUOUS
 62
     2
 10
1887.37
 20
998.7
 30
1.2
 40
21.0
  1
ブレ　キ
 50
0.0
 41
0.9
 51
0.0
  7
KANJI64
  0
LINE
  8
0
  6
CONTINUOUS
 62
     2
 10
1885.72
 20
948.9
 30
0.0
 11
1885.72
 21
936.3
 31
0.0
  0
TEXT
  8
0
  6
CONTINUOUS
 62
     2
 10
2197.42
 20
1280.7
 30
9.0
 40
21.0
  1
推力リミッタ
 50
0.0
 41
0.9
 51
0.0
  7
KANJI65
  0
TEXT
  8
0
  6
CONTINUOUS
 62
     2
 10
2254.42
 20
1028.7
 30
1.8
 40
18.0
  1
Ｅ
 50
0.0
 41
0.9
 51
0.0
  7
KANJI66
  0
TEXT
  8
0
  6
CONTINUOUS
 62
     2
 10
2210.92
 20
943.5
 30
12.0
 40
21.0
  1
同時切り
 50
0.0
 41
0.9
 51
0.0
  7
KANJI67
  0
TEXT
  8
0
  6
CONTINUOUS
 62
     2
 10
1937.92
 20
985.5
 30
141.36
 40
22.8
  1
形式
 50
0.0
 41
0.9
 51
0.0
  7
KANJI59
  0
TEXT
  8
0
  6
CONTINUOUS
 62
     2
 10
1937.92
 20
943.5
 30
33.439782857
 40
22.8
  1
操作方式
 50
0.0
 41
0.9
 51
0.0
  7
KANJI57
  0
LINE
  8
0
  6
CONTINUOUS
 62
     2
 10
1885.72
 20
1184.1
 30
0.0
 11
1885.72
 21
1170.3
 31
0.0
  0
TEXT
  8
0
  6
CONTINUOUS
 62
     2
 10
1937.92
 20
1195.5
 30
3.0
 40
22.8
  1
出力　相数　極数
 50
0.0
 41
0.9
 51
0.0
  7
KANJI68
  0
TEXT
  8
0
  6
CONTINUOUS
 62
     2
 10
1895.92
 20
1405.5
 30
12.0
 40
22.8
  1
公称速度
 50
0.0
 41
0.9
 51
0.0
  7
KANJI69
  0
TEXT
  8
0
  6
CONTINUOUS
 62
     2
 10
2019.82
 20
1404.3
 30
0.0
 40
21.0
  1
（５０／６０Ｈｚ）
 50
0.0
 41
0.628571429
 51
0.0
  7
KANJI70
  0
TEXT
  8
0
  6
CONTINUOUS
 62
     2
 10
2140.42
 20
985.95
 30
3.3
 40
20.4
  1
スプリング制動式電磁ブレーキ
 50
0.0
 41
0.705882353
 51
0.0
  7
KANJI71
  0
TEXT
  8
0
  6
CONTINUOUS
 62
     2
 10
2359.42
 20
1153.5
 30
0.216
 40
18.0
  1
Ｖ
 50
0.0
 41
0.8
 51
0.0
  7
KANJI72
  0
TEXT
  8
0
  6
CONTINUOUS
 62
     2
 10
2348.62
 20
1111.5
 30
0.216
 40
18.0
  1
Ｈｚ
 50
0.0
 41
0.8
 51
0.0
  7
KANJI72
  0
TEXT
  8
0
  6
CONTINUOUS
 62
     2
 10
2359.42
 20
1069.5
 30
0.216
 40
18.0
  1
Ａ
 50
0.0
 41
0.8
 51
0.0
  7
KANJI72
  0
TEXT
  8
0
  6
CONTINUOUS
 62
     2
 10
2280.52
 20
1196.7
 30
1.8
 40
18.0
  1
３φ
 50
0.0
 41
0.9
 51
0.0
  7
KANJI66
  0
TEXT
  8
0
  6
CONTINUOUS
 62
     2
 10
2340.52
 20
1196.7
 30
1.8
 40
18.0
  1
４Ｐ
 50
0.0
 41
0.9
 51
0.0
  7
KANJI66
  0
TEXT
  8
0
  6
CONTINUOUS
 62
     2
 10
2138.92
 20
1238.7
 30
1.2
 40
19.2
  1
マンセル　７．５ＧＹ　５／４．５
 50
0.0
 41
0.71875
 51
0.0
  7
KANJI73
  0
TEXT
  8
0
  6
CONTINUOUS
 62
     2
 10
2138.92
 20
1154.7
 30
1.8
 40
18.0
  1
　　　　　　　／　　　
 50
0.0
 41
0.9
 51
0.0
  7
KANJI66
  0
TEXT
  8
0
  6
CONTINUOUS
 62
     2
 10
2138.92
 20
1112.7
 30
1.8
 40
18.0
  1
　　　　５０／　６０
 50
0.0
 41
0.9
 51
0.0
  7
KANJI66
  0
TEXT
  8
0
  6
CONTINUOUS
 62
     2
 10
2138.92
 20
1070.7
 30
1.8
 40
18.0
  1
　　　　　　　／　　　
 50
0.0
 41
0.9
 51
0.0
  7
KANJI66
  0
TEXT
  8
0
  6
CONTINUOUS
 62
     2
 10
2343.52
 20
1449.9
 30
0.1536
 40
19.2
  1
ｍｍ
 50
0.0
 41
0.8
 51
0.0
  7
KANJI74
  0
TEXT
  8
0
  6
CONTINUOUS
 62
     2
 10
2304.52
 20
1406.7
 30
0.0
 40
21.0
  1
ｍｍ／ｓｅｃ
 50
0.0
 41
0.571428571
 51
0.0
  7
KANJI75
  0
TEXT
  8
0
  6
CONTINUOUS
 62
     2
 10
2182.72
 20
1490.7
 30
1.8
 40
18.0
  1
４．９ＫＮ（５００ｋｇ）
 50
0.0
 41
0.9
 51
0.0
  7
KANJI66
  0
TEXT
  8
0
  6
CONTINUOUS
 62
     2
 10
2197.42
 20
1322.7
 30
9.0
 40
21.0
  1
全閉屋外形
 50
0.0
 41
0.9
 51
0.0
  7
KANJI65
  0
TEXT
  8
0
  6
CONTINUOUS
 62
     2
 10
2152.42
 20
1530.6
 30
1.2
 40
18.0
  1
ＭＣＬＢ０５－　ＪＬ
 50
0.0
 41
0.833333333
 51
0.0
  7
KANJI76
  0
TEXT
  8
0
  6
CONTINUOUS
 62
     2
 10
2141.92
 20
1406.7
 30
1.8
 40
18.0
  1
　２５／３０
 50
0.0
 41
0.9
 51
0.0
  7
KANJI66
  0
TEXT
  8
0
  6
CONTINUOUS
 62
     2
 10
2144.92
 20
1196.7
 30
1.8
 40
18.0
  1
　０．３ＫＷ
 50
0.0
 41
0.9
 51
0.0
  7
KANJI66
  0
LINE
  8
0
  6
CONTINUOUS
 62
     1
 10
1862.92
 20
764.7
 30
0.0
 11
2387.92
 21
764.7
 31
0.0
  0
LINE
  8
0
  6
CONTINUOUS
 62
     2
 10
1862.92
 20
806.7
 30
0.0
 11
2387.92
 21
806.7
 31
0.0
  0
TEXT
  8
0
  6
CONTINUOUS
 62
     2
 10
2332.72
 20
776.88
 30
0.0
 40
21.0
  1
ｋｇ
 50
0.0
 41
0.9
 51
0.0
  7
KANJI77
  0
TEXT
  8
0
  6
CONTINUOUS
 62
     2
 10
1894.72
 20
775.5
 30
6.0
 40
21.0
  1
概算重量（１台当り）
 50
0.0
 41
0.857142857
 51
0.0
  7
KANJI78
  0
TEXT
  8
0
  6
CONTINUOUS
 62
     2
 10
2153.92
 20
1364.7
 30
0.0
 40
18.0
  1
１９．６Ｎ・ｍ（２ｋｇ・ｍ）
 50
0.0
 41
0.833333333
 51
0.0
  7
KANJI79
  0
LINE
  8
0
  6
CONTINUOUS
 62
     1
 10
1862.92
 20
1622.7
 30
0.0
 11
1862.92
 21
764.7
 31
0.0
  0
LINE
  8
0
  6
CONTINUOUS
 62
     2
 10
2138.92
 20
1562.7
 30
0.0
 11
2138.92
 21
764.7
 31
0.0
  0
LINE
  8
0
  6
CONTINUOUS
 62
     1
 10
2387.92
 20
1622.7
 30
0.0
 11
2387.92
 21
764.7
 31
0.0
  0
ENDSEC
  0
EOF
