  0
SECTION
  2
HEADER
  9
$ACADVER
  1
AC1009
  9
$DWGCODEPAGE
  3
dos932
  9
$EXTMIN
 10
0.0
 20
0.0
 30
0.0
  9
$EXTMAX
 10
2520.0
 20
1782.0
 30
0.0
  9
$LIMMIN
 10
0.0
 20
0.0
  9
$LIMMAX
 10
2520.0
 20
1782.0
  9
$LTSCALE
 40
1.0
  9
$PDMODE
 70
     0
  0
ENDSEC
  0
SECTION
  2
TABLES
  0
TABLE
  2
VPORT
 70
     1
  0
VPORT
  2
*ACTIVE
 70
     0
 10
0.0
 20
0.0
 11
1.0
 21
1.0
 12
1260.0
 22
891.0
 13
0.0
 23
0.0
 14
10.0
 24
10.0
 15
10.0
 25
10.0
 16
0.0
 26
0.0
 36
1.0
 17
0.0
 27
0.0
 37
0.0
 40
2520.0
 41
1.414141414
 42
50.0
 43
0.0
 44
0.0
 50
0.0
 51
0.0
 71
     0
 72
  1000
 73
     1
 74
     3
 75
     0
 76
     0
 77
     0
 78
     0
  0
ENDTAB
  0
TABLE
  2
LTYPE
 70
     7
  0
LTYPE
  2
CONTINUOUS
 70
    64
  3
Solid line
 72
    65
 73
     0
 40
0.0
  0
LTYPE
  2
LTYPE1
 70
    64
  3
HIDDEN
 72
    65
 73
     2
 40
18.0
 49
10.8
 49
-7.2
  0
LTYPE
  2
LTYPE2
 70
    64
  3
CENTER
 72
    65
 73
     4
 40
60.0
 49
42.0
 49
-6.0
 49
6.0
 49
-6.0
  0
LTYPE
  2
LTYPE3
 70
    64
  3
CENTER
 72
    65
 73
     4
 40
90.0
 49
63.0
 49
-9.0
 49
9.0
 49
-9.0
  0
LTYPE
  2
LTYPE4
 70
    64
  3
CENTER
 72
    65
 73
     4
 40
120.0
 49
84.0
 49
-12.0
 49
12.0
 49
-12.0
  0
LTYPE
  2
LTYPE5
 70
    64
  3
PHANTOM
 72
    65
 73
     6
 40
90.0
 49
67.5
 49
-4.5
 49
4.5
 49
-4.5
 49
4.5
 49
-4.5
  0
LTYPE
  2
LTYPE6
 70
    64
  3
CENTER
 72
    65
 73
     4
 40
54.0
 49
37.8
 49
-5.4
 49
5.4
 49
-5.4
  0
ENDTAB
  0
TABLE
  2
LAYER
 70
   128
  0
LAYER
  2
0
 70
     0
 62
     7
  6
CONTINUOUS
  0
LAYER
  2
2
 70
     0
 62
     7
  6
CONTINUOUS
  0
LAYER
  2
3
 70
     0
 62
     7
  6
CONTINUOUS
  0
LAYER
  2
4
 70
     0
 62
     7
  6
CONTINUOUS
  0
LAYER
  2
5
 70
     0
 62
     7
  6
CONTINUOUS
  0
LAYER
  2
6
 70
     0
 62
     7
  6
CONTINUOUS
  0
LAYER
  2
7
 70
     0
 62
     7
  6
CONTINUOUS
  0
LAYER
  2
8
 70
     0
 62
     7
  6
CONTINUOUS
  0
LAYER
  2
9
 70
     0
 62
     7
  6
CONTINUOUS
  0
LAYER
  2
10
 70
     0
 62
     7
  6
CONTINUOUS
  0
LAYER
  2
11
 70
     0
 62
     7
  6
CONTINUOUS
  0
LAYER
  2
12
 70
     0
 62
     7
  6
CONTINUOUS
  0
LAYER
  2
13
 70
     0
 62
     7
  6
CONTINUOUS
  0
LAYER
  2
14
 70
     0
 62
     7
  6
CONTINUOUS
  0
LAYER
  2
15
 70
     0
 62
     7
  6
CONTINUOUS
  0
LAYER
  2
16
 70
     0
 62
     7
  6
CONTINUOUS
  0
LAYER
  2
17
 70
     0
 62
     7
  6
CONTINUOUS
  0
LAYER
  2
18
 70
     0
 62
     7
  6
CONTINUOUS
  0
LAYER
  2
19
 70
     0
 62
     7
  6
CONTINUOUS
  0
LAYER
  2
20
 70
     0
 62
     7
  6
CONTINUOUS
  0
LAYER
  2
21
 70
     0
 62
     7
  6
CONTINUOUS
  0
LAYER
  2
22
 70
     0
 62
     7
  6
CONTINUOUS
  0
LAYER
  2
23
 70
     0
 62
     7
  6
CONTINUOUS
  0
LAYER
  2
24
 70
     0
 62
     7
  6
CONTINUOUS
  0
LAYER
  2
25
 70
     0
 62
     7
  6
CONTINUOUS
  0
LAYER
  2
26
 70
     0
 62
     7
  6
CONTINUOUS
  0
LAYER
  2
27
 70
     0
 62
     7
  6
CONTINUOUS
  0
LAYER
  2
28
 70
     0
 62
     7
  6
CONTINUOUS
  0
LAYER
  2
29
 70
     0
 62
     7
  6
CONTINUOUS
  0
LAYER
  2
30
 70
     0
 62
     7
  6
CONTINUOUS
  0
LAYER
  2
31
 70
     0
 62
     7
  6
CONTINUOUS
  0
LAYER
  2
32
 70
     0
 62
     7
  6
CONTINUOUS
  0
LAYER
  2
33
 70
     0
 62
     7
  6
CONTINUOUS
  0
LAYER
  2
34
 70
     0
 62
     7
  6
CONTINUOUS
  0
LAYER
  2
35
 70
     0
 62
     7
  6
CONTINUOUS
  0
LAYER
  2
36
 70
     0
 62
     7
  6
CONTINUOUS
  0
LAYER
  2
37
 70
     0
 62
     7
  6
CONTINUOUS
  0
LAYER
  2
38
 70
     0
 62
     7
  6
CONTINUOUS
  0
LAYER
  2
39
 70
     0
 62
     7
  6
CONTINUOUS
  0
LAYER
  2
40
 70
     0
 62
     7
  6
CONTINUOUS
  0
LAYER
  2
41
 70
     0
 62
     7
  6
CONTINUOUS
  0
LAYER
  2
42
 70
     0
 62
     7
  6
CONTINUOUS
  0
LAYER
  2
43
 70
     0
 62
     7
  6
CONTINUOUS
  0
LAYER
  2
44
 70
     0
 62
     7
  6
CONTINUOUS
  0
LAYER
  2
45
 70
     0
 62
     7
  6
CONTINUOUS
  0
LAYER
  2
46
 70
     0
 62
     7
  6
CONTINUOUS
  0
LAYER
  2
47
 70
     0
 62
     7
  6
CONTINUOUS
  0
LAYER
  2
48
 70
     0
 62
     7
  6
CONTINUOUS
  0
LAYER
  2
49
 70
     0
 62
     7
  6
CONTINUOUS
  0
LAYER
  2
50
 70
     0
 62
     7
  6
CONTINUOUS
  0
LAYER
  2
51
 70
     0
 62
     7
  6
CONTINUOUS
  0
LAYER
  2
52
 70
     0
 62
     7
  6
CONTINUOUS
  0
LAYER
  2
53
 70
     0
 62
     7
  6
CONTINUOUS
  0
LAYER
  2
54
 70
     0
 62
     7
  6
CONTINUOUS
  0
LAYER
  2
55
 70
     0
 62
     7
  6
CONTINUOUS
  0
LAYER
  2
56
 70
     0
 62
     7
  6
CONTINUOUS
  0
LAYER
  2
57
 70
     0
 62
     7
  6
CONTINUOUS
  0
LAYER
  2
58
 70
     0
 62
     7
  6
CONTINUOUS
  0
LAYER
  2
59
 70
     0
 62
     7
  6
CONTINUOUS
  0
LAYER
  2
60
 70
     0
 62
     7
  6
CONTINUOUS
  0
LAYER
  2
61
 70
     0
 62
     7
  6
CONTINUOUS
  0
LAYER
  2
62
 70
     0
 62
     7
  6
CONTINUOUS
  0
LAYER
  2
63
 70
     0
 62
     7
  6
CONTINUOUS
  0
LAYER
  2
64
 70
     0
 62
     7
  6
CONTINUOUS
  0
LAYER
  2
65
 70
     0
 62
     7
  6
CONTINUOUS
  0
LAYER
  2
66
 70
     0
 62
     7
  6
CONTINUOUS
  0
LAYER
  2
67
 70
     0
 62
     7
  6
CONTINUOUS
  0
LAYER
  2
68
 70
     0
 62
     7
  6
CONTINUOUS
  0
LAYER
  2
69
 70
     0
 62
     7
  6
CONTINUOUS
  0
LAYER
  2
70
 70
     0
 62
     7
  6
CONTINUOUS
  0
LAYER
  2
71
 70
     0
 62
     7
  6
CONTINUOUS
  0
LAYER
  2
72
 70
     0
 62
     7
  6
CONTINUOUS
  0
LAYER
  2
73
 70
     0
 62
     7
  6
CONTINUOUS
  0
LAYER
  2
74
 70
     0
 62
     7
  6
CONTINUOUS
  0
LAYER
  2
75
 70
     0
 62
     7
  6
CONTINUOUS
  0
LAYER
  2
76
 70
     0
 62
     7
  6
CONTINUOUS
  0
LAYER
  2
77
 70
     0
 62
     7
  6
CONTINUOUS
  0
LAYER
  2
78
 70
     0
 62
     7
  6
CONTINUOUS
  0
LAYER
  2
79
 70
     0
 62
     7
  6
CONTINUOUS
  0
LAYER
  2
80
 70
     0
 62
     7
  6
CONTINUOUS
  0
LAYER
  2
81
 70
     0
 62
     7
  6
CONTINUOUS
  0
LAYER
  2
82
 70
     0
 62
     7
  6
CONTINUOUS
  0
LAYER
  2
83
 70
     0
 62
     7
  6
CONTINUOUS
  0
LAYER
  2
84
 70
     0
 62
     7
  6
CONTINUOUS
  0
LAYER
  2
85
 70
     0
 62
     7
  6
CONTINUOUS
  0
LAYER
  2
86
 70
     0
 62
     7
  6
CONTINUOUS
  0
LAYER
  2
87
 70
     0
 62
     7
  6
CONTINUOUS
  0
LAYER
  2
88
 70
     0
 62
     7
  6
CONTINUOUS
  0
LAYER
  2
89
 70
     0
 62
     7
  6
CONTINUOUS
  0
LAYER
  2
90
 70
     0
 62
     7
  6
CONTINUOUS
  0
LAYER
  2
91
 70
     0
 62
     7
  6
CONTINUOUS
  0
LAYER
  2
92
 70
     0
 62
     7
  6
CONTINUOUS
  0
LAYER
  2
93
 70
     0
 62
     7
  6
CONTINUOUS
  0
LAYER
  2
94
 70
     0
 62
     7
  6
CONTINUOUS
  0
LAYER
  2
95
 70
     0
 62
     7
  6
CONTINUOUS
  0
LAYER
  2
96
 70
     0
 62
     7
  6
CONTINUOUS
  0
LAYER
  2
97
 70
     0
 62
     7
  6
CONTINUOUS
  0
LAYER
  2
98
 70
     0
 62
     7
  6
CONTINUOUS
  0
LAYER
  2
99
 70
     0
 62
     7
  6
CONTINUOUS
  0
LAYER
  2
100
 70
     0
 62
     7
  6
CONTINUOUS
  0
LAYER
  2
101
 70
     0
 62
     7
  6
CONTINUOUS
  0
LAYER
  2
102
 70
     0
 62
     7
  6
CONTINUOUS
  0
LAYER
  2
103
 70
     0
 62
     7
  6
CONTINUOUS
  0
LAYER
  2
104
 70
     0
 62
     7
  6
CONTINUOUS
  0
LAYER
  2
105
 70
     0
 62
     7
  6
CONTINUOUS
  0
LAYER
  2
106
 70
     0
 62
     7
  6
CONTINUOUS
  0
LAYER
  2
107
 70
     0
 62
     7
  6
CONTINUOUS
  0
LAYER
  2
108
 70
     0
 62
     7
  6
CONTINUOUS
  0
LAYER
  2
109
 70
     0
 62
     7
  6
CONTINUOUS
  0
LAYER
  2
110
 70
     0
 62
     7
  6
CONTINUOUS
  0
LAYER
  2
111
 70
     0
 62
     7
  6
CONTINUOUS
  0
LAYER
  2
112
 70
     0
 62
     7
  6
CONTINUOUS
  0
LAYER
  2
113
 70
     0
 62
     7
  6
CONTINUOUS
  0
LAYER
  2
114
 70
     0
 62
     7
  6
CONTINUOUS
  0
LAYER
  2
115
 70
     0
 62
     7
  6
CONTINUOUS
  0
LAYER
  2
116
 70
     0
 62
     7
  6
CONTINUOUS
  0
LAYER
  2
117
 70
     0
 62
     7
  6
CONTINUOUS
  0
LAYER
  2
118
 70
     0
 62
     7
  6
CONTINUOUS
  0
LAYER
  2
119
 70
     0
 62
     7
  6
CONTINUOUS
  0
LAYER
  2
120
 70
     0
 62
     7
  6
CONTINUOUS
  0
LAYER
  2
121
 70
     0
 62
     7
  6
CONTINUOUS
  0
LAYER
  2
122
 70
     0
 62
     7
  6
CONTINUOUS
  0
LAYER
  2
123
 70
     0
 62
     7
  6
CONTINUOUS
  0
LAYER
  2
124
 70
     0
 62
     7
  6
CONTINUOUS
  0
LAYER
  2
125
 70
     0
 62
     7
  6
CONTINUOUS
  0
LAYER
  2
126
 70
     0
 62
     7
  6
CONTINUOUS
  0
LAYER
  2
127
 70
     0
 62
     7
  6
CONTINUOUS
  0
LAYER
  2
128
 70
     0
 62
     7
  6
CONTINUOUS
  0
ENDTAB
  0
TABLE
  2
STYLE
 70
    78
  0
STYLE
  2
STANDARD
 70
     0
 40
0.0
 41
1.0
 50
0.0
 71
     0
 42
0.2
  3
txt.shx
  4
extfont.shx
  0
STYLE
  2
KANJI0
 70
     0
 40
15.5999988
 41
0.75
 50
0.0
 71
     0
 42
15.5999988
  3
txt.shx
  4
extfont.shx
  0
STYLE
  2
KANJI1
 70
     0
 40
11.999997477
 41
0.6
 50
0.0
 71
     0
 42
11.999997477
  3
txt.shx
  4
extfont.shx
  0
STYLE
  2
KANJI2
 70
     0
 40
14.399996972
 41
0.9
 50
0.0
 71
     0
 42
14.399996972
  3
txt.shx
  4
extfont.shx
  0
STYLE
  2
KANJI3
 70
     0
 40
17.999996215
 41
0.9
 50
0.0
 71
     0
 42
17.999996215
  3
txt.shx
  4
extfont.shx
  0
STYLE
  2
KANJI4
 70
     0
 40
10.3999992
 41
0.6
 50
0.0
 71
     0
 42
10.3999992
  3
txt.shx
  4
extfont.shx
  0
STYLE
  2
KANJI5
 70
     0
 40
12.47999904
 41
0.6
 50
0.0
 71
     0
 42
12.47999904
  3
txt.shx
  4
extfont.shx
  0
STYLE
  2
KANJI6
 70
     0
 40
18.1999986
 41
0.42031746
 50
0.0
 71
     0
 42
18.1999986
  3
txt.shx
  4
extfont.shx
  0
STYLE
  2
KANJI7
 70
     0
 40
31.1999976
 41
0.9
 50
0.0
 71
     0
 42
31.1999976
  3
txt.shx
  4
extfont.shx
  0
STYLE
  2
KANJI8
 70
     0
 40
21.6
 41
1.111111111
 50
0.0
 71
     0
 42
21.6
  3
txt.shx
  4
extfont.shx
  0
STYLE
  2
KANJI9
 70
     0
 40
10.3999992
 41
0.8
 50
0.0
 71
     0
 42
10.3999992
  3
txt.shx
  4
extfont.shx
  0
STYLE
  2
KANJI10
 70
     0
 40
12.47999904
 41
0.8
 50
0.0
 71
     0
 42
12.47999904
  3
txt.shx
  4
extfont.shx
  0
STYLE
  2
KANJI11
 70
     0
 40
30.0
 41
1.0
 50
0.0
 71
     0
 42
30.0
  3
txt.shx
  4
extfont.shx
  0
STYLE
  2
KANJI12
 70
     0
 40
30.0
 41
1.0
 50
0.0
 71
     0
 42
30.0
  3
txt.shx
  4
extfont.shx
  0
STYLE
  2
KANJI13
 70
     0
 40
30.0
 41
0.8
 50
0.0
 71
     0
 42
30.0
  3
txt.shx
  4
extfont.shx
  0
STYLE
  2
KANJI14
 70
     0
 40
24.0
 41
1.0
 50
0.0
 71
     0
 42
24.0
  3
txt.shx
  4
extfont.shx
  0
STYLE
  2
KANJI15
 70
     0
 40
21.0
 41
0.857142857
 50
0.0
 71
     0
 42
21.0
  3
txt.shx
  4
extfont.shx
  0
STYLE
  2
KANJI16
 70
     0
 40
27.0
 41
0.666666667
 50
0.0
 71
     0
 42
27.0
  3
txt.shx
  4
extfont.shx
  0
STYLE
  2
KANJI17
 70
     0
 40
13.86
 41
0.9
 50
0.0
 71
     0
 42
13.86
  3
txt.shx
  4
extfont.shx
  0
STYLE
  2
KANJI18
 70
     0
 40
18.0
 41
0.9
 50
0.0
 71
     0
 42
18.0
  3
txt.shx
  4
extfont.shx
  0
STYLE
  2
KANJI19
 70
     0
 40
18.0
 41
0.9
 50
0.0
 71
     0
 42
18.0
  3
txt.shx
  4
extfont.shx
  0
STYLE
  2
KANJI20
 70
     0
 40
30.0
 41
0.8
 50
0.0
 71
     0
 42
30.0
  3
txt.shx
  4
extfont.shx
  0
STYLE
  2
KANJI21
 70
     0
 40
21.0
 41
0.793650794
 50
0.0
 71
     0
 42
21.0
  3
txt.shx
  4
extfont.shx
  0
STYLE
  2
KANJI22
 70
     0
 40
18.0
 41
0.766666667
 50
0.0
 71
     0
 42
18.0
  3
txt.shx
  4
extfont.shx
  0
STYLE
  2
KANJI23
 70
     0
 40
13.182
 41
0.85
 50
0.0
 71
     0
 42
13.182
  3
txt.shx
  4
extfont.shx
  0
STYLE
  2
KANJI24
 70
     0
 40
11.661
 41
0.822608696
 50
0.0
 71
     0
 42
11.661
  3
txt.shx
  4
extfont.shx
  0
STYLE
  2
KANJI25
 70
     0
 40
11.8638
 41
0.726495726
 50
0.0
 71
     0
 42
11.8638
  3
txt.shx
  4
extfont.shx
  0
STYLE
  2
KANJI26
 70
     4
 40
45.0
 41
0.538166667
 50
0.0
 71
     0
 42
45.0
  3
txt.shx
  4
extfont.shx
  0
STYLE
  2
KANJI27
 70
     0
 40
17.740702234
 41
0.880962996
 50
0.0
 71
     0
 42
17.740702234
  3
txt.shx
  4
extfont.shx
  0
STYLE
  2
KANJI28
 70
     0
 40
11.7
 41
0.8
 50
0.0
 71
     0
 42
11.7
  3
txt.shx
  4
extfont.shx
  0
STYLE
  2
KANJI29
 70
     0
 40
15.0
 41
0.911
 50
0.0
 71
     0
 42
15.0
  3
txt.shx
  4
extfont.shx
  0
STYLE
  2
KANJI30
 70
     0
 40
10.933904043
 41
0.9
 50
0.0
 71
     0
 42
10.933904043
  3
txt.shx
  4
extfont.shx
  0
STYLE
  2
KANJI31
 70
     0
 40
15.185977837
 41
0.66671875
 50
0.0
 71
     0
 42
15.185977837
  3
txt.shx
  4
extfont.shx
  0
STYLE
  2
KANJI32
 70
     0
 40
18.223173404
 41
0.9
 50
0.0
 71
     0
 42
18.223173404
  3
txt.shx
  4
extfont.shx
  0
STYLE
  2
KANJI33
 70
     0
 40
14.578538724
 41
0.9
 50
0.0
 71
     0
 42
14.578538724
  3
txt.shx
  4
extfont.shx
  0
STYLE
  2
KANJI34
 70
     0
 40
15.6
 41
0.925
 50
0.0
 71
     0
 42
15.6
  3
txt.shx
  4
extfont.shx
  0
STYLE
  2
KANJI35
 70
     0
 40
20.0
 41
0.925
 50
0.0
 71
     0
 42
20.0
  3
txt.shx
  4
extfont.shx
  0
STYLE
  2
KANJI36
 70
     0
 40
20.0
 41
0.925
 50
0.0
 71
     0
 42
20.0
  3
txt.shx
  4
extfont.shx
  0
STYLE
  2
KANJI37
 70
     0
 40
16.17
 41
0.9
 50
0.0
 71
     0
 42
16.17
  3
txt.shx
  4
extfont.shx
  0
STYLE
  2
KANJI38
 70
     0
 40
24.0
 41
0.9
 50
0.0
 71
     0
 42
24.0
  3
txt.shx
  4
extfont.shx
  0
STYLE
  2
KANJI39
 70
     0
 40
21.6
 41
0.857142857
 50
0.0
 71
     0
 42
21.6
  3
txt.shx
  4
extfont.shx
  0
STYLE
  2
KANJI40
 70
     0
 40
21.6
 41
0.857222222
 50
0.0
 71
     0
 42
21.6
  3
txt.shx
  4
extfont.shx
  0
STYLE
  2
KANJI41
 70
     0
 40
15.0
 41
0.9
 50
0.0
 71
     0
 42
15.0
  3
txt.shx
  4
extfont.shx
  0
STYLE
  2
KANJI42
 70
     0
 40
15.0
 41
0.9
 50
0.0
 71
     0
 42
15.0
  3
txt.shx
  4
extfont.shx
  0
STYLE
  2
KANJI43
 70
     0
 40
15.36
 41
0.9
 50
0.0
 71
     0
 42
15.36
  3
txt.shx
  4
extfont.shx
  0
STYLE
  2
KANJI44
 70
     0
 40
14.4
 41
0.9
 50
0.0
 71
     0
 42
14.4
  3
txt.shx
  4
extfont.shx
  0
STYLE
  2
KANJI45
 70
     0
 40
14.4
 41
0.9
 50
0.0
 71
     0
 42
14.4
  3
txt.shx
  4
extfont.shx
  0
STYLE
  2
KANJI46
 70
     0
 40
16.8
 41
0.9
 50
0.0
 71
     0
 42
16.8
  3
txt.shx
  4
extfont.shx
  0
STYLE
  2
KANJI47
 70
     0
 40
12.96
 41
0.740740741
 50
0.0
 71
     0
 42
12.96
  3
txt.shx
  4
extfont.shx
  0
STYLE
  2
KANJI48
 70
     0
 40
16.8
 41
0.857142857
 50
0.0
 71
     0
 42
16.8
  3
txt.shx
  4
extfont.shx
  0
STYLE
  2
KANJI49
 70
     0
 40
14.4
 41
0.833333333
 50
0.0
 71
     0
 42
14.4
  3
txt.shx
  4
extfont.shx
  0
STYLE
  2
KANJI50
 70
     0
 40
21.0
 41
0.571428571
 50
0.0
 71
     0
 42
21.0
  3
txt.shx
  4
extfont.shx
  0
STYLE
  2
KANJI51
 70
     0
 40
22.8
 41
0.9
 50
0.0
 71
     0
 42
22.8
  3
txt.shx
  4
extfont.shx
  0
STYLE
  2
KANJI52
 70
     0
 40
22.8
 41
0.9
 50
0.0
 71
     0
 42
22.8
  3
txt.shx
  4
extfont.shx
  0
STYLE
  2
KANJI53
 70
     0
 40
27.0
 41
0.9
 50
0.0
 71
     0
 42
27.0
  3
txt.shx
  4
extfont.shx
  0
STYLE
  2
KANJI54
 70
     0
 40
22.8
 41
0.9
 50
0.0
 71
     0
 42
22.8
  3
txt.shx
  4
extfont.shx
  0
STYLE
  2
KANJI55
 70
     0
 40
22.8
 41
0.9
 50
0.0
 71
     0
 42
22.8
  3
txt.shx
  4
extfont.shx
  0
STYLE
  2
KANJI56
 70
     0
 40
22.8
 41
0.9
 50
0.0
 71
     0
 42
22.8
  3
txt.shx
  4
extfont.shx
  0
STYLE
  2
KANJI57
 70
     0
 40
22.8
 41
0.9
 50
0.0
 71
     0
 42
22.8
  3
txt.shx
  4
extfont.shx
  0
STYLE
  2
KANJI58
 70
     0
 40
22.8
 41
0.9
 50
0.0
 71
     0
 42
22.8
  3
txt.shx
  4
extfont.shx
  0
STYLE
  2
KANJI59
 70
     0
 40
22.8
 41
0.9
 50
0.0
 71
     0
 42
22.8
  3
txt.shx
  4
extfont.shx
  0
STYLE
  2
KANJI60
 70
     4
 40
21.0
 41
0.9
 50
0.0
 71
     0
 42
21.0
  3
txt.shx
  4
extfont.shx
  0
STYLE
  2
KANJI61
 70
     4
 40
21.0
 41
0.9
 50
0.0
 71
     0
 42
21.0
  3
txt.shx
  4
extfont.shx
  0
STYLE
  2
KANJI62
 70
     0
 40
21.0
 41
0.9
 50
0.0
 71
     0
 42
21.0
  3
txt.shx
  4
extfont.shx
  0
STYLE
  2
KANJI63
 70
     0
 40
18.0
 41
0.9
 50
0.0
 71
     0
 42
18.0
  3
txt.shx
  4
extfont.shx
  0
STYLE
  2
KANJI64
 70
     0
 40
21.0
 41
0.9
 50
0.0
 71
     0
 42
21.0
  3
txt.shx
  4
extfont.shx
  0
STYLE
  2
KANJI65
 70
     0
 40
22.8
 41
0.9
 50
0.0
 71
     0
 42
22.8
  3
txt.shx
  4
extfont.shx
  0
STYLE
  2
KANJI66
 70
     0
 40
22.8
 41
0.9
 50
0.0
 71
     0
 42
22.8
  3
txt.shx
  4
extfont.shx
  0
STYLE
  2
KANJI67
 70
     0
 40
21.0
 41
0.628571429
 50
0.0
 71
     0
 42
21.0
  3
txt.shx
  4
extfont.shx
  0
STYLE
  2
KANJI68
 70
     0
 40
20.4
 41
0.705882353
 50
0.0
 71
     0
 42
20.4
  3
txt.shx
  4
extfont.shx
  0
STYLE
  2
KANJI69
 70
     0
 40
18.0
 41
0.8
 50
0.0
 71
     0
 42
18.0
  3
txt.shx
  4
extfont.shx
  0
STYLE
  2
KANJI70
 70
     0
 40
19.2
 41
0.71875
 50
0.0
 71
     0
 42
19.2
  3
txt.shx
  4
extfont.shx
  0
STYLE
  2
KANJI71
 70
     0
 40
19.2
 41
0.8
 50
0.0
 71
     0
 42
19.2
  3
txt.shx
  4
extfont.shx
  0
STYLE
  2
KANJI72
 70
     0
 40
21.0
 41
0.571428571
 50
0.0
 71
     0
 42
21.0
  3
txt.shx
  4
extfont.shx
  0
STYLE
  2
KANJI73
 70
     0
 40
18.0
 41
0.833333333
 50
0.0
 71
     0
 42
18.0
  3
txt.shx
  4
extfont.shx
  0
STYLE
  2
KANJI74
 70
     0
 40
21.0
 41
0.9
 50
0.0
 71
     0
 42
21.0
  3
txt.shx
  4
extfont.shx
  0
STYLE
  2
KANJI75
 70
     0
 40
21.0
 41
0.857142857
 50
0.0
 71
     0
 42
21.0
  3
txt.shx
  4
extfont.shx
  0
STYLE
  2
KANJI76
 70
     0
 40
18.0
 41
0.833333333
 50
0.0
 71
     0
 42
18.0
  3
txt.shx
  4
extfont.shx
  0
ENDTAB
  0
TABLE
  2
VIEW
 70
     0
  0
ENDTAB
  0
ENDSEC
  0
SECTION
  2
BLOCKS
  0
ENDSEC
  0
SECTION
  2
ENTITIES
  0
POLYLINE
  8
0
  6
CONTINUOUS
 62
     6
 66
     1
  0
VERTEX
  8
0
  6
CONTINUOUS
 62
     6
 10
77.92
 20
82.7
 30
0.0
  0
VERTEX
  8
0
  6
CONTINUOUS
 62
     6
 10
77.92
 20
1696.7
 30
0.0
  0
VERTEX
  8
0
  6
CONTINUOUS
 62
     6
 10
2399.92
 20
1696.7
 30
0.0
  0
SEQEND
  0
LINE
  8
0
  6
CONTINUOUS
 62
     6
 10
83.919998738
 20
172.699981077
 30
0.0
 11
473.919916738
 21
172.699981077
 31
0.0
  0
LINE
  8
0
  6
CONTINUOUS
 62
     6
 10
83.919998738
 20
88.699998738
 30
0.0
 11
473.919916738
 21
88.699998738
 31
0.0
  0
LINE
  8
0
  6
CONTINUOUS
 62
     6
 10
83.919998738
 20
88.699998738
 30
0.0
 11
83.919998738
 21
172.699981077
 31
0.0
  0
LINE
  8
0
  6
CONTINUOUS
 62
     6
 10
83.919998738
 20
130.699989908
 30
0.0
 11
473.919916738
 21
130.699989908
 31
0.0
  0
LINE
  8
0
  6
CONTINUOUS
 62
     4
 10
9.6199996
 20
87.8999996
 30
0.0
 11
72.0199948
 21
87.8999996
 31
0.0
  0
LINE
  8
0
  6
CONTINUOUS
 62
     4
 10
9.6199996
 20
119.0999972
 30
0.0
 11
72.0199948
 21
119.0999972
 31
0.0
  0
LINE
  8
0
  6
CONTINUOUS
 62
     4
 10
9.6199996
 20
150.2999948
 30
0.0
 11
72.0199948
 21
150.2999948
 31
0.0
  0
LINE
  8
0
  6
CONTINUOUS
 62
     4
 10
9.6199996
 20
181.4999924
 30
0.0
 11
72.0199948
 21
181.4999924
 31
0.0
  0
LINE
  8
0
  6
CONTINUOUS
 62
     4
 10
9.6199996
 20
212.69999
 30
0.0
 11
72.0199948
 21
212.69999
 31
0.0
  0
LINE
  8
0
  6
CONTINUOUS
 62
     4
 10
9.6199996
 20
243.8999876
 30
0.0
 11
72.0199948
 21
243.8999876
 31
0.0
  0
LINE
  8
0
  6
CONTINUOUS
 62
     4
 10
9.6199996
 20
275.0999852
 30
0.0
 11
72.0199948
 21
275.0999852
 31
0.0
  0
LINE
  8
0
  6
CONTINUOUS
 62
     4
 10
9.6199996
 20
306.2999828
 30
0.0
 11
72.0199948
 21
306.2999828
 31
0.0
  0
LINE
  8
0
  6
CONTINUOUS
 62
     4
 10
9.6199996
 20
337.4999804
 30
0.0
 11
72.0199948
 21
337.4999804
 31
0.0
  0
LINE
  8
0
  6
CONTINUOUS
 62
     4
 10
9.6199996
 20
368.699978
 30
0.0
 11
72.0199948
 21
368.699978
 31
0.0
  0
LINE
  8
0
  6
CONTINUOUS
 62
     4
 10
72.0199948
 20
87.8999996
 30
0.0
 11
72.0199948
 21
368.699978
 31
0.0
  0
LINE
  8
0
  6
CONTINUOUS
 62
     4
 10
40.8199972
 20
87.8999996
 30
0.0
 11
40.8199972
 21
337.4999804
 31
0.0
  0
TEXT
  8
0
  6
CONTINUOUS
 62
     4
 10
20.27999878
 20
96.9999989
 30
1.55999988
 40
15.5999988
  1
計
 50
0.0
 41
0.75
 51
0.0
  7
KANJI0
  0
TEXT
  8
0
  6
CONTINUOUS
 62
     4
 10
20.27999878
 20
159.91999406
 30
1.55999988
 40
15.5999988
  1
設
 50
0.0
 41
0.75
 51
0.0
  7
KANJI0
  0
TEXT
  8
0
  6
CONTINUOUS
 62
     4
 10
20.27999878
 20
190.5999917
 30
1.55999988
 40
15.5999988
  1
管
 50
0.0
 41
0.75
 51
0.0
  7
KANJI0
  0
TEXT
  8
0
  6
CONTINUOUS
 62
     4
 10
20.27999878
 20
221.7999893
 30
1.55999988
 40
15.5999988
  1
製
 50
0.0
 41
0.75
 51
0.0
  7
KANJI0
  0
TEXT
  8
0
  6
CONTINUOUS
 62
     4
 10
20.27999878
 20
252.9999869
 30
1.55999988
 40
15.5999988
  1
資
 50
0.0
 41
0.75
 51
0.0
  7
KANJI0
  0
TEXT
  8
0
  6
CONTINUOUS
 62
     4
 10
20.27999878
 20
284.1999845
 30
1.55999988
 40
15.5999988
  1
営
 50
0.0
 41
0.75
 51
0.0
  7
KANJI0
  0
TEXT
  8
0
  6
CONTINUOUS
 62
     4
 10
20.27999878
 20
315.3999821
 30
1.55999988
 40
15.5999988
  1
客
 50
0.0
 41
0.75
 51
0.0
  7
KANJI0
  0
TEXT
  8
0
  6
CONTINUOUS
 62
     4
 10
20.0199988
 20
347.8999796
 30
1.55999988
 40
15.5999988
  1
出　図
 50
0.0
 41
0.75
 51
0.0
  7
KANJI0
  0
LINE
  8
0
  6
CONTINUOUS
 62
     4
 10
9.6199996
 20
87.8999996
 30
0.0
 11
9.6199996
 21
368.699978
 31
0.0
  0
LINE
  8
0
  6
CONTINUOUS
 62
     6
 10
2399.92
 20
82.7
 30
0.0
 11
77.92
 21
82.7
 31
0.0
  0
TEXT
  8
0
  6
CONTINUOUS
 62
     4
 10
95.919996215
 20
112.699993692
 30
1.199999748
 40
11.999997477
  1
ＰＡＲＴＳ　ＬＩＳＴ
 50
0.0
 41
0.6
 51
0.0
  7
KANJI1
  0
TEXT
  8
0
  6
CONTINUOUS
 62
     4
 10
95.919996215
 20
94.699997477
 30
1.439999697
 40
14.399996972
  1
部品表
 50
0.0
 41
0.9
 51
0.0
  7
KANJI2
  0
TEXT
  8
0
  6
CONTINUOUS
 62
     3
 10
95.919996215
 20
142.699987385
 30
1.799999622
 40
17.999996215
  1
ＰＬ
 50
0.0
 41
0.9
 51
0.0
  7
KANJI3
  0
TEXT
  8
0
  6
CONTINUOUS
 62
     4
 10
365.919939446
 20
112.699993692
 30
1.199999748
 40
11.999997477
  1
Ｎ０．
 50
0.0
 41
0.6
 51
0.0
  7
KANJI1
  0
TEXT
  8
0
  6
CONTINUOUS
 62
     4
 10
365.919939446
 20
94.699997477
 30
1.439999697
 40
14.399996972
  1
項番
 50
0.0
 41
0.9
 51
0.0
  7
KANJI2
  0
LINE
  8
0
  6
CONTINUOUS
 62
     6
 10
473.919916738
 20
88.699998738
 30
0.0
 11
473.919916738
 21
172.699981077
 31
0.0
  0
LINE
  8
0
  6
CONTINUOUS
 62
     6
 10
353.919941969
 20
88.699998738
 30
0.0
 11
353.919941969
 21
172.699981077
 31
0.0
  0
LINE
  8
0
  6
CONTINUOUS
 62
     6
 10
2399.92
 20
1696.7
 30
0.0
 11
2399.92
 21
82.7
 31
0.0
  0
LINE
  8
0
  6
CONTINUOUS
 62
     6
 10
1593.920062
 20
87.8999996
 30
0.0
 11
1593.920062
 21
420.699974
 31
0.0
  0
LINE
  8
0
  6
CONTINUOUS
 62
     6
 10
2394.7200004
 20
87.8999996
 30
0.0
 11
2394.7200004
 21
420.699974
 31
0.0
  0
LINE
  8
0
  6
CONTINUOUS
 62
     4
 10
1783.7200474
 20
87.8999996
 30
0.0
 11
1783.7200474
 21
420.699974
 31
0.0
  0
LINE
  8
0
  6
CONTINUOUS
 62
     4
 10
1593.920062
 20
129.4999964
 30
0.0
 11
1783.7200474
 21
129.4999964
 31
0.0
  0
TEXT
  8
0
  6
CONTINUOUS
 62
     4
 10
1604.3200612
 20
111.2999978
 30
1.03999992
 40
10.3999992
  1
ＳＣＡＬＥ
 50
0.0
 41
0.6
 51
0.0
  7
KANJI4
  0
TEXT
  8
0
  6
CONTINUOUS
 62
     4
 10
1604.3200612
 20
95.699999
 30
1.247999904
 40
12.47999904
  1
尺度
 50
0.0
 41
0.6
 51
0.0
  7
KANJI5
  0
LINE
  8
0
  6
CONTINUOUS
 62
     6
 10
1183.1200936
 20
129.4999964
 30
0.0
 11
1593.920062
 21
129.4999964
 31
0.0
  0
LINE
  8
0
  6
CONTINUOUS
 62
     6
 10
1183.1200936
 20
87.8999996
 30
0.0
 11
2394.7200004
 21
87.8999996
 31
0.0
  0
TEXT
  8
0
  6
CONTINUOUS
 62
     6
 10
1788.920047
 20
111.2999978
 30
0.0
 40
18.1999986
  1
ＵＮＩＴＥＣ　ＩＮＤＵＳＴＲＹ　ＣＯ．，ＬＴＤ．
 50
0.0
 41
0.42031746
 51
0.0
  7
KANJI6
  0
TEXT
  8
0
  6
CONTINUOUS
 62
     6
 10
2044.175027365
 20
104.53999832
 30
3.11999976
 40
31.1999976
  1
ユニテック工業株式会社
 50
0.0
 41
0.9
 51
0.0
  7
KANJI7
  0
LINE
  8
0
  6
CONTINUOUS
 62
     6
 10
2002.575030565
 20
115.45999748
 30
0.0
 11
1988.847031621
 21
115.45999748
 31
0.0
  0
LINE
  8
0
  6
CONTINUOUS
 62
     6
 10
2002.575030565
 20
117.955997288
 30
0.0
 11
1988.847031621
 21
117.955997288
 31
0.0
  0
LINE
  8
0
  6
CONTINUOUS
 62
     6
 10
2002.575030565
 20
115.45999748
 30
0.0
 11
2016.303029509
 21
115.45999748
 31
0.0
  0
LINE
  8
0
  6
CONTINUOUS
 62
     6
 10
2002.575030565
 20
117.955997288
 30
0.0
 11
2016.303029509
 21
117.955997288
 31
0.0
  0
LINE
  8
0
  6
CONTINUOUS
 62
     6
 10
2016.303029509
 20
117.955997288
 30
0.0
 11
2016.303029509
 21
115.45999748
 31
0.0
  0
ARC
  8
0
  6
CONTINUOUS
 62
     6
 10
2019.423029269
 20
116.707997384
 30
0.0
 40
12.47999904
 50
185.739170477
 51
90.0
  0
ARC
  8
0
  6
CONTINUOUS
 62
     6
 10
2019.423029269
 20
116.707997384
 30
0.0
 40
14.975998848
 50
184.780191847
 51
90.0
  0
LINE
  8
0
  6
CONTINUOUS
 62
     6
 10
1988.847031621
 20
115.45999748
 30
0.0
 11
1988.847031621
 21
117.955997288
 31
0.0
  0
ARC
  8
0
  6
CONTINUOUS
 62
     6
 10
1985.727031861
 20
116.707997384
 30
0.0
 40
12.47999904
 50
90.0
 51
354.260829523
  0
ARC
  8
0
  6
CONTINUOUS
 62
     6
 10
1985.727031861
 20
116.707997384
 30
0.0
 40
14.975998848
 50
90.0
 51
355.219808153
  0
LINE
  8
0
  6
CONTINUOUS
 62
     6
 10
2000.703030709
 20
131.683996232
 30
0.0
 11
2000.703030709
 21
129.187996424
 31
0.0
  0
LINE
  8
0
  6
CONTINUOUS
 62
     6
 10
1985.727031861
 20
129.187996424
 30
0.0
 11
2000.703030709
 21
129.187996424
 31
0.0
  0
LINE
  8
0
  6
CONTINUOUS
 62
     6
 10
2004.447030421
 20
131.683996232
 30
0.0
 11
2004.447030421
 21
129.187996424
 31
0.0
  0
LINE
  8
0
  6
CONTINUOUS
 62
     6
 10
2019.423029269
 20
129.187996424
 30
0.0
 11
2004.447030421
 21
129.187996424
 31
0.0
  0
TEXT
  8
0
  6
CONTINUOUS
 62
     4
 10
1315.7200834
 20
111.2999978
 30
1.03999992
 40
10.3999992
  1
ＢＹ
 50
0.0
 41
0.6
 51
0.0
  7
KANJI4
  0
TEXT
  8
0
  6
CONTINUOUS
 62
     4
 10
1430.1200746
 20
111.2999978
 30
1.03999992
 40
10.3999992
  1
ＤＥＳＣＲＩＰＴＩＯＮ
 50
0.0
 41
0.6
 51
0.0
  7
KANJI4
  0
TEXT
  8
0
  6
CONTINUOUS
 62
     4
 10
1315.7200834
 20
95.699999
 30
1.247999904
 40
12.47999904
  1
担当
 50
0.0
 41
0.6
 51
0.0
  7
KANJI5
  0
TEXT
  8
0
  6
CONTINUOUS
 62
     4
 10
1445.7200734
 20
95.699999
 30
1.247999904
 40
12.47999904
  1
記　　　　事
 50
0.0
 41
0.6
 51
0.0
  7
KANJI5
  0
LINE
  8
0
  6
CONTINUOUS
 62
     4
 10
1205.2200919
 20
121.699997
 30
0.0
 11
1188.3200932
 21
95.699999
 31
0.0
  0
TEXT
  8
0
  6
CONTINUOUS
 62
     4
 10
1248.1200886
 20
111.2999978
 30
1.03999992
 40
10.3999992
  1
ＤＡＴＥ
 50
0.0
 41
0.6
 51
0.0
  7
KANJI4
  0
TEXT
  8
0
  6
CONTINUOUS
 62
     4
 10
1255.920088
 20
95.699999
 30
1.247999904
 40
12.47999904
  1
日付
 50
0.0
 41
0.6
 51
0.0
  7
KANJI5
  0
LINE
  8
0
  6
CONTINUOUS
 62
     4
 10
1188.3200932
 20
95.699999
 30
0.0
 11
1222.1200906
 21
95.699999
 31
0.0
  0
LINE
  8
0
  6
CONTINUOUS
 62
     4
 10
1205.2200919
 20
121.699997
 30
0.0
 11
1222.1200906
 21
95.699999
 31
0.0
  0
LINE
  8
0
  6
CONTINUOUS
 62
     6
 10
1183.1200936
 20
87.8999996
 30
0.0
 11
1183.1200936
 21
129.4999964
 31
0.0
  0
LINE
  8
0
  6
CONTINUOUS
 62
     4
 10
1227.3200902
 20
87.8999996
 30
0.0
 11
1227.3200902
 21
129.4999964
 31
0.0
  0
LINE
  8
0
  6
CONTINUOUS
 62
     4
 10
1300.1200846
 20
87.8999996
 30
0.0
 11
1300.1200846
 21
129.4999964
 31
0.0
  0
LINE
  8
0
  6
CONTINUOUS
 62
     4
 10
1346.920081
 20
87.8999996
 30
0.0
 11
1346.920081
 21
129.4999964
 31
0.0
  0
TEXT
  8
0
  6
CONTINUOUS
 62
     4
 10
1604.3200612
 20
319.2999818
 30
1.03999992
 40
10.3999992
  1
ＣＯＤＥ
 50
0.0
 41
0.6
 51
0.0
  7
KANJI4
  0
LINE
  8
0
  6
CONTINUOUS
 62
     4
 10
1593.920062
 20
337.4999804
 30
0.0
 11
2394.7200004
 21
337.4999804
 31
0.0
  0
TEXT
  8
0
  6
CONTINUOUS
 62
     4
 10
1604.3200612
 20
303.699983
 30
1.247999904
 40
12.47999904
  1
分類
 50
0.0
 41
0.6
 51
0.0
  7
KANJI5
  0
TEXT
  8
0
  6
CONTINUOUS
 62
     4
 10
1612.42
 20
343.7
 30
6.0
 40
21.6
  1
ご注文主
 50
0.0
 41
1.111111111
 51
0.0
  7
KANJI8
  0
TEXT
  8
0
  6
CONTINUOUS
 62
     4
 10
1604.3200612
 20
194.4999914
 30
1.03999992
 40
10.3999992
  1
ＤＲＡＷＮ
 50
0.0
 41
0.6
 51
0.0
  7
KANJI4
  0
TEXT
  8
0
  6
CONTINUOUS
 62
     4
 10
1604.3200612
 20
236.0999882
 30
1.03999992
 40
10.3999992
  1
ＤＥＳＩＧＮ
 50
0.0
 41
0.6
 51
0.0
  7
KANJI4
  0
TEXT
  8
0
  6
CONTINUOUS
 62
     4
 10
1604.3200612
 20
277.699985
 30
1.03999992
 40
10.3999992
  1
ＣＨＥＣＫ
 50
0.0
 41
0.6
 51
0.0
  7
KANJI4
  0
LINE
  8
0
  6
CONTINUOUS
 62
     4
 10
1593.920062
 20
254.2999868
 30
0.0
 11
1783.7200474
 21
254.2999868
 31
0.0
  0
LINE
  8
0
  6
CONTINUOUS
 62
     4
 10
1593.920062
 20
212.69999
 30
0.0
 11
1783.7200474
 21
212.69999
 31
0.0
  0
LINE
  8
0
  6
CONTINUOUS
 62
     4
 10
1593.920062
 20
295.8999836
 30
0.0
 11
1783.7200474
 21
295.8999836
 31
0.0
  0
TEXT
  8
0
  6
CONTINUOUS
 62
     4
 10
1604.3200612
 20
220.4999894
 30
1.247999904
 40
12.47999904
  1
設計
 50
0.0
 41
0.6
 51
0.0
  7
KANJI5
  0
TEXT
  8
0
  6
CONTINUOUS
 62
     4
 10
1604.3200612
 20
262.0999862
 30
1.247999904
 40
12.47999904
  1
検図
 50
0.0
 41
0.6
 51
0.0
  7
KANJI5
  0
LINE
  8
0
  6
CONTINUOUS
 62
     4
 10
1799.06004622
 20
295.8999836
 30
0.0
 11
2394.7200004
 21
295.8999836
 31
0.0
  0
LINE
  8
0
  6
CONTINUOUS
 62
     4
 10
1783.7200474
 20
212.69999
 30
0.0
 11
2394.7200004
 21
212.69999
 31
0.0
  0
TEXT
  8
0
  6
CONTINUOUS
 62
     4
 10
1794.1200466
 20
194.4999914
 30
1.03999992
 40
10.3999992
  1
ＤＲＡＷＩＮＧ　ＮＯ．
 50
0.0
 41
0.8
 51
0.0
  7
KANJI9
  0
TEXT
  8
0
  6
CONTINUOUS
 62
     4
 10
1794.1200466
 20
236.0999882
 30
1.03999992
 40
10.3999992
  1
ＭＦＧ　ＮＯ．
 50
0.0
 41
0.8
 51
0.0
  7
KANJI9
  0
TEXT
  8
0
  6
CONTINUOUS
 62
     4
 10
1794.1200466
 20
277.699985
 30
1.03999992
 40
10.3999992
  1
ＴＹＰＥ
 50
0.0
 41
0.8
 51
0.0
  7
KANJI9
  0
LINE
  8
0
  6
CONTINUOUS
 62
     4
 10
1799.3200462
 20
254.2999868
 30
0.0
 11
2038.5200278
 21
254.2999868
 31
0.0
  0
TEXT
  8
0
  6
CONTINUOUS
 62
     4
 10
1794.1200466
 20
176.2999928
 30
1.247999904
 40
12.47999904
  1
図　面　番　号
 50
0.0
 41
0.8
 51
0.0
  7
KANJI10
  0
TEXT
  8
0
  6
CONTINUOUS
 62
     4
 10
1794.1200466
 20
217.8999896
 30
1.247999904
 40
12.47999904
  1
製番
 50
0.0
 41
0.8
 51
0.0
  7
KANJI10
  0
TEXT
  8
0
  6
CONTINUOUS
 62
     4
 10
1794.1200466
 20
259.4999864
 30
1.247999904
 40
12.47999904
  1
機種
 50
0.0
 41
0.8
 51
0.0
  7
KANJI10
  0
LINE
  8
0
  6
CONTINUOUS
 62
     4
 10
1593.920062
 20
171.0999932
 30
0.0
 11
1783.7200474
 21
171.0999932
 31
0.0
  0
TEXT
  8
0
  6
CONTINUOUS
 62
     4
 10
1604.3200612
 20
152.8999946
 30
1.03999992
 40
10.3999992
  1
ＤＡＴＥ
 50
0.0
 41
0.6
 51
0.0
  7
KANJI4
  0
TEXT
  8
0
  6
CONTINUOUS
 62
     4
 10
1604.3200612
 20
137.2999958
 30
1.247999904
 40
12.47999904
  1
日付
 50
0.0
 41
0.6
 51
0.0
  7
KANJI5
  0
TEXT
  8
0
  6
CONTINUOUS
 62
     4
 10
1604.3200612
 20
178.8999926
 30
1.247999904
 40
12.47999904
  1
作図
 50
0.0
 41
0.6
 51
0.0
  7
KANJI5
  0
LINE
  8
0
  6
CONTINUOUS
 62
     4
 10
1783.7200474
 20
152.8999946
 30
0.0
 11
2394.7200004
 21
152.8999946
 31
0.0
  0
LINE
  8
0
  6
LTYPE1
 62
     4
 10
2220.5200138
 20
160.699994
 30
0.0
 11
2220.5200138
 21
202.2999908
 31
0.0
  0
LINE
  8
0
  6
LTYPE1
 62
     4
 10
2184.1200166
 20
160.699994
 30
0.0
 11
2184.1200166
 21
202.2999908
 31
0.0
  0
LINE
  8
0
  6
LTYPE1
 62
     4
 10
2147.7200194
 20
160.699994
 30
0.0
 11
2147.7200194
 21
202.2999908
 31
0.0
  0
LINE
  8
0
  6
LTYPE1
 62
     4
 10
2111.3200222
 20
160.699994
 30
0.0
 11
2111.3200222
 21
202.2999908
 31
0.0
  0
LINE
  8
0
  6
LTYPE1
 62
     4
 10
2074.920025
 20
160.699994
 30
0.0
 11
2074.920025
 21
202.2999908
 31
0.0
  0
LINE
  8
0
  6
LTYPE1
 62
     4
 10
2038.5200278
 20
160.699994
 30
0.0
 11
2038.5200278
 21
202.2999908
 31
0.0
  0
LINE
  8
0
  6
LTYPE1
 62
     4
 10
2002.1200306
 20
160.699994
 30
0.0
 11
2002.1200306
 21
202.2999908
 31
0.0
  0
LINE
  8
0
  6
LTYPE1
 62
     4
 10
1965.7200334
 20
160.699994
 30
0.0
 11
1965.7200334
 21
202.2999908
 31
0.0
  0
LINE
  8
0
  6
LTYPE1
 62
     4
 10
1965.7200334
 20
202.2999908
 30
0.0
 11
2220.5200138
 21
202.2999908
 31
0.0
  0
LINE
  8
0
  6
LTYPE1
 62
     4
 10
1965.7200334
 20
160.699994
 30
0.0
 11
2220.5200138
 21
160.699994
 31
0.0
  0
LINE
  8
0
  6
CONTINUOUS
 62
     4
 10
2241.3200122
 20
182.7999923
 30
0.0
 11
2251.7200114
 21
182.7999923
 31
0.0
  0
LINE
  8
0
  6
CONTINUOUS
 62
     4
 10
2306.3200072
 20
167.1999935
 30
0.0
 11
2269.92001
 21
167.1999935
 31
0.0
  0
LINE
  8
0
  6
CONTINUOUS
 62
     4
 10
2269.92001
 20
167.1999935
 30
0.0
 11
2288.1200086
 21
198.3999911
 31
0.0
  0
LINE
  8
0
  6
CONTINUOUS
 62
     4
 10
2288.1200086
 20
198.3999911
 30
0.0
 11
2306.3200072
 21
167.1999935
 31
0.0
  0
TEXT
  8
0
  6
CONTINUOUS
 62
     4
 10
2054.1200266
 20
277.699985
 30
1.03999992
 40
10.3999992
  1
ＴＩＴＬＥ
 50
0.0
 41
0.8
 51
0.0
  7
KANJI9
  0
TEXT
  8
0
  6
CONTINUOUS
 62
     4
 10
2054.1200266
 20
259.4999864
 30
1.247999904
 40
12.47999904
  1
名称
 50
0.0
 41
0.8
 51
0.0
  7
KANJI10
  0
TEXT
  8
0
  6
CONTINUOUS
 62
     2
 10
2138.92
 20
220.7
 30
15.0
 40
30.0
  1
外形寸法図
 50
0.0
 41
1.0
 51
0.0
  7
KANJI11
  0
TEXT
  8
0
  6
CONTINUOUS
 62
     2
 10
2102.92
 20
256.7
 30
4.285714286
 40
30.0
  1
マイティシリンダ
 50
0.0
 41
1.0
 51
0.0
  7
KANJI12
  0
TEXT
  8
0
  6
CONTINUOUS
 62
     2
 10
1934.2200334
 20
166.699994
 30
1.8
 40
30.0
  1
Ａ
 50
0.0
 41
0.8
 51
0.0
  7
KANJI13
  0
CIRCLE
  8
0
  6
CONTINUOUS
 62
     2
 10
1895.2200334
 20
231.199994
 30
0.0
 40
15.0
  0
TEXT
  8
0
  6
CONTINUOUS
 62
     2
 10
1883.9700334
 20
219.949994
 30
1.8
 40
24.0
  1
Ｓ
 50
0.0
 41
1.0
 51
0.0
  7
KANJI14
  0
LINE
  8
0
  6
CONTINUOUS
 62
     6
 10
2000.703030709
 20
131.683996232
 30
0.0
 11
1985.727031861
 21
131.683996232
 31
0.0
  0
LINE
  8
0
  6
CONTINUOUS
 62
     6
 10
2004.447030421
 20
131.683996232
 30
0.0
 11
2019.423029269
 21
131.683996232
 31
0.0
  0
TEXT
  8
0
  6
CONTINUOUS
 62
     2
 10
1660.9200334
 20
181.699994
 30
6.0
 40
21.0
  1
岡田
 50
0.0
 41
0.857142857
 51
0.0
  7
KANJI15
  0
LINE
  8
0
  6
CONTINUOUS
 62
     4
 10
2394.7200004
 20
379.0999772
 30
0.0
 11
2394.7200004
 21
420.699974
 31
0.0
  0
LINE
  8
0
  6
CONTINUOUS
 62
     6
 10
1594.670062
 20
379.0999772
 30
0.0
 11
2395.4700004
 21
379.0999772
 31
0.0
  0
LINE
  8
0
  6
CONTINUOUS
 62
     6
 10
1593.920062
 20
420.699974
 30
0.0
 11
2394.7200004
 21
420.699974
 31
0.0
  0
TEXT
  8
0
  6
CONTINUOUS
 62
     4
 10
1612.42
 20
385.2999968
 30
6.0
 40
21.6
  1
ご用途
 50
0.0
 41
1.111111111
 51
0.0
  7
KANJI8
  0
TEXT
  8
0
  6
CONTINUOUS
 62
     2
 10
1703.92
 20
94.7
 30
1.8
 40
27.0
  1
１／６
 50
0.0
 41
0.666666667
 51
0.0
  7
KANJI16
  0
LINE
  8
0
  6
CONTINUOUS
 62
     1
 10
1518.37
 20
1685.9
 30
0.0
 11
1518.37
 21
1565.78
 31
0.0
  0
LINE
  8
0
  6
CONTINUOUS
 62
     2
 10
1449.07
 20
1685.9
 30
0.0
 11
1449.07
 21
1565.78
 31
0.0
  0
LINE
  8
0
  6
CONTINUOUS
 62
     2
 10
1379.77
 20
1685.9
 30
0.0
 11
1379.77
 21
1565.78
 31
0.0
  0
LINE
  8
0
  6
CONTINUOUS
 62
     1
 10
1287.37
 20
1685.9
 30
0.0
 11
1287.37
 21
1565.78
 31
0.0
  0
LINE
  8
0
  6
CONTINUOUS
 62
     1
 10
1287.37
 20
1685.9
 30
0.0
 11
1518.37
 21
1685.9
 31
0.0
  0
LINE
  8
0
  6
CONTINUOUS
 62
     1
 10
1287.37
 20
1648.94
 30
0.0
 11
1518.37
 21
1648.94
 31
0.0
  0
LINE
  8
0
  6
CONTINUOUS
 62
     2
 10
1287.37
 20
1621.22
 30
0.0
 11
1518.37
 21
1621.22
 31
0.0
  0
LINE
  8
0
  6
CONTINUOUS
 62
     2
 10
1287.37
 20
1593.5
 30
0.0
 11
1518.37
 21
1593.5
 31
0.0
  0
LINE
  8
0
  6
CONTINUOUS
 62
     1
 10
1287.37
 20
1565.78
 30
0.0
 11
1518.37
 21
1565.78
 31
0.0
  0
TEXT
  8
0
  6
CONTINUOUS
 62
     2
 10
1458.31
 20
1669.73
 30
1.386
 40
13.86
  1
起動電流
 50
0.0
 41
0.9
 51
0.0
  7
KANJI17
  0
TEXT
  8
0
  6
CONTINUOUS
 62
     2
 10
1458.31
 20
1653.56
 30
1.386
 40
13.86
  1
　　　Ａ
 50
0.0
 41
0.9
 51
0.0
  7
KANJI17
  0
TEXT
  8
0
  6
CONTINUOUS
 62
     2
 10
1389.01
 20
1669.73
 30
1.386
 40
13.86
  1
定格電流
 50
0.0
 41
0.9
 51
0.0
  7
KANJI17
  0
TEXT
  8
0
  6
CONTINUOUS
 62
     2
 10
1389.01
 20
1653.56
 30
1.386
 40
13.86
  1
　　　Ａ
 50
0.0
 41
0.9
 51
0.0
  7
KANJI17
  0
TEXT
  8
0
  6
CONTINUOUS
 62
     2
 10
1295.224
 20
1600.43
 30
1.386
 40
13.86
  1
２００／６０
 50
0.0
 41
0.9
 51
0.0
  7
KANJI17
  0
TEXT
  8
0
  6
CONTINUOUS
 62
     2
 10
1295.224
 20
1669.73
 30
1.386
 40
13.86
  1
電圧／周波数
 50
0.0
 41
0.9
 51
0.0
  7
KANJI17
  0
TEXT
  8
0
  6
CONTINUOUS
 62
     2
 10
1295.224
 20
1653.56
 30
1.386
 40
13.86
  1
　Ｖ／Ｈｚ
 50
0.0
 41
0.9
 51
0.0
  7
KANJI17
  0
TEXT
  8
0
  6
CONTINUOUS
 62
     2
 10
1295.224
 20
1628.15
 30
1.386
 40
13.86
  1
２００／５０
 50
0.0
 41
0.9
 51
0.0
  7
KANJI17
  0
TEXT
  8
0
  6
CONTINUOUS
 62
     2
 10
1295.224
 20
1572.71
 30
1.386
 40
13.86
  1
２２０／６０
 50
0.0
 41
0.9
 51
0.0
  7
KANJI17
  0
LINE
  8
0
  6
CONTINUOUS
 62
     1
 10
1241.17
 20
1685.9
 30
0.0
 11
1241.17
 21
1565.78
 31
0.0
  0
LINE
  8
0
  6
CONTINUOUS
 62
     2
 10
1171.87
 20
1685.9
 30
0.0
 11
1171.87
 21
1565.78
 31
0.0
  0
LINE
  8
0
  6
CONTINUOUS
 62
     2
 10
1102.57
 20
1685.9
 30
0.0
 11
1102.57
 21
1565.78
 31
0.0
  0
LINE
  8
0
  6
CONTINUOUS
 62
     1
 10
1010.17
 20
1685.9
 30
0.0
 11
1010.17
 21
1565.78
 31
0.0
  0
LINE
  8
0
  6
CONTINUOUS
 62
     1
 10
1010.17
 20
1685.9
 30
0.0
 11
1241.17
 21
1685.9
 31
0.0
  0
LINE
  8
0
  6
CONTINUOUS
 62
     1
 10
1010.17
 20
1648.94
 30
0.0
 11
1241.17
 21
1648.94
 31
0.0
  0
LINE
  8
0
  6
CONTINUOUS
 62
     2
 10
1010.17
 20
1621.22
 30
0.0
 11
1241.17
 21
1621.22
 31
0.0
  0
LINE
  8
0
  6
CONTINUOUS
 62
     2
 10
1010.17
 20
1593.5
 30
0.0
 11
1241.17
 21
1593.5
 31
0.0
  0
LINE
  8
0
  6
CONTINUOUS
 62
     1
 10
1010.17
 20
1565.78
 30
0.0
 11
1241.17
 21
1565.78
 31
0.0
  0
TEXT
  8
0
  6
CONTINUOUS
 62
     2
 10
1181.11
 20
1669.73
 30
1.386
 40
13.86
  1
起動電流
 50
0.0
 41
0.9
 51
0.0
  7
KANJI17
  0
TEXT
  8
0
  6
CONTINUOUS
 62
     2
 10
1181.11
 20
1653.56
 30
1.386
 40
13.86
  1
　　　Ａ
 50
0.0
 41
0.9
 51
0.0
  7
KANJI17
  0
TEXT
  8
0
  6
CONTINUOUS
 62
     2
 10
1111.81
 20
1669.73
 30
1.386
 40
13.86
  1
定格電流
 50
0.0
 41
0.9
 51
0.0
  7
KANJI17
  0
TEXT
  8
0
  6
CONTINUOUS
 62
     2
 10
1111.81
 20
1653.56
 30
1.386
 40
13.86
  1
　　　Ａ
 50
0.0
 41
0.9
 51
0.0
  7
KANJI17
  0
TEXT
  8
0
  6
CONTINUOUS
 62
     2
 10
1018.024
 20
1669.73
 30
1.386
 40
13.86
  1
電圧／周波数
 50
0.0
 41
0.9
 51
0.0
  7
KANJI17
  0
TEXT
  8
0
  6
CONTINUOUS
 62
     2
 10
1018.024
 20
1653.56
 30
1.386
 40
13.86
  1
　Ｖ／Ｈｚ
 50
0.0
 41
0.9
 51
0.0
  7
KANJI17
  0
TEXT
  8
0
  6
CONTINUOUS
 62
     2
 10
1018.024
 20
1628.15
 30
1.386
 40
13.86
  1
４００／５０
 50
0.0
 41
0.9
 51
0.0
  7
KANJI17
  0
TEXT
  8
0
  6
CONTINUOUS
 62
     2
 10
1018.024
 20
1600.43
 30
1.386
 40
13.86
  1
４００／６０
 50
0.0
 41
0.9
 51
0.0
  7
KANJI17
  0
TEXT
  8
0
  6
CONTINUOUS
 62
     2
 10
1018.024
 20
1572.71
 30
1.386
 40
13.86
  1
４４０／６０
 50
0.0
 41
0.9
 51
0.0
  7
KANJI17
  0
TEXT
  8
0
  6
CONTINUOUS
 62
     2
 10
1458.31
 20
1628.15
 30
1.386
 40
13.86
  1
　９．２
 50
0.0
 41
0.9
 51
0.0
  7
KANJI17
  0
TEXT
  8
0
  6
CONTINUOUS
 62
     2
 10
1458.31
 20
1600.43
 30
1.386
 40
13.86
  1
　８
 50
0.0
 41
0.9
 51
0.0
  7
KANJI17
  0
TEXT
  8
0
  6
CONTINUOUS
 62
     2
 10
1458.31
 20
1572.71
 30
1.386
 40
13.86
  1
　８．８
 50
0.0
 41
0.9
 51
0.0
  7
KANJI17
  0
TEXT
  8
0
  6
CONTINUOUS
 62
     2
 10
1389.01
 20
1628.15
 30
1.386
 40
13.86
  1
　４．０
 50
0.0
 41
0.9
 51
0.0
  7
KANJI17
  0
TEXT
  8
0
  6
CONTINUOUS
 62
     2
 10
1389.01
 20
1600.43
 30
1.386
 40
13.86
  1
　２．８
 50
0.0
 41
0.9
 51
0.0
  7
KANJI17
  0
TEXT
  8
0
  6
CONTINUOUS
 62
     2
 10
1389.01
 20
1572.71
 30
1.386
 40
13.86
  1
　３．３
 50
0.0
 41
0.9
 51
0.0
  7
KANJI17
  0
TEXT
  8
0
  6
CONTINUOUS
 62
     2
 10
1181.11
 20
1628.15
 30
1.386
 40
13.86
  1
　４．６
 50
0.0
 41
0.9
 51
0.0
  7
KANJI17
  0
TEXT
  8
0
  6
CONTINUOUS
 62
     2
 10
1181.11
 20
1600.43
 30
1.386
 40
13.86
  1
　４
 50
0.0
 41
0.9
 51
0.0
  7
KANJI17
  0
TEXT
  8
0
  6
CONTINUOUS
 62
     2
 10
1181.11
 20
1572.71
 30
1.386
 40
13.86
  1
　４．４
 50
0.0
 41
0.9
 51
0.0
  7
KANJI17
  0
TEXT
  8
0
  6
CONTINUOUS
 62
     2
 10
1111.81
 20
1628.15
 30
1.386
 40
13.86
  1
　２．０
 50
0.0
 41
0.9
 51
0.0
  7
KANJI17
  0
TEXT
  8
0
  6
CONTINUOUS
 62
     2
 10
1111.81
 20
1600.43
 30
1.386
 40
13.86
  1
　１．４
 50
0.0
 41
0.9
 51
0.0
  7
KANJI17
  0
TEXT
  8
0
  6
CONTINUOUS
 62
     2
 10
1111.81
 20
1572.71
 30
1.386
 40
13.86
  1
　１．７
 50
0.0
 41
0.9
 51
0.0
  7
KANJI17
  0
LINE
  8
0
  6
CONTINUOUS
 62
     1
 10
456.0
 20
570.0
 30
0.0
 11
370.0
 21
570.0
 31
0.0
  0
LINE
  8
0
  6
CONTINUOUS
 62
     1
 10
370.0
 20
583.5
 30
0.0
 11
370.0
 21
572.55046
 31
0.0
  0
LINE
  8
0
  6
CONTINUOUS
 62
     1
 10
370.0
 20
583.5
 30
0.0
 11
370.0
 21
594.44954
 31
0.0
  0
LINE
  8
0
  6
CONTINUOUS
 62
     1
 10
361.9789
 20
575.23198
 30
0.0
 11
363.527076294
 21
572.55046
 31
0.0
  0
LINE
  8
0
  6
CONTINUOUS
 62
     1
 10
361.9789
 20
583.5
 30
0.0
 11
361.9789
 21
575.23198
 31
0.0
  0
LINE
  8
0
  6
CONTINUOUS
 62
     1
 10
361.9789
 20
591.76802
 30
0.0
 11
363.527076294
 21
594.44954
 31
0.0
  0
LINE
  8
0
  6
CONTINUOUS
 62
     1
 10
361.9789
 20
583.5
 30
0.0
 11
361.9789
 21
591.76802
 31
0.0
  0
ARC
  8
0
  6
CONTINUOUS
 62
     1
 10
372.433121693
 20
583.5
 30
0.0
 40
10.454221693
 50
148.419912243
 51
211.580087757
  0
ARC
  8
0
  6
CONTINUOUS
 62
     1
 10
365.172013606
 20
575.287845
 30
0.0
 40
3.193602261
 50
121.002313915
 51
182.989498403
  0
LINE
  8
0
  6
CONTINUOUS
 62
     1
 10
361.9789
 20
591.76802
 30
0.0
 11
363.527076294
 21
594.44954
 31
0.0
  0
ARC
  8
0
  6
CONTINUOUS
 62
     1
 10
365.172013606
 20
591.712155
 30
0.0
 40
3.193602261
 50
177.010501597
 51
238.997686085
  0
LINE
  8
0
  6
CONTINUOUS
 62
     1
 10
370.0
 20
572.55046
 30
0.0
 11
363.527076294
 21
572.55046
 31
0.0
  0
LINE
  8
0
  6
CONTINUOUS
 62
     1
 10
370.0
 20
578.02523
 30
0.0
 11
363.527076294
 21
578.02523
 31
0.0
  0
LINE
  8
0
  6
CONTINUOUS
 62
     1
 10
370.0
 20
588.97477
 30
0.0
 11
363.527076294
 21
588.97477
 31
0.0
  0
LINE
  8
0
  6
CONTINUOUS
 62
     1
 10
370.0
 20
594.44954
 30
0.0
 11
363.527076294
 21
594.44954
 31
0.0
  0
LINE
  8
0
  6
CONTINUOUS
 62
     1
 10
370.0
 20
711.5
 30
0.0
 11
370.0
 21
700.55046
 31
0.0
  0
LINE
  8
0
  6
CONTINUOUS
 62
     1
 10
370.0
 20
711.5
 30
0.0
 11
370.0
 21
722.44954
 31
0.0
  0
LINE
  8
0
  6
CONTINUOUS
 62
     1
 10
361.9789
 20
703.23198
 30
0.0
 11
363.527076294
 21
700.55046
 31
0.0
  0
LINE
  8
0
  6
CONTINUOUS
 62
     1
 10
361.9789
 20
711.5
 30
0.0
 11
361.9789
 21
703.23198
 31
0.0
  0
LINE
  8
0
  6
CONTINUOUS
 62
     1
 10
361.9789
 20
719.76802
 30
0.0
 11
363.527076294
 21
722.44954
 31
0.0
  0
LINE
  8
0
  6
CONTINUOUS
 62
     1
 10
361.9789
 20
711.5
 30
0.0
 11
361.9789
 21
719.76802
 31
0.0
  0
ARC
  8
0
  6
CONTINUOUS
 62
     1
 10
372.433121693
 20
711.5
 30
0.0
 40
10.454221693
 50
148.419912243
 51
211.580087757
  0
ARC
  8
0
  6
CONTINUOUS
 62
     1
 10
365.172013606
 20
703.287845
 30
0.0
 40
3.193602261
 50
121.002313915
 51
182.989498403
  0
LINE
  8
0
  6
CONTINUOUS
 62
     1
 10
361.9789
 20
719.76802
 30
0.0
 11
363.527076294
 21
722.44954
 31
0.0
  0
ARC
  8
0
  6
CONTINUOUS
 62
     1
 10
365.172013606
 20
719.712155
 30
0.0
 40
3.193602261
 50
177.010501597
 51
238.997686085
  0
LINE
  8
0
  6
CONTINUOUS
 62
     1
 10
370.0
 20
700.55046
 30
0.0
 11
363.527076294
 21
700.55046
 31
0.0
  0
LINE
  8
0
  6
CONTINUOUS
 62
     1
 10
370.0
 20
706.02523
 30
0.0
 11
363.527076294
 21
706.02523
 31
0.0
  0
LINE
  8
0
  6
CONTINUOUS
 62
     1
 10
370.0
 20
716.97477
 30
0.0
 11
363.527076294
 21
716.97477
 31
0.0
  0
LINE
  8
0
  6
CONTINUOUS
 62
     1
 10
370.0
 20
722.44954
 30
0.0
 11
363.527076294
 21
722.44954
 31
0.0
  0
LINE
  8
0
  6
CONTINUOUS
 62
     1
 10
564.0
 20
589.5
 30
0.0
 11
638.0
 21
589.5
 31
0.0
  0
LINE
  8
0
  6
CONTINUOUS
 62
     1
 10
638.0
 20
589.5
 30
0.0
 11
638.0
 21
700.5
 31
0.0
  0
LINE
  8
0
  6
CONTINUOUS
 62
     1
 10
471.0
 20
590.5
 30
0.0
 11
471.0
 21
704.5
 31
0.0
  0
CIRCLE
  8
0
  6
CONTINUOUS
 62
     1
 10
516.0
 20
647.5
 30
0.0
 40
10.0
  0
CIRCLE
  8
0
  6
CONTINUOUS
 62
     1
 10
516.0
 20
647.5
 30
0.0
 40
21.0
  0
CIRCLE
  8
0
  6
CONTINUOUS
 62
     1
 10
516.0
 20
647.5
 30
0.0
 40
25.0
  0
LINE
  8
0
  6
CONTINUOUS
 62
     1
 10
456.0
 20
704.5
 30
0.0
 11
471.0
 21
704.5
 31
0.0
  0
LINE
  8
0
  6
CONTINUOUS
 62
     1
 10
484.9
 20
700.5
 30
0.0
 11
638.0
 21
700.5
 31
0.0
  0
LINE
  8
0
  6
CONTINUOUS
 62
     1
 10
564.0
 20
589.5
 30
0.0
 11
564.0
 21
641.9
 31
0.0
  0
LINE
  8
0
  6
CONTINUOUS
 62
     1
 10
484.9
 20
594.5
 30
0.0
 11
561.5
 21
594.5
 31
0.0
  0
LINE
  8
0
  6
CONTINUOUS
 62
     1
 10
646.0
 20
588.0
 30
0.0
 11
646.0
 21
587.0
 31
0.0
  0
ARC
  8
0
  6
CONTINUOUS
 62
     1
 10
559.0
 20
585.0
 30
0.0
 40
3.0
 50
90.0
 51
180.0
  0
LINE
  8
0
  6
CONTINUOUS
 62
     1
 10
685.0
 20
545.0
 30
0.0
 11
556.0
 21
545.0
 31
0.0
  0
LINE
  8
0
  6
CONTINUOUS
 62
     1
 10
646.0
 20
587.0
 30
0.0
 11
682.0
 21
587.0
 31
0.0
  0
ARC
  8
0
  6
CONTINUOUS
 62
     1
 10
682.0
 20
584.0
 30
0.0
 40
3.0
 50
0.0
 51
90.0
  0
LINE
  8
0
  6
CONTINUOUS
 62
     1
 10
685.0
 20
543.5
 30
0.0
 11
556.0
 21
543.5
 31
0.0
  0
LINE
  8
0
  6
CONTINUOUS
 62
     1
 10
685.0
 20
538.5
 30
0.0
 11
685.0
 21
584.0
 31
0.0
  0
ARC
  8
0
  6
CONTINUOUS
 62
     1
 10
684.0
 20
538.5
 30
0.0
 40
1.0
 50
270.0
 51
0.0
  0
LINE
  8
0
  6
CONTINUOUS
 62
     1
 10
682.0
 20
537.5
 30
0.0
 11
682.0
 21
537.5
 31
0.0
  0
ARC
  8
0
  6
CONTINUOUS
 62
     1
 10
681.0
 20
537.5
 30
0.0
 40
1.0
 50
270.0
 51
0.0
  0
LINE
  8
0
  6
CONTINUOUS
 62
     1
 10
556.0
 20
538.5
 30
0.0
 11
556.0
 21
585.0
 31
0.0
  0
LINE
  8
0
  6
CONTINUOUS
 62
     1
 10
684.0
 20
537.5
 30
0.0
 11
557.0
 21
537.5
 31
0.0
  0
ARC
  8
0
  6
CONTINUOUS
 62
     1
 10
557.0
 20
538.5
 30
0.0
 40
1.0
 50
180.0
 51
270.0
  0
ARC
  8
0
  6
CONTINUOUS
 62
     1
 10
560.0
 20
537.5
 30
0.0
 40
1.0
 50
180.0
 51
270.0
  0
LINE
  8
0
  6
CONTINUOUS
 62
     1
 10
681.0
 20
536.5
 30
0.0
 11
560.1
 21
536.5
 31
0.0
  0
LINE
  8
0
  6
CONTINUOUS
 62
     1
 10
559.0
 20
588.0
 30
0.0
 11
646.0
 21
588.0
 31
0.0
  0
LINE
  8
0
  6
CONTINUOUS
 62
     1
 10
559.0
 20
589.5
 30
0.0
 11
646.0
 21
589.5
 31
0.0
  0
LINE
  8
0
  6
CONTINUOUS
 62
     1
 10
474.0
 20
692.5
 30
0.0
 11
474.0
 21
703.44954
 31
0.0
  0
LINE
  8
0
  6
CONTINUOUS
 62
     1
 10
474.0
 20
692.5
 30
0.0
 11
474.0
 21
681.55046
 31
0.0
  0
LINE
  8
0
  6
CONTINUOUS
 62
     1
 10
471.0
 20
703.25
 30
0.0
 11
474.0
 21
703.25
 31
0.0
  0
LINE
  8
0
  6
CONTINUOUS
 62
     1
 10
471.0
 20
692.5
 30
0.0
 11
474.000254073
 21
695.500254073
 31
0.0
  0
LINE
  8
0
  6
CONTINUOUS
 62
     1
 10
474.000254073
 20
692.5
 30
0.0
 11
471.0
 21
689.499745927
 31
0.0
  0
LINE
  8
0
  6
CONTINUOUS
 62
     1
 10
471.0
 20
681.75
 30
0.0
 11
474.0
 21
681.75
 31
0.0
  0
LINE
  8
0
  6
CONTINUOUS
 62
     1
 10
474.0
 20
703.25
 30
0.0
 11
485.3
 21
703.25
 31
0.0
  0
LINE
  8
0
  6
CONTINUOUS
 62
     1
 10
485.3
 20
692.5
 30
0.0
 11
485.3
 21
703.25
 31
0.0
  0
LINE
  8
0
  6
CONTINUOUS
 62
     1
 10
485.3
 20
703.25
 30
0.0
 11
486.0
 21
702.037564435
 31
0.0
  0
LINE
  8
0
  6
CONTINUOUS
 62
     1
 10
486.0
 20
692.5
 30
0.0
 11
486.0
 21
702.037564435
 31
0.0
  0
LINE
  8
0
  6
CONTINUOUS
 62
     1
 10
474.0
 20
681.75
 30
0.0
 11
485.3
 21
681.75
 31
0.0
  0
LINE
  8
0
  6
CONTINUOUS
 62
     1
 10
485.3
 20
692.5
 30
0.0
 11
485.3
 21
681.75
 31
0.0
  0
LINE
  8
0
  6
CONTINUOUS
 62
     1
 10
485.3
 20
681.75
 30
0.0
 11
486.0
 21
682.962435565
 31
0.0
  0
LINE
  8
0
  6
CONTINUOUS
 62
     1
 10
486.0
 20
692.5
 30
0.0
 11
486.0
 21
682.962435565
 31
0.0
  0
LINE
  8
0
  6
CONTINUOUS
 62
     1
 10
474.0
 20
602.5
 30
0.0
 11
474.0
 21
591.55046
 31
0.0
  0
LINE
  8
0
  6
CONTINUOUS
 62
     1
 10
474.0
 20
602.5
 30
0.0
 11
474.0
 21
613.44954
 31
0.0
  0
LINE
  8
0
  6
CONTINUOUS
 62
     1
 10
471.0
 20
591.75
 30
0.0
 11
474.0
 21
591.75
 31
0.0
  0
LINE
  8
0
  6
CONTINUOUS
 62
     1
 10
471.0
 20
602.5
 30
0.0
 11
474.000254073
 21
599.499745927
 31
0.0
  0
LINE
  8
0
  6
CONTINUOUS
 62
     1
 10
474.000254073
 20
602.5
 30
0.0
 11
471.0
 21
605.500254073
 31
0.0
  0
LINE
  8
0
  6
CONTINUOUS
 62
     1
 10
471.0
 20
613.25
 30
0.0
 11
474.0
 21
613.25
 31
0.0
  0
LINE
  8
0
  6
CONTINUOUS
 62
     1
 10
474.0
 20
591.75
 30
0.0
 11
485.3
 21
591.75
 31
0.0
  0
LINE
  8
0
  6
CONTINUOUS
 62
     1
 10
485.3
 20
602.5
 30
0.0
 11
485.3
 21
591.75
 31
0.0
  0
LINE
  8
0
  6
CONTINUOUS
 62
     1
 10
485.3
 20
591.75
 30
0.0
 11
486.0
 21
592.962435565
 31
0.0
  0
LINE
  8
0
  6
CONTINUOUS
 62
     1
 10
486.0
 20
602.5
 30
0.0
 11
486.0
 21
592.962435565
 31
0.0
  0
LINE
  8
0
  6
CONTINUOUS
 62
     1
 10
474.0
 20
613.25
 30
0.0
 11
485.3
 21
613.25
 31
0.0
  0
LINE
  8
0
  6
CONTINUOUS
 62
     1
 10
485.3
 20
602.5
 30
0.0
 11
485.3
 21
613.25
 31
0.0
  0
LINE
  8
0
  6
CONTINUOUS
 62
     1
 10
485.3
 20
613.25
 30
0.0
 11
486.0
 21
612.037564435
 31
0.0
  0
LINE
  8
0
  6
CONTINUOUS
 62
     1
 10
486.0
 20
602.5
 30
0.0
 11
486.0
 21
612.037564435
 31
0.0
  0
LINE
  8
0
  6
CONTINUOUS
 62
     1
 10
456.0
 20
590.5
 30
0.0
 11
471.0
 21
590.5
 31
0.0
  0
POINT
  8
0
  6
CONTINUOUS
 62
     1
 10
456.0
 20
590.5
 30
0.0
  0
LINE
  8
0
  6
CONTINUOUS
 62
     1
 10
456.0
 20
590.5
 30
0.0
 11
456.0
 21
704.5
 31
0.0
  0
LINE
  8
0
  6
CONTINUOUS
 62
     1
 10
1097.0
 20
622.0
 30
0.0
 11
1164.0
 21
622.0
 31
0.0
  0
ARC
  8
0
  6
CONTINUOUS
 62
     1
 10
1164.0
 20
630.0
 30
0.0
 40
8.0
 50
270.0
 51
0.0
  0
LINE
  8
0
  6
CONTINUOUS
 62
     1
 10
1097.0
 20
672.0
 30
0.0
 11
1164.0
 21
672.0
 31
0.0
  0
LINE
  8
0
  6
CONTINUOUS
 62
     1
 10
1172.0
 20
630.0
 30
0.0
 11
1172.0
 21
664.0
 31
0.0
  0
ARC
  8
0
  6
CONTINUOUS
 62
     1
 10
1164.0
 20
664.0
 30
0.0
 40
8.0
 50
0.0
 51
90.0
  0
CIRCLE
  8
0
  6
CONTINUOUS
 62
     1
 10
1147.0
 20
647.0
 30
0.0
 40
12.5
  0
CIRCLE
  8
0
  6
CONTINUOUS
 62
     1
 10
1147.0
 20
647.0
 30
0.0
 40
22.0
  0
CIRCLE
  8
0
  6
CONTINUOUS
 62
     1
 10
1147.0
 20
662.5
 30
0.0
 40
3.0
  0
LINE
  8
0
  6
CONTINUOUS
 62
     1
 10
1142.8
 20
630.2
 30
0.0
 11
1144.8
 21
629.9
 31
0.0
  0
LINE
  8
0
  6
CONTINUOUS
 62
     1
 10
1145.3
 20
634.6
 30
0.0
 11
1145.064615385
 21
633.030769231
 31
0.0
  0
LINE
  8
0
  6
CONTINUOUS
 62
     1
 10
1145.064615385
 20
633.030769231
 30
0.0
 11
1142.8
 21
630.2
 31
0.0
  0
LINE
  8
0
  6
CONTINUOUS
 62
     1
 10
1147.0
 20
632.6
 30
0.0
 11
1144.8
 21
629.9
 31
0.0
  0
LINE
  8
0
  6
CONTINUOUS
 62
     1
 10
1151.2
 20
630.2
 30
0.0
 11
1149.2
 21
629.9
 31
0.0
  0
LINE
  8
0
  6
CONTINUOUS
 62
     1
 10
1148.7
 20
634.6
 30
0.0
 11
1148.935384615
 21
633.030769231
 31
0.0
  0
LINE
  8
0
  6
CONTINUOUS
 62
     1
 10
1148.935384615
 20
633.030769231
 30
0.0
 11
1151.2
 21
630.2
 31
0.0
  0
LINE
  8
0
  6
CONTINUOUS
 62
     1
 10
1147.0
 20
632.6
 30
0.0
 11
1149.2
 21
629.9
 31
0.0
  0
LINE
  8
0
  6
CONTINUOUS
 62
     1
 10
1007.0
 20
612.5
 30
0.0
 11
1007.0
 21
647.5
 31
0.0
  0
LINE
  8
0
  6
CONTINUOUS
 62
     1
 10
647.0
 20
596.5
 30
0.0
 11
647.0
 21
698.5
 31
0.0
  0
LINE
  8
0
  6
CONTINUOUS
 62
     1
 10
647.0
 20
698.5
 30
0.0
 11
638.0
 21
698.5
 31
0.0
  0
LINE
  8
0
  6
CONTINUOUS
 62
     1
 10
647.0
 20
596.5
 30
0.0
 11
638.0
 21
596.5
 31
0.0
  0
LINE
  8
0
  6
CONTINUOUS
 62
     1
 10
647.0
 20
695.0
 30
0.0
 11
638.0
 21
695.0
 31
0.0
  0
LINE
  8
0
  6
CONTINUOUS
 62
     1
 10
647.0
 20
600.0
 30
0.0
 11
638.0
 21
600.0
 31
0.0
  0
LINE
  8
0
  6
CONTINUOUS
 62
     1
 10
647.0
 20
643.5
 30
0.0
 11
638.0
 21
643.5
 31
0.0
  0
LINE
  8
0
  6
CONTINUOUS
 62
     1
 10
647.0
 20
651.5
 30
0.0
 11
638.0
 21
651.5
 31
0.0
  0
CIRCLE
  8
0
  6
CONTINUOUS
 62
     1
 10
812.0
 20
647.5
 30
0.0
 40
19.5
  0
LINE
  8
0
  6
CONTINUOUS
 62
     1
 10
792.0
 20
667.5
 30
0.0
 11
832.0
 21
667.5
 31
0.0
  0
LINE
  8
0
  6
CONTINUOUS
 62
     1
 10
832.0
 20
627.5
 30
0.0
 11
832.0
 21
667.5
 31
0.0
  0
LINE
  8
0
  6
CONTINUOUS
 62
     1
 10
792.0
 20
627.5
 30
0.0
 11
832.0
 21
627.5
 31
0.0
  0
LINE
  8
0
  6
CONTINUOUS
 62
     1
 10
792.0
 20
627.5
 30
0.0
 11
792.0
 21
667.5
 31
0.0
  0
LINE
  8
0
  6
LTYPE2
 62
     2
 10
395.1
 20
583.5
 30
0.0
 11
360.9
 21
583.5
 31
0.0
  0
LINE
  8
0
  6
LTYPE2
 62
     2
 10
396.1
 20
711.5
 30
0.0
 11
360.9
 21
711.5
 31
0.0
  0
LINE
  8
0
  6
LTYPE2
 62
     2
 10
435.0
 20
692.5
 30
0.0
 11
488.0
 21
692.5
 31
0.0
  0
LINE
  8
0
  6
LTYPE2
 62
     2
 10
516.0
 20
616.0
 30
0.0
 11
516.0
 21
679.0
 31
0.0
  0
LINE
  8
0
  6
LTYPE2
 62
     2
 10
435.0
 20
602.5
 30
0.0
 11
488.0
 21
602.5
 31
0.0
  0
LINE
  8
0
  6
LTYPE1
 62
     2
 10
1112.0
 20
622.0
 30
0.0
 11
1112.0
 21
672.0
 31
0.0
  0
LINE
  8
0
  6
LTYPE2
 62
     2
 10
812.0
 20
622.4
 30
0.0
 11
812.0
 21
672.3
 31
0.0
  0
LINE
  8
0
  6
LTYPE1
 62
     2
 10
685.0
 20
571.3
 30
0.0
 11
675.0
 21
571.3
 31
0.0
  0
LINE
  8
0
  6
LTYPE1
 62
     2
 10
685.0
 20
572.5
 30
0.0
 11
675.0
 21
572.5
 31
0.0
  0
LINE
  8
0
  6
LTYPE1
 62
     2
 10
685.0
 20
552.7
 30
0.0
 11
675.0
 21
552.7
 31
0.0
  0
LINE
  8
0
  6
LTYPE1
 62
     2
 10
685.0
 20
551.5
 30
0.0
 11
675.0
 21
551.5
 31
0.0
  0
LINE
  8
0
  6
LTYPE3
 62
     2
 10
691.2
 20
562.0
 30
0.0
 11
671.5
 21
562.0
 31
0.0
  0
LINE
  8
0
  6
LTYPE3
 62
     2
 10
600.0
 20
576.3
 30
0.0
 11
600.0
 21
591.15
 31
0.0
  0
LINE
  8
0
  6
CONTINUOUS
 62
     2
 10
1171.5
 20
672.0
 30
0.0
 11
1235.1
 21
672.0
 31
0.0
  0
LINE
  8
0
  6
CONTINUOUS
 62
     2
 10
1227.6
 20
672.0
 30
0.0
 11
1224.364761936
 21
659.925927171
 31
0.0
  0
LINE
  8
0
  6
CONTINUOUS
 62
     2
 10
1227.6
 20
672.0
 30
0.0
 11
1230.835238064
 21
659.925927171
 31
0.0
  0
LINE
  8
0
  6
CONTINUOUS
 62
     2
 10
1227.6
 20
672.0
 30
0.0
 11
1227.6
 21
622.0
 31
0.0
  0
LINE
  8
0
  6
CONTINUOUS
 62
     2
 10
1227.6
 20
622.0
 30
0.0
 11
1230.835238064
 21
634.074072829
 31
0.0
  0
LINE
  8
0
  6
CONTINUOUS
 62
     2
 10
1227.6
 20
622.0
 30
0.0
 11
1224.364761936
 21
634.074072829
 31
0.0
  0
LINE
  8
0
  6
CONTINUOUS
 62
     2
 10
1171.5
 20
622.0
 30
0.0
 11
1235.1
 21
622.0
 31
0.0
  0
LINE
  8
0
  6
CONTINUOUS
 62
     2
 10
744.5
 20
612.5
 30
0.0
 11
747.735238064
 21
624.574072829
 31
0.0
  0
LINE
  8
0
  6
CONTINUOUS
 62
     2
 10
744.5
 20
612.5
 30
0.0
 11
741.264761936
 21
624.574072829
 31
0.0
  0
LINE
  8
0
  6
CONTINUOUS
 62
     2
 10
744.5
 20
612.5
 30
0.0
 11
744.5
 21
682.5
 31
0.0
  0
LINE
  8
0
  6
CONTINUOUS
 62
     2
 10
744.5
 20
682.5
 30
0.0
 11
741.264761936
 21
670.425927171
 31
0.0
  0
LINE
  8
0
  6
CONTINUOUS
 62
     2
 10
744.5
 20
682.5
 30
0.0
 11
747.735238064
 21
670.425927171
 31
0.0
  0
LINE
  8
0
  6
CONTINUOUS
 62
     2
 10
685.0
 20
562.0
 30
0.0
 11
687.506004628
 21
549.753778509
 31
0.0
  0
LINE
  8
0
  6
CONTINUOUS
 62
     2
 10
685.0
 20
562.0
 30
0.0
 11
693.293374416
 21
552.647463403
 31
0.0
  0
LINE
  8
0
  6
CONTINUOUS
 62
     2
 10
685.0
 20
562.0
 30
0.0
 11
710.0
 21
512.0
 31
0.0
  0
LINE
  8
0
  6
CONTINUOUS
 62
     2
 10
582.8
 20
538.7
 30
0.0
 11
585.449054108
 21
526.483924021
 31
0.0
  0
LINE
  8
0
  6
CONTINUOUS
 62
     2
 10
582.8
 20
538.7
 30
0.0
 11
591.202186143
 21
529.445094921
 31
0.0
  0
LINE
  8
0
  6
CONTINUOUS
 62
     2
 10
818.1
 20
658.3
 30
0.0
 11
825.588041206
 21
668.308957933
 31
0.0
  0
LINE
  8
0
  6
CONTINUOUS
 62
     2
 10
818.1
 20
658.3
 30
0.0
 11
819.580354942
 21
670.712032438
 31
0.0
  0
LINE
  8
0
  6
CONTINUOUS
 62
     2
 10
818.1
 20
658.3
 30
0.0
 11
868.1
 21
783.3
 31
0.0
  0
LINE
  8
0
  6
CONTINUOUS
 62
     2
 10
868.1
 20
783.3
 30
0.0
 11
908.6
 21
783.3
 31
0.0
  0
LINE
  8
0
  6
LTYPE4
 62
     2
 10
1147.0
 20
622.0
 30
0.0
 11
1147.0
 21
679.1
 31
0.0
  0
LINE
  8
0
  6
CONTINUOUS
 62
     2
 10
1154.5
 20
656.6
 30
0.0
 11
1163.413448812
 21
665.363585469
 31
0.0
  0
LINE
  8
0
  6
CONTINUOUS
 62
     2
 10
1154.5
 20
656.6
 30
0.0
 11
1157.837480372
 21
668.64621205
 31
0.0
  0
LINE
  8
0
  6
CONTINUOUS
 62
     2
 10
1154.5
 20
656.6
 30
0.0
 11
1191.0
 21
718.6
 31
0.0
  0
LINE
  8
0
  6
CONTINUOUS
 62
     2
 10
1191.0
 20
718.6
 30
0.0
 11
1279.5
 21
718.6
 31
0.0
  0
LINE
  8
0
  6
CONTINUOUS
 62
     2
 10
370.0
 20
397.3625
 30
0.0
 11
382.074072829
 21
394.127261936
 31
0.0
  0
LINE
  8
0
  6
CONTINUOUS
 62
     2
 10
370.0
 20
397.3625
 30
0.0
 11
382.074072829
 21
400.597738064
 31
0.0
  0
LINE
  8
0
  6
CONTINUOUS
 62
     2
 10
370.0
 20
397.3625
 30
0.0
 11
456.0
 21
397.3625
 31
0.0
  0
LINE
  8
0
  6
CONTINUOUS
 62
     2
 10
456.0
 20
397.3625
 30
0.0
 11
443.925927171
 21
400.597738064
 31
0.0
  0
LINE
  8
0
  6
CONTINUOUS
 62
     2
 10
456.0
 20
397.3625
 30
0.0
 11
443.925927171
 21
394.127261936
 31
0.0
  0
LINE
  8
0
  6
CONTINUOUS
 62
     2
 10
456.0
 20
397.3625
 30
0.0
 11
468.074072829
 21
394.127261936
 31
0.0
  0
LINE
  8
0
  6
CONTINUOUS
 62
     2
 10
456.0
 20
397.3625
 30
0.0
 11
468.074072829
 21
400.597738064
 31
0.0
  0
LINE
  8
0
  6
CONTINUOUS
 62
     2
 10
456.0
 20
397.3625
 30
0.0
 11
516.0
 21
397.3625
 31
0.0
  0
LINE
  8
0
  6
CONTINUOUS
 62
     2
 10
516.0
 20
397.3625
 30
0.0
 11
503.925927171
 21
400.597738064
 31
0.0
  0
LINE
  8
0
  6
CONTINUOUS
 62
     2
 10
516.0
 20
397.3625
 30
0.0
 11
503.925927171
 21
394.127261936
 31
0.0
  0
LINE
  8
0
  6
CONTINUOUS
 62
     2
 10
516.0
 20
397.3625
 30
0.0
 11
528.074072829
 21
394.127261936
 31
0.0
  0
LINE
  8
0
  6
CONTINUOUS
 62
     2
 10
516.0
 20
397.3625
 30
0.0
 11
528.074072829
 21
400.597738064
 31
0.0
  0
LINE
  8
0
  6
CONTINUOUS
 62
     2
 10
516.0
 20
397.3625
 30
0.0
 11
1147.0
 21
397.3625
 31
0.0
  0
LINE
  8
0
  6
CONTINUOUS
 62
     2
 10
1147.0
 20
397.3625
 30
0.0
 11
1134.925927171
 21
400.597738064
 31
0.0
  0
LINE
  8
0
  6
CONTINUOUS
 62
     2
 10
1147.0
 20
397.3625
 30
0.0
 11
1134.925927171
 21
394.127261936
 31
0.0
  0
LINE
  8
0
  6
CONTINUOUS
 62
     2
 10
516.0
 20
440.7
 30
0.0
 11
528.074072829
 21
437.464761936
 31
0.0
  0
LINE
  8
0
  6
CONTINUOUS
 62
     2
 10
516.0
 20
440.7
 30
0.0
 11
528.074072829
 21
443.935238064
 31
0.0
  0
LINE
  8
0
  6
CONTINUOUS
 62
     2
 10
516.0
 20
440.7
 30
0.0
 11
1042.0
 21
440.7
 31
0.0
  0
LINE
  8
0
  6
CONTINUOUS
 62
     2
 10
1042.0
 20
440.7
 30
0.0
 11
1029.925927171
 21
443.935238064
 31
0.0
  0
LINE
  8
0
  6
CONTINUOUS
 62
     2
 10
1042.0
 20
440.7
 30
0.0
 11
1029.925927171
 21
437.464761936
 31
0.0
  0
LINE
  8
0
  6
CONTINUOUS
 62
     2
 10
1042.0
 20
440.7
 30
0.0
 11
1054.074072829
 21
437.464761936
 31
0.0
  0
LINE
  8
0
  6
CONTINUOUS
 62
     2
 10
1042.0
 20
440.7
 30
0.0
 11
1054.074072829
 21
443.935238064
 31
0.0
  0
LINE
  8
0
  6
CONTINUOUS
 62
     2
 10
1042.0
 20
440.7
 30
0.0
 11
1097.0
 21
440.7
 31
0.0
  0
LINE
  8
0
  6
CONTINUOUS
 62
     2
 10
1097.0
 20
440.7
 30
0.0
 11
1084.925927171
 21
443.935238064
 31
0.0
  0
LINE
  8
0
  6
CONTINUOUS
 62
     2
 10
1097.0
 20
440.7
 30
0.0
 11
1084.925927171
 21
437.464761936
 31
0.0
  0
LINE
  8
0
  6
CONTINUOUS
 62
     2
 10
1097.0
 20
440.7
 30
0.0
 11
1109.074072829
 21
437.464761936
 31
0.0
  0
LINE
  8
0
  6
CONTINUOUS
 62
     2
 10
1097.0
 20
440.7
 30
0.0
 11
1109.074072829
 21
443.935238064
 31
0.0
  0
LINE
  8
0
  6
CONTINUOUS
 62
     2
 10
1097.0
 20
440.7
 30
0.0
 11
1147.0
 21
440.7
 31
0.0
  0
LINE
  8
0
  6
CONTINUOUS
 62
     2
 10
1147.0
 20
440.7
 30
0.0
 11
1134.925927171
 21
443.935238064
 31
0.0
  0
LINE
  8
0
  6
CONTINUOUS
 62
     2
 10
1147.0
 20
440.7
 30
0.0
 11
1134.925927171
 21
437.464761936
 31
0.0
  0
LINE
  8
0
  6
CONTINUOUS
 62
     2
 10
370.0
 20
389.8625
 30
0.0
 11
370.0
 21
345.5
 31
0.0
  0
LINE
  8
0
  6
CONTINUOUS
 62
     2
 10
370.0
 20
353.0
 30
0.0
 11
382.074072829
 21
349.764761936
 31
0.0
  0
LINE
  8
0
  6
CONTINUOUS
 62
     2
 10
370.0
 20
353.0
 30
0.0
 11
382.074072829
 21
356.235238064
 31
0.0
  0
LINE
  8
0
  6
CONTINUOUS
 62
     2
 10
370.0
 20
353.0
 30
0.0
 11
1147.0
 21
353.0
 31
0.0
  0
LINE
  8
0
  6
CONTINUOUS
 62
     2
 10
1147.0
 20
353.0
 30
0.0
 11
1134.925927171
 21
356.235238064
 31
0.0
  0
LINE
  8
0
  6
CONTINUOUS
 62
     2
 10
1147.0
 20
353.0
 30
0.0
 11
1134.925927171
 21
349.764761936
 31
0.0
  0
LINE
  8
0
  6
CONTINUOUS
 62
     2
 10
1147.0
 20
389.8625
 30
0.0
 11
1147.0
 21
345.5
 31
0.0
  0
LINE
  8
0
  6
CONTINUOUS
 62
     1
 10
1042.0
 20
612.5
 30
0.0
 11
959.182501379
 21
612.5
 31
0.0
  0
LINE
  8
0
  6
CONTINUOUS
 62
     2
 10
1147.0
 20
621.375
 30
0.0
 11
1147.0
 21
389.8625
 31
0.0
  0
LINE
  8
0
  6
CONTINUOUS
 62
     2
 10
1042.0
 20
609.875
 30
0.0
 11
1042.0
 21
433.2
 31
0.0
  0
LINE
  8
0
  6
CONTINUOUS
 62
     2
 10
370.0
 20
561.875
 30
0.0
 11
370.0
 21
389.8625
 31
0.0
  0
LINE
  8
0
  6
CONTINUOUS
 62
     2
 10
456.0
 20
565.875
 30
0.0
 11
456.0
 21
389.8625
 31
0.0
  0
LINE
  8
0
  6
CONTINUOUS
 62
     2
 10
516.0
 20
619.375
 30
0.0
 11
516.0
 21
389.8625
 31
0.0
  0
LINE
  8
0
  6
CONTINUOUS
 62
     1
 10
1042.0
 20
612.5
 30
0.0
 11
1042.0
 21
647.5
 31
0.0
  0
LINE
  8
0
  6
CONTINUOUS
 62
     1
 10
444.0
 20
819.9
 30
0.0
 11
444.0
 21
825.5
 31
0.0
  0
LINE
  8
0
  6
CONTINUOUS
 62
     1
 10
351.0
 20
765.5
 30
0.0
 11
351.0
 21
799.5
 31
0.0
  0
LINE
  8
0
  6
CONTINUOUS
 62
     1
 10
381.0
 20
765.5
 30
0.0
 11
381.0
 21
799.5
 31
0.0
  0
LINE
  8
0
  6
CONTINUOUS
 62
     1
 10
385.0
 20
799.5
 30
0.0
 11
351.0
 21
799.5
 31
0.0
  0
LINE
  8
0
  6
CONTINUOUS
 62
     1
 10
385.0
 20
765.5
 30
0.0
 11
351.0
 21
765.5
 31
0.0
  0
LINE
  8
0
  6
CONTINUOUS
 62
     1
 10
444.0
 20
758.5
 30
0.0
 11
444.0
 21
816.8
 31
0.0
  0
ARC
  8
0
  6
CONTINUOUS
 62
     1
 10
438.0
 20
758.5
 30
0.0
 40
6.0
 50
270.0
 51
0.0
  0
LINE
  8
0
  6
CONTINUOUS
 62
     1
 10
442.0
 20
752.5
 30
0.0
 11
385.0
 21
752.5
 31
0.0
  0
ARC
  8
0
  6
CONTINUOUS
 62
     1
 10
442.0
 20
758.5
 30
0.0
 40
6.0
 50
270.0
 51
0.0
  0
LINE
  8
0
  6
CONTINUOUS
 62
     1
 10
385.0
 20
764.0
 30
0.0
 11
370.0
 21
764.0
 31
0.0
  0
LINE
  8
0
  6
CONTINUOUS
 62
     1
 10
370.0
 20
755.0
 30
0.0
 11
370.0
 21
747.50594
 31
0.0
  0
LINE
  8
0
  6
CONTINUOUS
 62
     1
 10
370.0
 20
755.0
 30
0.0
 11
370.0
 21
762.49406
 31
0.0
  0
LINE
  8
0
  6
CONTINUOUS
 62
     1
 10
364.5001
 20
749.34122
 30
0.0
 11
365.559699402
 21
747.50594
 31
0.0
  0
LINE
  8
0
  6
CONTINUOUS
 62
     1
 10
364.5001
 20
755.0
 30
0.0
 11
364.5001
 21
749.34122
 31
0.0
  0
LINE
  8
0
  6
CONTINUOUS
 62
     1
 10
364.5001
 20
760.65878
 30
0.0
 11
365.559699402
 21
762.49406
 31
0.0
  0
LINE
  8
0
  6
CONTINUOUS
 62
     1
 10
364.5001
 20
755.0
 30
0.0
 11
364.5001
 21
760.65878
 31
0.0
  0
ARC
  8
0
  6
CONTINUOUS
 62
     1
 10
371.655155337
 20
755.0
 30
0.0
 40
7.155055337
 50
148.419912243
 51
211.580087757
  0
ARC
  8
0
  6
CONTINUOUS
 62
     1
 10
366.685523767
 20
749.379455
 30
0.0
 40
2.185758211
 50
121.002313915
 51
182.989498403
  0
LINE
  8
0
  6
CONTINUOUS
 62
     1
 10
364.5001
 20
760.65878
 30
0.0
 11
365.559699402
 21
762.49406
 31
0.0
  0
ARC
  8
0
  6
CONTINUOUS
 62
     1
 10
366.685523767
 20
760.620545
 30
0.0
 40
2.185758211
 50
177.010501597
 51
238.997686085
  0
LINE
  8
0
  6
CONTINUOUS
 62
     1
 10
370.0
 20
747.50594
 30
0.0
 11
365.559699402
 21
747.50594
 31
0.0
  0
LINE
  8
0
  6
CONTINUOUS
 62
     1
 10
370.0
 20
751.25297
 30
0.0
 11
365.559699402
 21
751.25297
 31
0.0
  0
LINE
  8
0
  6
CONTINUOUS
 62
     1
 10
370.0
 20
758.74703
 30
0.0
 11
365.559699402
 21
758.74703
 31
0.0
  0
LINE
  8
0
  6
CONTINUOUS
 62
     1
 10
370.0
 20
762.49406
 30
0.0
 11
365.559699402
 21
762.49406
 31
0.0
  0
LINE
  8
0
  6
CONTINUOUS
 62
     1
 10
413.0
 20
825.5
 30
0.0
 11
385.0
 21
825.5
 31
0.0
  0
LINE
  8
0
  6
CONTINUOUS
 62
     1
 10
444.0
 20
825.5
 30
0.0
 11
413.0
 21
825.5
 31
0.0
  0
LINE
  8
0
  6
LTYPE2
 62
     2
 10
400.6
 20
755.0
 30
0.0
 11
361.3
 21
755.0
 31
0.0
  0
LINE
  8
0
  6
CONTINUOUS
 62
     2
 10
375.5
 20
799.3
 30
0.0
 11
374.019645058
 21
811.712032438
 31
0.0
  0
LINE
  8
0
  6
CONTINUOUS
 62
     2
 10
375.5
 20
799.3
 30
0.0
 11
368.011958794
 21
809.308957933
 31
0.0
  0
LINE
  8
0
  6
CONTINUOUS
 62
     2
 10
351.0
 20
807.0
 30
0.0
 11
351.0
 21
1003.4
 31
0.0
  0
LINE
  8
0
  6
CONTINUOUS
 62
     2
 10
351.0
 20
995.9
 30
0.0
 11
363.074072829
 21
992.664761936
 31
0.0
  0
LINE
  8
0
  6
CONTINUOUS
 62
     2
 10
351.0
 20
995.9
 30
0.0
 11
363.074072829
 21
999.135238064
 31
0.0
  0
LINE
  8
0
  6
CONTINUOUS
 62
     2
 10
351.0
 20
995.9
 30
0.0
 11
456.0
 21
995.9
 31
0.0
  0
LINE
  8
0
  6
CONTINUOUS
 62
     2
 10
456.0
 20
995.9
 30
0.0
 11
443.925927171
 21
999.135238064
 31
0.0
  0
LINE
  8
0
  6
CONTINUOUS
 62
     2
 10
456.0
 20
995.9
 30
0.0
 11
443.925927171
 21
992.664761936
 31
0.0
  0
LINE
  8
0
  6
CONTINUOUS
 62
     2
 10
335.58
 20
899.1
 30
0.0
 11
254.6
 21
899.1
 31
0.0
  0
LINE
  8
0
  6
CONTINUOUS
 62
     2
 10
375.5
 20
799.3
 30
0.0
 11
335.58
 21
899.1
 31
0.0
  0
LINE
  8
0
  6
CONTINUOUS
 62
     1
 10
385.0
 20
570.0
 30
0.0
 11
385.0
 21
825.5
 31
0.0
  0
LINE
  8
0
  6
CONTINUOUS
 62
     1
 10
370.0
 20
570.0
 30
0.0
 11
370.0
 21
764.0
 31
0.0
  0
LINE
  8
0
  6
CONTINUOUS
 62
     2
 10
456.0
 20
884.0
 30
0.0
 11
456.0
 21
1003.3
 31
0.0
  0
LINE
  8
0
  6
LTYPE2
 62
     2
 10
719.5
 20
647.5
 30
0.0
 11
344.9
 21
647.5
 31
0.0
  0
LINE
  8
0
  6
LTYPE2
 62
     2
 10
1165.283472275
 20
647.5
 30
0.0
 11
754.5
 21
647.5
 31
0.0
  0
ARC
  8
0
  6
CONTINUOUS
 62
     1
 10
996.845218677
 20
701.5
 30
0.0
 40
1.0
 50
90.0
 51
165.0
  0
ARC
  8
0
  6
CONTINUOUS
 62
     1
 10
996.845219502
 20
701.5
 30
0.0
 40
1.0
 50
15.0
 51
90.0
  0
LINE
  8
0
  6
CONTINUOUS
 62
     1
 10
1001.433185539
 20
688.241180955
 30
0.0
 11
997.811145329
 21
701.758819045
 31
0.0
  0
ARC
  8
0
  6
CONTINUOUS
 62
     1
 10
1002.399111365
 20
688.5
 30
0.0
 40
1.0
 50
195.0
 51
270.0
  0
ARC
  8
0
  6
CONTINUOUS
 62
     1
 10
1002.399112039
 20
688.5
 30
0.0
 40
1.0
 50
270.0
 51
345.0
  0
LINE
  8
0
  6
CONTINUOUS
 62
     1
 10
1003.365037865
 20
688.241180955
 30
0.0
 11
1006.987078075
 21
701.758819045
 31
0.0
  0
ARC
  8
0
  6
CONTINUOUS
 62
     1
 10
1007.953003902
 20
701.5
 30
0.0
 40
1.0
 50
90.0
 51
165.0
  0
LINE
  8
0
  6
CONTINUOUS
 62
     1
 10
1012.540970764
 20
688.241180955
 30
0.0
 11
1008.918930554
 21
701.758819045
 31
0.0
  0
ARC
  8
0
  6
CONTINUOUS
 62
     1
 10
1013.50689659
 20
688.5
 30
0.0
 40
1.0
 50
195.0
 51
270.0
  0
ARC
  8
0
  6
CONTINUOUS
 62
     1
 10
1007.953005553
 20
701.5
 30
0.0
 40
1.0
 50
15.0
 51
90.0
  0
LINE
  8
0
  6
CONTINUOUS
 62
     1
 10
975.183009455
 20
647.5
 30
0.0
 11
975.183009455
 21
680.5
 31
0.0
  0
LINE
  8
0
  6
CONTINUOUS
 62
     1
 10
996.845218677
 20
702.5
 30
0.0
 11
996.845218677
 21
647.5
 31
0.0
  0
LINE
  8
0
  6
CONTINUOUS
 62
     1
 10
1002.399111365
 20
647.5
 30
0.0
 11
1002.399111365
 21
687.5
 31
0.0
  0
LINE
  8
0
  6
CONTINUOUS
 62
     1
 10
1007.953004728
 20
702.5
 30
0.0
 11
1007.953004728
 21
647.5
 31
0.0
  0
LINE
  8
0
  6
CONTINUOUS
 62
     1
 10
1013.50689659
 20
687.5
 30
0.0
 11
1013.50689659
 21
647.5
 31
0.0
  0
LINE
  8
0
  6
LTYPE5
 62
     2
 10
1058.676112865
 20
687.5
 30
0.0
 11
1027.730004728
 21
687.5
 31
0.0
  0
LINE
  8
0
  6
LTYPE5
 62
     2
 10
1064.230005553
 20
702.5
 30
0.0
 11
1027.730004728
 21
702.5
 31
0.0
  0
ARC
  8
0
  6
CONTINUOUS
 62
     1
 10
1075.337790779
 20
701.5
 30
0.0
 40
1.0
 50
15.0
 51
90.0
  0
ARC
  8
0
  6
CONTINUOUS
 62
     1
 10
1075.337789953
 20
701.5
 30
0.0
 40
1.0
 50
90.0
 51
165.0
  0
LINE
  8
0
  6
CONTINUOUS
 62
     1
 10
1070.749823916
 20
688.241180955
 30
0.0
 11
1074.371864126
 21
701.758819045
 31
0.0
  0
ARC
  8
0
  6
CONTINUOUS
 62
     1
 10
1069.78389809
 20
688.5
 30
0.0
 40
1.0
 50
270.0
 51
345.0
  0
ARC
  8
0
  6
CONTINUOUS
 62
     1
 10
1069.783897416
 20
688.5
 30
0.0
 40
1.0
 50
195.0
 51
270.0
  0
LINE
  8
0
  6
CONTINUOUS
 62
     1
 10
1068.81797159
 20
688.241180955
 30
0.0
 11
1065.19593138
 21
701.758819045
 31
0.0
  0
ARC
  8
0
  6
CONTINUOUS
 62
     1
 10
1064.230005553
 20
701.5
 30
0.0
 40
1.0
 50
15.0
 51
90.0
  0
ARC
  8
0
  6
CONTINUOUS
 62
     1
 10
1064.230003902
 20
701.5
 30
0.0
 40
1.0
 50
90.0
 51
165.0
  0
ARC
  8
0
  6
CONTINUOUS
 62
     1
 10
1058.676112865
 20
688.5
 30
0.0
 40
1.0
 50
270.0
 51
345.0
  0
LINE
  8
0
  6
CONTINUOUS
 62
     1
 10
1059.642038691
 20
688.241180955
 30
0.0
 11
1063.264078901
 21
701.758819045
 31
0.0
  0
LINE
  8
0
  6
CONTINUOUS
 62
     1
 10
1082.0
 20
680.5
 30
0.0
 11
1076.303716605
 21
701.758819045
 31
0.0
  0
LINE
  8
0
  6
CONTINUOUS
 62
     1
 10
1094.5
 20
682.5
 30
0.0
 11
1084.5
 21
682.5
 31
0.0
  0
LINE
  8
0
  6
CONTINUOUS
 62
     1
 10
1094.5
 20
680.5
 30
0.0
 11
1094.5
 21
682.5
 31
0.0
  0
LINE
  8
0
  6
CONTINUOUS
 62
     1
 10
1084.5
 20
680.5
 30
0.0
 11
1084.5
 21
682.5
 31
0.0
  0
LINE
  8
0
  6
CONTINUOUS
 62
     1
 10
1082.0
 20
647.5
 30
0.0
 11
1082.0
 21
680.5
 31
0.0
  0
LINE
  8
0
  6
CONTINUOUS
 62
     1
 10
1058.676112865
 20
687.5
 30
0.0
 11
1058.676112865
 21
647.5
 31
0.0
  0
LINE
  8
0
  6
CONTINUOUS
 62
     1
 10
1064.230004728
 20
702.5
 30
0.0
 11
1064.230004728
 21
647.5
 31
0.0
  0
LINE
  8
0
  6
CONTINUOUS
 62
     1
 10
1075.337790779
 20
702.5
 30
0.0
 11
1075.337790779
 21
647.5
 31
0.0
  0
LINE
  8
0
  6
CONTINUOUS
 62
     1
 10
1069.78389809
 20
647.5
 30
0.0
 11
1069.78389809
 21
687.5
 31
0.0
  0
LINE
  8
0
  6
LTYPE5
 62
     2
 10
1013.50689659
 20
687.5
 30
0.0
 11
1027.730004728
 21
687.5
 31
0.0
  0
LINE
  8
0
  6
LTYPE5
 62
     2
 10
1007.953004728
 20
702.5
 30
0.0
 11
1027.730004728
 21
702.5
 31
0.0
  0
LINE
  8
0
  6
CONTINUOUS
 62
     1
 10
977.683009455
 20
684.5
 30
0.0
 11
987.683009455
 21
684.5
 31
0.0
  0
LINE
  8
0
  6
CONTINUOUS
 62
     1
 10
977.683009455
 20
682.5
 30
0.0
 11
977.683009455
 21
684.5
 31
0.0
  0
LINE
  8
0
  6
CONTINUOUS
 62
     1
 10
987.683009455
 20
682.5
 30
0.0
 11
987.683009455
 21
684.5
 31
0.0
  0
LINE
  8
0
  6
CONTINUOUS
 62
     1
 10
990.71890784
 20
682.5
 30
0.0
 11
975.182501379
 21
682.5
 31
0.0
  0
LINE
  8
0
  6
CONTINUOUS
 62
     1
 10
990.71890784
 20
682.5
 30
0.0
 11
995.87929285
 21
701.758819045
 31
0.0
  0
LINE
  8
0
  6
CONTINUOUS
 62
     1
 10
990.71890784
 20
682.5
 30
0.0
 11
990.71890784
 21
647.5
 31
0.0
  0
LINE
  8
0
  6
CONTINUOUS
 62
     1
 10
975.183472275
 20
647.5
 30
0.0
 11
975.183472275
 21
682.5
 31
0.0
  0
LINE
  8
0
  6
CONTINUOUS
 62
     1
 10
975.183472275
 20
682.5
 30
0.0
 11
990.183009455
 21
682.5
 31
0.0
  0
ARC
  8
0
  6
CONTINUOUS
 62
     1
 10
996.845726752
 20
593.5
 30
0.0
 40
1.0
 50
195.0
 51
270.0
  0
ARC
  8
0
  6
CONTINUOUS
 62
     1
 10
996.845727578
 20
593.5
 30
0.0
 40
1.0
 50
270.0
 51
345.0
  0
LINE
  8
0
  6
CONTINUOUS
 62
     1
 10
1001.433693614
 20
606.758819045
 30
0.0
 11
997.811653404
 21
593.241180955
 31
0.0
  0
ARC
  8
0
  6
CONTINUOUS
 62
     1
 10
1002.399619441
 20
606.5
 30
0.0
 40
1.0
 50
90.0
 51
165.0
  0
ARC
  8
0
  6
CONTINUOUS
 62
     1
 10
1002.399620115
 20
606.5
 30
0.0
 40
1.0
 50
15.0
 51
90.0
  0
LINE
  8
0
  6
CONTINUOUS
 62
     1
 10
1003.365545941
 20
606.758819045
 30
0.0
 11
1006.987586151
 21
593.241180955
 31
0.0
  0
ARC
  8
0
  6
CONTINUOUS
 62
     1
 10
1007.953511977
 20
593.5
 30
0.0
 40
1.0
 50
195.0
 51
270.0
  0
LINE
  8
0
  6
CONTINUOUS
 62
     1
 10
1012.541478839
 20
606.758819045
 30
0.0
 11
1008.91943863
 21
593.241180955
 31
0.0
  0
ARC
  8
0
  6
CONTINUOUS
 62
     1
 10
1013.507404666
 20
606.5
 30
0.0
 40
1.0
 50
90.0
 51
165.0
  0
ARC
  8
0
  6
CONTINUOUS
 62
     1
 10
1007.953513629
 20
593.5
 30
0.0
 40
1.0
 50
270.0
 51
345.0
  0
LINE
  8
0
  6
CONTINUOUS
 62
     1
 10
977.683517531
 20
609.5
 30
0.0
 11
987.683517531
 21
609.5
 31
0.0
  0
LINE
  8
0
  6
CONTINUOUS
 62
     1
 10
977.683517531
 20
611.5
 30
0.0
 11
977.683517531
 21
609.5
 31
0.0
  0
LINE
  8
0
  6
CONTINUOUS
 62
     1
 10
987.683517531
 20
611.5
 30
0.0
 11
987.683517531
 21
609.5
 31
0.0
  0
LINE
  8
0
  6
CONTINUOUS
 62
     1
 10
990.987365108
 20
611.5
 30
0.0
 11
995.879800926
 21
593.241180955
 31
0.0
  0
LINE
  8
0
  6
CONTINUOUS
 62
     1
 10
975.183009455
 20
611.5
 30
0.0
 11
990.987365108
 21
611.5
 31
0.0
  0
LINE
  8
0
  6
CONTINUOUS
 62
     1
 10
975.183009455
 20
647.5
 30
0.0
 11
975.183009455
 21
611.5
 31
0.0
  0
ARC
  8
0
  6
CONTINUOUS
 62
     1
 10
1075.337790779
 20
593.5
 30
0.0
 40
1.0
 50
270.0
 51
345.0
  0
ARC
  8
0
  6
CONTINUOUS
 62
     1
 10
1075.337789953
 20
593.5
 30
0.0
 40
1.0
 50
195.0
 51
270.0
  0
LINE
  8
0
  6
CONTINUOUS
 62
     1
 10
1070.749823916
 20
606.758819045
 30
0.0
 11
1074.371864126
 21
593.241180955
 31
0.0
  0
ARC
  8
0
  6
CONTINUOUS
 62
     1
 10
1069.78389809
 20
606.5
 30
0.0
 40
1.0
 50
15.0
 51
90.0
  0
ARC
  8
0
  6
CONTINUOUS
 62
     1
 10
1069.783897416
 20
606.5
 30
0.0
 40
1.0
 50
90.0
 51
165.0
  0
LINE
  8
0
  6
CONTINUOUS
 62
     1
 10
1068.81797159
 20
606.758819045
 30
0.0
 11
1065.19593138
 21
593.241180955
 31
0.0
  0
ARC
  8
0
  6
CONTINUOUS
 62
     1
 10
1064.230005553
 20
593.5
 30
0.0
 40
1.0
 50
270.0
 51
345.0
  0
ARC
  8
0
  6
CONTINUOUS
 62
     1
 10
1064.230003902
 20
593.5
 30
0.0
 40
1.0
 50
195.0
 51
270.0
  0
LINE
  8
0
  6
CONTINUOUS
 62
     1
 10
1059.642038691
 20
606.758819045
 30
0.0
 11
1063.264078901
 21
593.241180955
 31
0.0
  0
LINE
  8
0
  6
CONTINUOUS
 62
     1
 10
1082.0
 20
614.5
 30
0.0
 11
1076.303716605
 21
593.241180955
 31
0.0
  0
LINE
  8
0
  6
CONTINUOUS
 62
     1
 10
1094.5
 20
612.5
 30
0.0
 11
1084.5
 21
612.5
 31
0.0
  0
LINE
  8
0
  6
CONTINUOUS
 62
     1
 10
1094.5
 20
614.5
 30
0.0
 11
1094.5
 21
612.5
 31
0.0
  0
LINE
  8
0
  6
CONTINUOUS
 62
     1
 10
1084.5
 20
614.5
 30
0.0
 11
1084.5
 21
612.5
 31
0.0
  0
LINE
  8
0
  6
CONTINUOUS
 62
     1
 10
1081.982501379
 20
614.6
 30
0.0
 11
1081.982501379
 21
622.4
 31
0.0
  0
ARC
  8
0
  6
CONTINUOUS
 62
     1
 10
1059.176112865
 20
606.5
 30
0.0
 40
1.0
 50
15.0
 51
90.0
  0
LINE
  8
0
  6
LTYPE5
 62
     2
 10
1059.176112865
 20
607.5
 30
0.0
 11
1014.676112865
 21
607.5
 31
0.0
  0
LINE
  8
0
  6
LTYPE5
 62
     2
 10
1064.230005553
 20
592.5
 30
0.0
 11
1010.676112865
 21
592.5
 31
0.0
  0
LINE
  8
0
  6
CONTINUOUS
 62
     1
 10
1097.0
 20
622.5
 30
0.0
 11
1042.0
 21
622.5
 31
0.0
  0
LINE
  8
0
  6
CONTINUOUS
 62
     1
 10
975.183009455
 20
682.5
 30
0.0
 11
647.0
 21
682.5
 31
0.0
  0
LINE
  8
0
  6
CONTINUOUS
 62
     1
 10
975.183009455
 20
612.5
 30
0.0
 11
647.0
 21
612.5
 31
0.0
  0
LINE
  8
0
  6
CONTINUOUS
 62
     1
 10
628.0
 20
782.5
 30
0.0
 11
628.0
 21
839.5
 31
0.0
  0
LINE
  8
0
  6
CONTINUOUS
 62
     1
 10
633.0
 20
825.570524155
 30
0.0
 11
633.0
 21
838.0
 31
0.0
  0
ARC
  8
0
  6
CONTINUOUS
 62
     1
 10
634.5
 20
825.570524155
 30
0.0
 40
1.5
 50
180.0
 51
251.029592192
  0
LINE
  8
0
  6
CONTINUOUS
 62
     1
 10
649.0
 20
782.5
 30
0.0
 11
649.0
 21
817.929475845
 31
0.0
  0
LINE
  8
0
  6
CONTINUOUS
 62
     1
 10
647.987619653
 20
819.348005744
 30
0.0
 11
634.012380347
 21
824.151994256
 31
0.0
  0
ARC
  8
0
  6
CONTINUOUS
 62
     1
 10
647.5
 20
817.929475845
 30
0.0
 40
1.5
 50
0.0
 51
71.029592192
  0
LINE
  8
0
  6
CONTINUOUS
 62
     1
 10
633.0
 20
782.5
 30
0.0
 11
633.0
 21
825.570524155
 31
0.0
  0
ARC
  8
0
  6
CONTINUOUS
 62
     1
 10
661.0
 20
799.0
 30
0.0
 40
1.0
 50
0.0
 51
90.0
  0
LINE
  8
0
  6
CONTINUOUS
 62
     1
 10
661.0
 20
800.0
 30
0.0
 11
649.0
 21
800.0
 31
0.0
  0
LINE
  8
0
  6
CONTINUOUS
 62
     1
 10
662.0
 20
782.5
 30
0.0
 11
662.0
 21
799.0
 31
0.0
  0
LINE
  8
0
  6
CONTINUOUS
 62
     1
 10
628.0
 20
782.5
 30
0.0
 11
628.0
 21
725.5
 31
0.0
  0
LINE
  8
0
  6
CONTINUOUS
 62
     1
 10
649.0
 20
782.5
 30
0.0
 11
649.0
 21
747.070524155
 31
0.0
  0
ARC
  8
0
  6
CONTINUOUS
 62
     1
 10
647.5
 20
747.070524155
 30
0.0
 40
1.5
 50
288.970407808
 51
0.0
  0
ARC
  8
0
  6
CONTINUOUS
 62
     1
 10
661.0
 20
766.0
 30
0.0
 40
1.0
 50
270.0
 51
0.0
  0
LINE
  8
0
  6
CONTINUOUS
 62
     1
 10
661.0
 20
765.0
 30
0.0
 11
649.0
 21
765.0
 31
0.0
  0
LINE
  8
0
  6
CONTINUOUS
 62
     1
 10
662.0
 20
782.5
 30
0.0
 11
662.0
 21
766.0
 31
0.0
  0
LINE
  8
0
  6
LTYPE3
 62
     2
 10
641.0
 20
818.562445841
 30
0.0
 11
630.0
 21
818.562445841
 31
0.0
  0
LINE
  8
0
  6
CONTINUOUS
 62
     1
 10
633.0
 20
739.429475845
 30
0.0
 11
633.0
 21
727.0
 31
0.0
  0
ARC
  8
0
  6
CONTINUOUS
 62
     1
 10
634.5
 20
739.429475845
 30
0.0
 40
1.5
 50
108.970407808
 51
180.0
  0
LINE
  8
0
  6
CONTINUOUS
 62
     1
 10
647.987619653
 20
745.651994256
 30
0.0
 11
634.012380347
 21
740.848005744
 31
0.0
  0
LINE
  8
0
  6
CONTINUOUS
 62
     1
 10
633.0
 20
782.5
 30
0.0
 11
633.0
 21
739.429475845
 31
0.0
  0
LINE
  8
0
  6
LTYPE3
 62
     2
 10
641.0
 20
746.437554159
 30
0.0
 11
630.0
 21
746.437554159
 31
0.0
  0
LINE
  8
0
  6
CONTINUOUS
 62
     1
 10
578.0
 20
860.5
 30
0.0
 11
578.0
 21
894.5
 31
0.0
  0
LINE
  8
0
  6
CONTINUOUS
 62
     1
 10
578.0
 20
860.5
 30
0.0
 11
552.0
 21
860.5
 31
0.0
  0
LINE
  8
0
  6
CONTINUOUS
 62
     1
 10
578.0
 20
894.5
 30
0.0
 11
552.0
 21
894.5
 31
0.0
  0
LINE
  8
0
  6
CONTINUOUS
 62
     1
 10
482.0
 20
852.5
 30
0.0
 11
482.0
 21
855.5
 31
0.0
  0
ARC
  8
0
  6
CONTINUOUS
 62
     1
 10
486.0
 20
849.5
 30
0.0
 40
3.0
 50
0.0
 51
90.0
  0
LINE
  8
0
  6
CONTINUOUS
 62
     1
 10
489.0
 20
842.5
 30
0.0
 11
489.0
 21
849.5
 31
0.0
  0
ARC
  8
0
  6
CONTINUOUS
 62
     1
 10
492.0
 20
842.5
 30
0.0
 40
3.0
 50
180.0
 51
270.0
  0
LINE
  8
0
  6
CONTINUOUS
 62
     1
 10
542.0
 20
852.5
 30
0.0
 11
542.0
 21
855.5
 31
0.0
  0
ARC
  8
0
  6
CONTINUOUS
 62
     1
 10
538.0
 20
849.5
 30
0.0
 40
3.0
 50
90.0
 51
180.0
  0
LINE
  8
0
  6
CONTINUOUS
 62
     1
 10
535.0
 20
842.5
 30
0.0
 11
535.0
 21
849.5
 31
0.0
  0
ARC
  8
0
  6
CONTINUOUS
 62
     1
 10
532.0
 20
842.5
 30
0.0
 40
3.0
 50
270.0
 51
0.0
  0
LINE
  8
0
  6
CONTINUOUS
 62
     1
 10
542.0
 20
852.5
 30
0.0
 11
482.0
 21
852.5
 31
0.0
  0
LINE
  8
0
  6
CONTINUOUS
 62
     1
 10
466.912087912
 20
857.5
 30
0.0
 11
559.0
 21
901.520045888
 31
0.0
  0
LINE
  8
0
  6
CONTINUOUS
 62
     1
 10
465.0
 20
861.5
 30
0.0
 11
557.087912088
 21
905.520045888
 31
0.0
  0
LINE
  8
0
  6
CONTINUOUS
 62
     1
 10
557.087912088
 20
905.520045888
 30
0.0
 11
559.0
 21
901.520045888
 31
0.0
  0
LINE
  8
0
  6
CONTINUOUS
 62
     1
 10
472.0
 20
864.846153846
 30
0.0
 11
472.0
 21
904.5
 31
0.0
  0
ARC
  8
0
  6
CONTINUOUS
 62
     1
 10
475.0
 20
904.5
 30
0.0
 40
3.0
 50
90.0
 51
180.0
  0
LINE
  8
0
  6
CONTINUOUS
 62
     1
 10
472.0
 20
858.5
 30
0.0
 11
472.0
 21
859.9321338
 31
0.0
  0
ARC
  8
0
  6
CONTINUOUS
 62
     1
 10
475.0
 20
858.5
 30
0.0
 40
3.0
 50
180.0
 51
270.0
  0
LINE
  8
0
  6
CONTINUOUS
 62
     1
 10
552.0
 20
858.5
 30
0.0
 11
552.0
 21
898.173892042
 31
0.0
  0
LINE
  8
0
  6
CONTINUOUS
 62
     1
 10
549.0
 20
855.5
 30
0.0
 11
475.0
 21
855.5
 31
0.0
  0
ARC
  8
0
  6
CONTINUOUS
 62
     1
 10
549.0
 20
858.5
 30
0.0
 40
3.0
 50
270.0
 51
0.0
  0
LINE
  8
0
  6
CONTINUOUS
 62
     1
 10
552.0
 20
903.087912088
 30
0.0
 11
552.0
 21
904.5
 31
0.0
  0
LINE
  8
0
  6
CONTINUOUS
 62
     1
 10
549.0
 20
907.5
 30
0.0
 11
475.0
 21
907.5
 31
0.0
  0
ARC
  8
0
  6
CONTINUOUS
 62
     1
 10
549.0
 20
904.5
 30
0.0
 40
3.0
 50
0.0
 51
90.0
  0
LINE
  8
0
  6
LTYPE3
 62
     2
 10
512.0
 20
827.5
 30
0.0
 11
512.0
 21
915.4321338
 31
0.0
  0
LINE
  8
0
  6
CONTINUOUS
 62
     6
 10
634.3
 20
818.562445841
 30
0.0
 11
634.3
 21
813.950565841
 31
0.0
  0
LINE
  8
0
  6
CONTINUOUS
 62
     6
 10
634.3
 20
818.562445841
 30
0.0
 11
634.3
 21
823.174325841
 31
0.0
  0
LINE
  8
0
  6
CONTINUOUS
 62
     6
 10
637.8002
 20
815.080005841
 30
0.0
 11
637.148117512
 21
813.950565841
 31
0.0
  0
LINE
  8
0
  6
CONTINUOUS
 62
     6
 10
637.8002
 20
818.562445841
 30
0.0
 11
637.8002
 21
815.080005841
 31
0.0
  0
LINE
  8
0
  6
CONTINUOUS
 62
     6
 10
637.8002
 20
822.044885841
 30
0.0
 11
637.148117512
 21
823.174325841
 31
0.0
  0
LINE
  8
0
  6
CONTINUOUS
 62
     6
 10
637.8002
 20
818.562445841
 30
0.0
 11
637.8002
 21
822.044885841
 31
0.0
  0
ARC
  8
0
  6
CONTINUOUS
 62
     6
 10
633.396945074
 20
818.562445841
 30
0.0
 40
4.403254926
 50
328.419912243
 51
31.580087757
  0
ARC
  8
0
  6
CONTINUOUS
 62
     6
 10
636.455279868
 20
815.103535841
 30
0.0
 40
1.34512595
 50
357.010501597
 51
58.997686085
  0
LINE
  8
0
  6
CONTINUOUS
 62
     6
 10
637.8002
 20
822.044885841
 30
0.0
 11
637.148117512
 21
823.174325841
 31
0.0
  0
ARC
  8
0
  6
CONTINUOUS
 62
     6
 10
636.455279868
 20
822.021355841
 30
0.0
 40
1.34512595
 50
301.002313915
 51
2.989498403
  0
LINE
  8
0
  6
CONTINUOUS
 62
     6
 10
634.3
 20
813.950565841
 30
0.0
 11
637.148117512
 21
813.950565841
 31
0.0
  0
LINE
  8
0
  6
CONTINUOUS
 62
     6
 10
634.3
 20
816.256505841
 30
0.0
 11
637.148117512
 21
816.256505841
 31
0.0
  0
LINE
  8
0
  6
CONTINUOUS
 62
     6
 10
634.3
 20
820.868385841
 30
0.0
 11
637.148117512
 21
820.868385841
 31
0.0
  0
LINE
  8
0
  6
CONTINUOUS
 62
     6
 10
634.3
 20
823.174325841
 30
0.0
 11
637.148117512
 21
823.174325841
 31
0.0
  0
LINE
  8
0
  6
CONTINUOUS
 62
     6
 10
633.0
 20
813.962445841
 30
0.0
 11
634.3
 21
813.962445841
 31
0.0
  0
LINE
  8
0
  6
CONTINUOUS
 62
     6
 10
633.0
 20
818.562445841
 30
0.0
 11
634.299999554
 21
817.262446287
 31
0.0
  0
LINE
  8
0
  6
CONTINUOUS
 62
     6
 10
634.299999554
 20
818.562445841
 30
0.0
 11
633.0
 21
819.862445394
 31
0.0
  0
LINE
  8
0
  6
CONTINUOUS
 62
     6
 10
633.0
 20
823.162445841
 30
0.0
 11
634.3
 21
823.162445841
 31
0.0
  0
LINE
  8
0
  6
CONTINUOUS
 62
     6
 10
663.0
 20
786.3
 30
0.0
 11
662.0
 21
786.3
 31
0.0
  0
LINE
  8
0
  6
CONTINUOUS
 62
     6
 10
663.0
 20
782.5
 30
0.0
 11
662.0
 21
783.5
 31
0.0
  0
LINE
  8
0
  6
CONTINUOUS
 62
     6
 10
665.482457352
 20
786.55
 30
0.0
 11
663.0
 21
786.55
 31
0.0
  0
LINE
  8
0
  6
CONTINUOUS
 62
     6
 10
665.8
 20
786.0
 30
0.0
 11
665.482457352
 21
786.55
 31
0.0
  0
LINE
  8
0
  6
CONTINUOUS
 62
     6
 10
665.482457352
 20
784.525
 30
0.0
 11
663.0
 21
784.525
 31
0.0
  0
ARC
  8
0
  6
CONTINUOUS
 62
     6
 10
664.027026212
 20
785.5375
 30
0.0
 40
1.772973788
 50
325.174816769
 51
34.825183231
  0
LINE
  8
0
  6
CONTINUOUS
 62
     6
 10
663.0
 20
778.7
 30
0.0
 11
662.0
 21
778.7
 31
0.0
  0
LINE
  8
0
  6
CONTINUOUS
 62
     6
 10
663.0
 20
781.5
 30
0.0
 11
662.0
 21
782.5
 31
0.0
  0
LINE
  8
0
  6
CONTINUOUS
 62
     6
 10
665.8
 20
779.0
 30
0.0
 11
665.482457352
 21
778.45
 31
0.0
  0
LINE
  8
0
  6
CONTINUOUS
 62
     6
 10
665.482457352
 20
778.45
 30
0.0
 11
663.0
 21
778.45
 31
0.0
  0
LINE
  8
0
  6
CONTINUOUS
 62
     6
 10
665.482457352
 20
780.475
 30
0.0
 11
663.0
 21
780.475
 31
0.0
  0
ARC
  8
0
  6
CONTINUOUS
 62
     6
 10
664.027026212
 20
779.4625
 30
0.0
 40
1.772973788
 50
325.174816769
 51
34.825183231
  0
LINE
  8
0
  6
CONTINUOUS
 62
     6
 10
663.0
 20
786.55
 30
0.0
 11
663.0
 21
778.45
 31
0.0
  0
LINE
  8
0
  6
CONTINUOUS
 62
     6
 10
665.8
 20
786.0
 30
0.0
 11
665.8
 21
779.0
 31
0.0
  0
ARC
  8
0
  6
CONTINUOUS
 62
     6
 10
659.184418819
 20
782.5
 30
0.0
 40
6.615581181
 50
342.175912681
 51
17.824087319
  0
LINE
  8
0
  6
CONTINUOUS
 62
     6
 10
634.3
 20
746.437554159
 30
0.0
 11
634.3
 21
751.049434159
 31
0.0
  0
LINE
  8
0
  6
CONTINUOUS
 62
     6
 10
637.8002
 20
749.919994159
 30
0.0
 11
637.148117512
 21
751.049434159
 31
0.0
  0
LINE
  8
0
  6
CONTINUOUS
 62
     6
 10
637.8002
 20
746.437554159
 30
0.0
 11
637.8002
 21
749.919994159
 31
0.0
  0
ARC
  8
0
  6
CONTINUOUS
 62
     6
 10
636.455279868
 20
749.896464159
 30
0.0
 40
1.34512595
 50
301.002313915
 51
2.989498403
  0
LINE
  8
0
  6
CONTINUOUS
 62
     6
 10
634.3
 20
751.049434159
 30
0.0
 11
637.148117512
 21
751.049434159
 31
0.0
  0
LINE
  8
0
  6
CONTINUOUS
 62
     6
 10
633.0
 20
751.037554159
 30
0.0
 11
634.3
 21
751.037554159
 31
0.0
  0
LINE
  8
0
  6
CONTINUOUS
 62
     6
 10
634.3
 20
746.437554159
 30
0.0
 11
634.3
 21
741.825674159
 31
0.0
  0
LINE
  8
0
  6
CONTINUOUS
 62
     6
 10
637.8002
 20
742.955114159
 30
0.0
 11
637.148117512
 21
741.825674159
 31
0.0
  0
LINE
  8
0
  6
CONTINUOUS
 62
     6
 10
637.8002
 20
746.437554159
 30
0.0
 11
637.8002
 21
742.955114159
 31
0.0
  0
ARC
  8
0
  6
CONTINUOUS
 62
     6
 10
633.396945074
 20
746.437554159
 30
0.0
 40
4.403254926
 50
328.419912243
 51
31.580087757
  0
LINE
  8
0
  6
CONTINUOUS
 62
     6
 10
637.8002
 20
742.955114159
 30
0.0
 11
637.148117512
 21
741.825674159
 31
0.0
  0
ARC
  8
0
  6
CONTINUOUS
 62
     6
 10
636.455279868
 20
742.978644159
 30
0.0
 40
1.34512595
 50
357.010501597
 51
58.997686085
  0
LINE
  8
0
  6
CONTINUOUS
 62
     6
 10
634.3
 20
744.131614159
 30
0.0
 11
637.148117512
 21
744.131614159
 31
0.0
  0
LINE
  8
0
  6
CONTINUOUS
 62
     6
 10
634.3
 20
741.825674159
 30
0.0
 11
637.148117512
 21
741.825674159
 31
0.0
  0
LINE
  8
0
  6
CONTINUOUS
 62
     6
 10
633.0
 20
741.837554159
 30
0.0
 11
634.3
 21
741.837554159
 31
0.0
  0
LINE
  8
0
  6
CONTINUOUS
 62
     6
 10
634.3
 20
748.743494159
 30
0.0
 11
637.148117512
 21
748.743494159
 31
0.0
  0
LINE
  8
0
  6
CONTINUOUS
 62
     6
 10
633.0
 20
746.437554159
 30
0.0
 11
634.299999554
 21
747.737553713
 31
0.0
  0
LINE
  8
0
  6
CONTINUOUS
 62
     6
 10
634.299999554
 20
746.437554159
 30
0.0
 11
633.0
 21
745.137554606
 31
0.0
  0
LINE
  8
0
  6
CONTINUOUS
 62
     1
 10
676.5
 20
798.0
 30
0.0
 11
662.0
 21
798.0
 31
0.0
  0
ARC
  8
0
  6
CONTINUOUS
 62
     1
 10
676.5
 20
796.5
 30
0.0
 40
1.5
 50
0.0
 51
90.0
  0
LINE
  8
0
  6
CONTINUOUS
 62
     1
 10
676.5
 20
767.0
 30
0.0
 11
662.0
 21
767.0
 31
0.0
  0
LINE
  8
0
  6
CONTINUOUS
 62
     1
 10
678.0
 20
768.5
 30
0.0
 11
678.0
 21
796.5
 31
0.0
  0
ARC
  8
0
  6
CONTINUOUS
 62
     1
 10
676.5
 20
768.5
 30
0.0
 40
1.5
 50
270.0
 51
0.0
  0
LINE
  8
7
  6
CONTINUOUS
 62
     2
 10
578.0
 20
877.5
 30
0.0
 11
586.564390096
 21
882.662482183
 31
0.0
  0
LINE
  8
7
  6
CONTINUOUS
 62
     2
 10
578.0
 20
877.5
 30
0.0
 11
582.835738299
 21
886.253035765
 31
0.0
  0
LINE
  8
7
  6
CONTINUOUS
 62
     2
 10
578.0
 20
877.5
 30
0.0
 11
604.0
 21
904.5
 31
0.0
  0
LINE
  8
0
  6
LTYPE3
 62
     2
 10
587.67468209
 20
877.5
 30
0.0
 11
544.929475845
 21
877.5
 31
0.0
  0
LINE
  8
0
  6
CONTINUOUS
 62
     1
 10
432.0
 20
863.5
 30
0.0
 11
441.2
 21
863.5
 31
0.0
  0
CIRCLE
  8
0
  6
CONTINUOUS
 62
     1
 10
432.0
 20
877.5
 30
0.0
 40
12.5
  0
LINE
  8
0
  6
CONTINUOUS
 62
     1
 10
432.0
 20
865.0
 30
0.0
 11
441.2
 21
863.5
 31
0.0
  0
ARC
  8
0
  6
CONTINUOUS
 62
     1
 10
432.0
 20
877.5
 30
0.0
 40
20.5
 50
300.423432294
 51
0.0
  0
LINE
  8
0
  6
CONTINUOUS
 62
     1
 10
441.760585153
 20
858.594879912
 30
0.0
 11
441.2
 21
863.5
 31
0.0
  0
ARC
  8
0
  6
CONTINUOUS
 62
     1
 10
442.947984073
 20
858.773488336
 30
0.0
 40
1.2
 50
118.393405187
 51
188.554293104
  0
LINE
  8
0
  6
CONTINUOUS
 62
     1
 10
432.0
 20
863.5
 30
0.0
 11
422.8
 21
863.5
 31
0.0
  0
LINE
  8
0
  6
CONTINUOUS
 62
     1
 10
432.0
 20
865.0
 30
0.0
 11
422.8
 21
863.5
 31
0.0
  0
LINE
  8
0
  6
CONTINUOUS
 62
     1
 10
422.239414847
 20
858.594879912
 30
0.0
 11
422.8
 21
863.5
 31
0.0
  0
ARC
  8
0
  6
CONTINUOUS
 62
     1
 10
421.052015927
 20
858.773488336
 30
0.0
 40
1.2
 50
351.445706896
 51
61.606594813
  0
ARC
  8
0
  6
CONTINUOUS
 62
     1
 10
432.0
 20
877.5
 30
0.0
 40
20.5
 50
0.0
 51
239.707348078
  0
LINE
  8
0
  6
CONTINUOUS
 62
     1
 10
422.114285714
 20
857.5
 30
0.0
 11
422.239414847
 21
858.594879912
 31
0.0
  0
LINE
  8
0
  6
CONTINUOUS
 62
     1
 10
441.885714286
 20
857.5
 30
0.0
 11
441.760585153
 21
858.594879912
 31
0.0
  0
ARC
  8
0
  6
CONTINUOUS
 62
     1
 10
422.0
 20
854.5
 30
0.0
 40
3.0
 50
90.0
 51
180.0
  0
LINE
  8
0
  6
LTYPE2
 62
     2
 10
455.5
 20
877.5
 30
0.0
 11
406.5
 21
877.5
 31
0.0
  0
LINE
  8
0
  6
LTYPE2
 62
     2
 10
432.0
 20
843.6
 30
0.0
 11
432.0
 21
906.3
 31
0.0
  0
ARC
  8
0
  6
CONTINUOUS
 62
     1
 10
413.0
 20
831.5
 30
0.0
 40
6.0
 50
270.0
 51
0.0
  0
LINE
  8
0
  6
CONTINUOUS
 62
     1
 10
419.0
 20
831.5
 30
0.0
 11
419.0
 21
854.5
 31
0.0
  0
LINE
  8
0
  6
CONTINUOUS
 62
     1
 10
456.0
 20
570.0
 30
0.0
 11
456.0
 21
857.5
 31
0.0
  0
LINE
  8
0
  6
CONTINUOUS
 62
     1
 10
456.0
 20
857.5
 30
0.0
 11
422.0
 21
857.5
 31
0.0
  0
LINE
  8
0
  6
CONTINUOUS
 62
     1
 10
444.0
 20
825.5
 30
0.0
 11
448.0
 21
857.5
 31
0.0
  0
LINE
  8
0
  6
CONTINUOUS
 62
     1
 10
448.0
 20
758.5
 30
0.0
 11
448.0
 21
857.5
 31
0.0
  0
LINE
  8
2
  6
CONTINUOUS
 62
     2
 10
456.0
 20
981.9
 30
0.0
 11
456.0
 21
1005.9
 31
0.0
  0
LINE
  8
2
  6
CONTINUOUS
 62
     2
 10
456.0
 20
995.9
 30
0.0
 11
468.074072829
 21
992.664761936
 31
0.0
  0
LINE
  8
2
  6
CONTINUOUS
 62
     2
 10
456.0
 20
995.9
 30
0.0
 11
468.074072829
 21
999.135238064
 31
0.0
  0
LINE
  8
2
  6
CONTINUOUS
 62
     2
 10
456.0
 20
995.9
 30
0.0
 11
678.0
 21
995.9
 31
0.0
  0
LINE
  8
2
  6
CONTINUOUS
 62
     2
 10
678.0
 20
995.9
 30
0.0
 11
665.925927171
 21
999.135238064
 31
0.0
  0
LINE
  8
2
  6
CONTINUOUS
 62
     2
 10
678.0
 20
995.9
 30
0.0
 11
665.925927171
 21
992.664761936
 31
0.0
  0
LINE
  8
2
  6
CONTINUOUS
 62
     2
 10
678.0
 20
787.5
 30
0.0
 11
678.0
 21
1005.9
 31
0.0
  0
LINE
  8
0
  6
CONTINUOUS
 62
     1
 10
469.0
 20
782.5
 30
0.0
 11
469.0
 21
839.5
 31
0.0
  0
ARC
  8
0
  6
CONTINUOUS
 62
     1
 10
464.5
 20
841.0
 30
0.0
 40
1.5
 50
180.0
 51
270.0
  0
LINE
  8
0
  6
CONTINUOUS
 62
     1
 10
463.0
 20
841.0
 30
0.0
 11
463.0
 21
842.0
 31
0.0
  0
ARC
  8
0
  6
CONTINUOUS
 62
     1
 10
461.5
 20
842.0
 30
0.0
 40
1.5
 50
0.0
 51
90.0
  0
LINE
  8
0
  6
CONTINUOUS
 62
     1
 10
463.0
 20
782.5
 30
0.0
 11
463.0
 21
841.6
 31
0.0
  0
LINE
  8
0
  6
CONTINUOUS
 62
     1
 10
469.0
 20
782.5
 30
0.0
 11
469.0
 21
725.5
 31
0.0
  0
ARC
  8
0
  6
CONTINUOUS
 62
     1
 10
464.5
 20
724.0
 30
0.0
 40
1.5
 50
90.0
 51
180.0
  0
LINE
  8
0
  6
CONTINUOUS
 62
     1
 10
463.0
 20
724.0
 30
0.0
 11
463.0
 21
723.0
 31
0.0
  0
LINE
  8
0
  6
CONTINUOUS
 62
     1
 10
463.0
 20
782.5
 30
0.0
 11
463.0
 21
723.4
 31
0.0
  0
ARC
  8
0
  6
CONTINUOUS
 62
     1
 10
461.5
 20
723.0
 30
0.0
 40
1.5
 50
270.000291421
 51
0.0
  0
LINE
  8
0
  6
CONTINUOUS
 62
     1
 10
461.5
 20
843.5
 30
0.0
 11
456.0
 21
843.5
 31
0.0
  0
LINE
  8
0
  6
CONTINUOUS
 62
     1
 10
461.500007629
 20
721.5
 30
0.0
 11
456.0
 21
721.5
 31
0.0
  0
ARC
  8
0
  6
CONTINUOUS
 62
     1
 10
631.5
 20
838.0
 30
0.0
 40
1.5
 50
0.0
 51
89.999708579
  0
LINE
  8
0
  6
CONTINUOUS
 62
     1
 10
631.500007629
 20
839.5
 30
0.0
 11
464.5
 21
839.5
 31
0.0
  0
ARC
  8
0
  6
CONTINUOUS
 62
     1
 10
631.5
 20
727.0
 30
0.0
 40
1.5
 50
270.000504757
 51
0.0
  0
LINE
  8
0
  6
CONTINUOUS
 62
     1
 10
631.500013215
 20
725.5
 30
0.0
 11
464.5
 21
725.5
 31
0.0
  0
ARC
  8
0
  6
CONTINUOUS
 62
     1
 10
1381.0
 20
576.0
 30
0.0
 40
6.0
 50
180.0
 51
270.0
  0
ARC
  8
0
  6
CONTINUOUS
 62
     1
 10
1523.0
 20
576.0
 30
0.0
 40
6.0
 50
270.0
 51
0.0
  0
LINE
  8
0
  6
CONTINUOUS
 62
     1
 10
1532.0
 20
626.5
 30
0.0
 11
1532.0
 21
668.5
 31
0.0
  0
ARC
  8
0
  6
CONTINUOUS
 62
     1
 10
1404.0
 20
585.0
 30
0.0
 40
3.0
 50
90.0
 51
180.0
  0
LINE
  8
0
  6
CONTINUOUS
 62
     1
 10
1401.0
 20
538.5
 30
0.0
 11
1401.0
 21
585.0
 31
0.0
  0
ARC
  8
0
  6
CONTINUOUS
 62
     1
 10
1402.0
 20
538.5
 30
0.0
 40
1.0
 50
180.0
 51
270.0
  0
ARC
  8
0
  6
CONTINUOUS
 62
     1
 10
1405.0
 20
537.5
 30
0.0
 40
1.0
 50
180.0
 51
270.0
  0
ARC
  8
0
  6
CONTINUOUS
 62
     1
 10
1500.0
 20
585.0
 30
0.0
 40
3.0
 50
0.0
 51
90.0
  0
LINE
  8
0
  6
CONTINUOUS
 62
     1
 10
1503.0
 20
538.5
 30
0.0
 11
1503.0
 21
585.0
 31
0.0
  0
ARC
  8
0
  6
CONTINUOUS
 62
     1
 10
1502.0
 20
538.5
 30
0.0
 40
1.0
 50
270.0
 51
0.0
  0
ARC
  8
0
  6
CONTINUOUS
 62
     1
 10
1499.0
 20
537.5
 30
0.0
 40
1.0
 50
270.0
 51
0.0
  0
LINE
  8
0
  6
CONTINUOUS
 62
     1
 10
1503.0
 20
543.5
 30
0.0
 11
1401.0
 21
543.5
 31
0.0
  0
LINE
  8
0
  6
CONTINUOUS
 62
     1
 10
1503.0
 20
545.0
 30
0.0
 11
1401.0
 21
545.0
 31
0.0
  0
LINE
  8
0
  6
CONTINUOUS
 62
     1
 10
1404.0
 20
588.0
 30
0.0
 11
1500.0
 21
588.0
 31
0.0
  0
LINE
  8
0
  6
CONTINUOUS
 62
     1
 10
1499.0
 20
536.5
 30
0.0
 11
1405.0
 21
536.5
 31
0.0
  0
LINE
  8
0
  6
CONTINUOUS
 62
     1
 10
1502.0
 20
537.5
 30
0.0
 11
1402.0
 21
537.5
 31
0.0
  0
LINE
  8
0
  6
CONTINUOUS
 62
     1
 10
1407.0
 20
589.5
 30
0.0
 11
1497.0
 21
589.5
 31
0.0
  0
ARC
  8
0
  6
CONTINUOUS
 62
     1
 10
1398.0
 20
701.5
 30
0.0
 40
5.0
 50
90.0
 51
180.0
  0
ARC
  8
0
  6
CONTINUOUS
 62
     1
 10
1506.0
 20
701.5
 30
0.0
 40
5.0
 50
0.0
 51
90.0
  0
CIRCLE
  8
0
  6
CONTINUOUS
 62
     1
 10
1499.0
 20
694.5
 30
0.0
 40
9.0
  0
ARC
  8
0
  6
CONTINUOUS
 62
     1
 10
1506.0
 20
593.5
 30
0.0
 40
5.0
 50
270.0
 51
360.0
  0
ARC
  8
0
  6
CONTINUOUS
 62
     1
 10
1398.0
 20
593.5
 30
0.0
 40
5.0
 50
180.0
 51
270.0
  0
LINE
  8
0
  6
CONTINUOUS
 62
     1
 10
1511.0
 20
671.025046491
 30
0.0
 11
1511.0
 21
701.5
 31
0.0
  0
LINE
  8
0
  6
CONTINUOUS
 62
     1
 10
1511.0
 20
623.974953509
 30
0.0
 11
1511.0
 21
593.5
 31
0.0
  0
LINE
  8
0
  6
CONTINUOUS
 62
     1
 10
1497.0
 20
588.5
 30
0.0
 11
1506.0
 21
588.5
 31
0.0
  0
LINE
  8
0
  6
CONTINUOUS
 62
     1
 10
1407.0
 20
588.5
 30
0.0
 11
1398.0
 21
588.5
 31
0.0
  0
ARC
  8
0
  6
CONTINUOUS
 62
     1
 10
1405.0
 20
600.5
 30
0.0
 40
9.0
 50
77.327684064
 51
282.116861929
  0
ARC
  8
0
  6
CONTINUOUS
 62
     1
 10
1499.0
 20
600.5
 30
0.0
 40
9.0
 50
257.883138071
 51
102.672315936
  0
LINE
  8
0
  6
CONTINUOUS
 62
     1
 10
1479.5
 20
672.5
 30
0.0
 11
1464.5
 21
672.5
 31
0.0
  0
LINE
  8
0
  6
CONTINUOUS
 62
     1
 10
1484.0
 20
625.5
 30
0.0
 11
1484.0
 21
669.5
 31
0.0
  0
LINE
  8
0
  6
CONTINUOUS
 62
     1
 10
1490.0
 20
635.0
 30
0.0
 11
1490.0
 21
660.0
 31
0.0
  0
LINE
  8
0
  6
CONTINUOUS
 62
     1
 10
1490.0
 20
660.0
 30
0.0
 11
1484.0
 21
660.0
 31
0.0
  0
LINE
  8
0
  6
CONTINUOUS
 62
     1
 10
1490.0
 20
635.0
 30
0.0
 11
1484.0
 21
635.0
 31
0.0
  0
LINE
  8
0
  6
CONTINUOUS
 62
     1
 10
1484.0
 20
669.5
 30
0.0
 11
1479.5
 21
669.5
 31
0.0
  0
LINE
  8
0
  6
CONTINUOUS
 62
     1
 10
1484.0
 20
625.5
 30
0.0
 11
1479.5
 21
625.5
 31
0.0
  0
CIRCLE
  8
0
  6
CONTINUOUS
 62
     1
 10
1486.0
 20
647.5
 30
0.0
 40
2.0
  0
LINE
  8
0
  6
CONTINUOUS
 62
     1
 10
1420.0
 20
625.5
 30
0.0
 11
1420.0
 21
669.5
 31
0.0
  0
LINE
  8
0
  6
CONTINUOUS
 62
     1
 10
1414.0
 20
635.0
 30
0.0
 11
1414.0
 21
660.0
 31
0.0
  0
LINE
  8
0
  6
CONTINUOUS
 62
     1
 10
1414.0
 20
660.0
 30
0.0
 11
1420.0
 21
660.0
 31
0.0
  0
LINE
  8
0
  6
CONTINUOUS
 62
     1
 10
1414.0
 20
635.0
 30
0.0
 11
1420.0
 21
635.0
 31
0.0
  0
LINE
  8
0
  6
CONTINUOUS
 62
     1
 10
1420.0
 20
669.5
 30
0.0
 11
1424.5
 21
669.5
 31
0.0
  0
LINE
  8
0
  6
CONTINUOUS
 62
     1
 10
1420.0
 20
625.5
 30
0.0
 11
1424.5
 21
625.5
 31
0.0
  0
CIRCLE
  8
0
  6
CONTINUOUS
 62
     1
 10
1418.0
 20
647.5
 30
0.0
 40
2.0
  0
LINE
  8
0
  6
CONTINUOUS
 62
     1
 10
1464.5
 20
635.0
 30
0.0
 11
1439.5
 21
635.0
 31
0.0
  0
LINE
  8
0
  6
CONTINUOUS
 62
     1
 10
1464.5
 20
660.0
 30
0.0
 11
1439.5
 21
660.0
 31
0.0
  0
LINE
  8
0
  6
CONTINUOUS
 62
     1
 10
1439.5
 20
635.0
 30
0.0
 11
1464.5
 21
635.0
 31
0.0
  0
LINE
  8
0
  6
CONTINUOUS
 62
     1
 10
1439.5
 20
660.0
 30
0.0
 11
1464.5
 21
660.0
 31
0.0
  0
LINE
  8
0
  6
CONTINUOUS
 62
     1
 10
1424.5
 20
672.5
 30
0.0
 11
1464.5
 21
672.5
 31
0.0
  0
LINE
  8
0
  6
CONTINUOUS
 62
     1
 10
1479.5
 20
622.5
 30
0.0
 11
1479.5
 21
672.5
 31
0.0
  0
LINE
  8
0
  6
CONTINUOUS
 62
     1
 10
1424.5
 20
622.5
 30
0.0
 11
1479.5
 21
622.5
 31
0.0
  0
LINE
  8
0
  6
CONTINUOUS
 62
     1
 10
1464.5
 20
622.5
 30
0.0
 11
1464.5
 21
672.5
 31
0.0
  0
LINE
  8
0
  6
CONTINUOUS
 62
     1
 10
1439.5
 20
622.5
 30
0.0
 11
1439.5
 21
672.5
 31
0.0
  0
LINE
  8
0
  6
CONTINUOUS
 62
     1
 10
1424.5
 20
622.5
 30
0.0
 11
1424.5
 21
672.5
 31
0.0
  0
LINE
  8
0
  6
CONTINUOUS
 62
     1
 10
1503.0
 20
570.0
 30
0.0
 11
1523.0
 21
570.0
 31
0.0
  0
LINE
  8
0
  6
CONTINUOUS
 62
     1
 10
1381.0
 20
570.0
 30
0.0
 11
1401.0
 21
570.0
 31
0.0
  0
LINE
  8
0
  6
CONTINUOUS
 62
     1
 10
1529.0
 20
576.0
 30
0.0
 11
1529.0
 21
626.139279073
 31
0.0
  0
LINE
  8
0
  6
CONTINUOUS
 62
     1
 10
1375.0
 20
576.0
 30
0.0
 11
1375.0
 21
626.139279073
 31
0.0
  0
LINE
  8
0
  6
LTYPE1
 62
     2
 10
1397.0
 20
637.5
 30
0.0
 11
1397.0
 21
657.5
 31
0.0
  0
LINE
  8
0
  6
LTYPE1
 62
     2
 10
1397.0
 20
657.5
 30
0.0
 11
1372.0
 21
657.5
 31
0.0
  0
LINE
  8
0
  6
LTYPE1
 62
     2
 10
1397.0
 20
637.5
 30
0.0
 11
1372.0
 21
637.5
 31
0.0
  0
LINE
  8
0
  6
LTYPE1
 62
     2
 10
1507.0
 20
637.5
 30
0.0
 11
1507.0
 21
657.5
 31
0.0
  0
LINE
  8
0
  6
LTYPE1
 62
     2
 10
1507.0
 20
657.5
 30
0.0
 11
1532.0
 21
657.5
 31
0.0
  0
LINE
  8
0
  6
LTYPE1
 62
     2
 10
1507.0
 20
637.5
 30
0.0
 11
1532.0
 21
637.5
 31
0.0
  0
LINE
  8
0
  6
LTYPE2
 62
     2
 10
1497.0
 20
532.8
 30
0.0
 11
1497.0
 21
551.5
 31
0.0
  0
LINE
  8
0
  6
LTYPE2
 62
     2
 10
1407.0
 20
532.8
 30
0.0
 11
1407.0
 21
551.5
 31
0.0
  0
LINE
  8
0
  6
LTYPE2
 62
     2
 10
1417.4
 20
694.5
 30
0.0
 11
1393.6
 21
694.5
 31
0.0
  0
LINE
  8
0
  6
LTYPE2
 62
     2
 10
1405.0
 20
683.165527109
 30
0.0
 11
1405.0
 21
705.265527109
 31
0.0
  0
LINE
  8
0
  6
LTYPE2
 62
     2
 10
1486.6
 20
694.5
 30
0.0
 11
1510.4
 21
694.5
 31
0.0
  0
LINE
  8
0
  6
LTYPE2
 62
     2
 10
1499.0
 20
683.165527109
 30
0.0
 11
1499.0
 21
705.265527109
 31
0.0
  0
LINE
  8
0
  6
LTYPE2
 62
     2
 10
1486.6
 20
600.5
 30
0.0
 11
1510.4
 21
600.5
 31
0.0
  0
LINE
  8
0
  6
LTYPE2
 62
     2
 10
1417.4
 20
600.5
 30
0.0
 11
1393.6
 21
600.5
 31
0.0
  0
LINE
  8
0
  6
LTYPE2
 62
     2
 10
1405.0
 20
590.65
 30
0.0
 11
1405.0
 21
613.75
 31
0.0
  0
LINE
  8
0
  6
LTYPE2
 62
     2
 10
1486.6
 20
600.5
 30
0.0
 11
1510.4
 21
600.5
 31
0.0
  0
LINE
  8
0
  6
LTYPE2
 62
     2
 10
1499.0
 20
590.65
 30
0.0
 11
1499.0
 21
613.75
 31
0.0
  0
LINE
  8
0
  6
LTYPE4
 62
     2
 10
1485.9
 20
643.5
 30
0.0
 11
1485.9
 21
651.7
 31
0.0
  0
LINE
  8
0
  6
LTYPE1
 62
     2
 10
1484.0
 20
660.0
 30
0.0
 11
1464.5
 21
660.0
 31
0.0
  0
LINE
  8
0
  6
LTYPE1
 62
     2
 10
1484.0
 20
635.0
 30
0.0
 11
1464.5
 21
635.0
 31
0.0
  0
LINE
  8
0
  6
LTYPE4
 62
     2
 10
1418.1
 20
643.5
 30
0.0
 11
1418.1
 21
651.7
 31
0.0
  0
LINE
  8
0
  6
LTYPE1
 62
     2
 10
1420.0
 20
660.0
 30
0.0
 11
1439.5
 21
660.0
 31
0.0
  0
LINE
  8
0
  6
LTYPE1
 62
     2
 10
1420.0
 20
635.0
 30
0.0
 11
1439.5
 21
635.0
 31
0.0
  0
LINE
  8
0
  6
CONTINUOUS
 62
     2
 10
1506.5
 20
536.5
 30
0.0
 11
1608.372218677
 21
536.5
 31
0.0
  0
LINE
  8
0
  6
CONTINUOUS
 62
     2
 10
1375.0
 20
568.5
 30
0.0
 11
1375.0
 21
480.8
 31
0.0
  0
LINE
  8
0
  6
CONTINUOUS
 62
     2
 10
1375.0
 20
488.3
 30
0.0
 11
1387.074072829
 21
485.064761936
 31
0.0
  0
LINE
  8
0
  6
CONTINUOUS
 62
     2
 10
1375.0
 20
488.3
 30
0.0
 11
1387.074072829
 21
491.535238064
 31
0.0
  0
LINE
  8
0
  6
CONTINUOUS
 62
     2
 10
1375.0
 20
488.3
 30
0.0
 11
1529.0
 21
488.3
 31
0.0
  0
LINE
  8
0
  6
CONTINUOUS
 62
     2
 10
1529.0
 20
488.3
 30
0.0
 11
1516.925927171
 21
491.535238064
 31
0.0
  0
LINE
  8
0
  6
CONTINUOUS
 62
     2
 10
1529.0
 20
488.3
 30
0.0
 11
1516.925927171
 21
485.064761936
 31
0.0
  0
LINE
  8
0
  6
CONTINUOUS
 62
     2
 10
1529.0
 20
568.5
 30
0.0
 11
1529.0
 21
480.8
 31
0.0
  0
LINE
  8
0
  6
CONTINUOUS
 62
     2
 10
1372.0
 20
447.8375
 30
0.0
 11
1384.074072829
 21
444.602261936
 31
0.0
  0
LINE
  8
0
  6
CONTINUOUS
 62
     2
 10
1372.0
 20
447.8375
 30
0.0
 11
1384.074072829
 21
451.072738064
 31
0.0
  0
LINE
  8
0
  6
CONTINUOUS
 62
     2
 10
1372.0
 20
447.8375
 30
0.0
 11
1532.0
 21
447.8375
 31
0.0
  0
LINE
  8
0
  6
CONTINUOUS
 62
     2
 10
1532.0
 20
447.8375
 30
0.0
 11
1519.925927171
 21
451.072738064
 31
0.0
  0
LINE
  8
0
  6
CONTINUOUS
 62
     2
 10
1532.0
 20
447.8375
 30
0.0
 11
1519.925927171
 21
444.602261936
 31
0.0
  0
LINE
  8
0
  6
CONTINUOUS
 62
     2
 10
1532.0
 20
619.0
 30
0.0
 11
1532.0
 21
440.3375
 31
0.0
  0
CIRCLE
  8
0
  6
CONTINUOUS
 62
     2
 10
1452.0
 20
562.0
 30
0.0
 40
10.4775
  0
CIRCLE
  8
0
  6
CONTINUOUS
 62
     2
 10
1452.0
 20
562.0
 30
0.0
 40
9.3155
  0
LINE
  8
0
  6
LTYPE3
 62
     2
 10
1471.9
 20
562.0
 30
0.0
 11
1431.2
 21
562.0
 31
0.0
  0
LINE
  8
0
  6
CONTINUOUS
 62
     1
 10
1393.0
 20
694.6
 30
0.0
 11
1393.0
 21
701.5
 31
0.0
  0
ARC
  8
0
  6
CONTINUOUS
 62
     1
 10
1405.0
 20
694.5
 30
0.0
 40
9.0
 50
0.0
 51
4.497151615
  0
ARC
  8
0
  6
CONTINUOUS
 62
     1
 10
1452.0
 20
647.5
 30
0.0
 40
55.0
 50
46.933927913
 51
47.005647371
  0
LINE
  8
0
  6
CONTINUOUS
 62
     1
 10
1497.0
 20
588.0
 30
0.0
 11
1497.0
 21
615.877223398
 31
0.0
  0
LINE
  8
0
  6
CONTINUOUS
 62
     1
 10
1532.0
 20
626.5
 30
0.0
 11
1501.0
 21
622.772550418
 31
0.0
  0
LINE
  8
0
  6
CONTINUOUS
 62
     1
 10
1393.0
 20
617.777223398
 30
0.0
 11
1393.0
 21
593.5
 31
0.0
  0
LINE
  8
0
  6
CONTINUOUS
 62
     1
 10
1407.0
 20
588.0
 30
0.0
 11
1407.0
 21
612.377223398
 31
0.0
  0
LINE
  8
0
  6
CONTINUOUS
 62
     2
 10
1578.5
 20
647.5
 30
0.0
 11
1623.372218677
 21
647.5
 31
0.0
  0
LINE
  8
0
  6
CONTINUOUS
 62
     2
 10
1615.872218677
 20
647.5
 30
0.0
 11
1612.636980613
 21
635.425927171
 31
0.0
  0
LINE
  8
0
  6
CONTINUOUS
 62
     2
 10
1615.872218677
 20
536.5
 30
0.0
 11
1612.636980613
 21
548.574072829
 31
0.0
  0
LINE
  8
0
  6
CONTINUOUS
 62
     2
 10
1615.872218677
 20
647.5
 30
0.0
 11
1612.636980613
 21
659.574072829
 31
0.0
  0
LINE
  8
0
  6
CONTINUOUS
 62
     2
 10
1539.5
 20
657.5
 30
0.0
 11
1586.0
 21
657.5
 31
0.0
  0
LINE
  8
0
  6
CONTINUOUS
 62
     2
 10
1578.5
 20
657.5
 30
0.0
 11
1581.735238064
 21
669.574072829
 31
0.0
  0
LINE
  8
0
  6
CONTINUOUS
 62
     2
 10
1578.5
 20
657.5
 30
0.0
 11
1575.264761936
 21
669.574072829
 31
0.0
  0
LINE
  8
0
  6
CONTINUOUS
 62
     2
 10
1578.5
 20
637.5
 30
0.0
 11
1575.264761936
 21
625.425927171
 31
0.0
  0
LINE
  8
0
  6
CONTINUOUS
 62
     2
 10
1578.5
 20
637.5
 30
0.0
 11
1581.735238064
 21
625.425927171
 31
0.0
  0
LINE
  8
0
  6
CONTINUOUS
 62
     2
 10
1539.5
 20
637.5
 30
0.0
 11
1586.0
 21
637.5
 31
0.0
  0
ARC
  8
0
  6
CONTINUOUS
 62
     1
 10
1452.0
 20
647.5
 30
0.0
 40
55.0
 50
44.926070003
 51
117.826662939
  0
LINE
  8
0
  6
LTYPE2
 62
     2
 10
1446.4
 20
782.5
 30
0.0
 11
1458.4
 21
782.5
 31
0.0
  0
LINE
  8
0
  6
CONTINUOUS
 62
     1
 10
1427.020008006
 20
706.5
 30
0.0
 11
1398.0
 21
706.5
 31
0.0
  0
LINE
  8
0
  6
CONTINUOUS
 62
     2
 10
1615.872218677
 20
782.5
 30
0.0
 11
1612.636980613
 21
770.425927171
 31
0.0
  0
LINE
  8
0
  6
CONTINUOUS
 62
     2
 10
1595.0
 20
782.5
 30
0.0
 11
1623.372218677
 21
782.5
 31
0.0
  0
LINE
  8
0
  6
LTYPE4
 62
     2
 10
1583.872218677
 20
782.5
 30
0.0
 11
1617.0
 21
782.5
 31
0.0
  0
LINE
  8
0
  6
CONTINUOUS
 62
     1
 10
1372.0
 20
626.5
 30
0.0
 11
1372.0
 21
668.5
 31
0.0
  0
LINE
  8
0
  6
CONTINUOUS
 62
     1
 10
1375.0
 20
669.5
 30
0.0
 11
1375.0
 21
760.797465586
 31
0.0
  0
LINE
  8
0
  6
CONTINUOUS
 62
     2
 10
1372.0
 20
623.5
 30
0.0
 11
1372.0
 21
440.3375
 31
0.0
  0
LINE
  8
0
  6
CONTINUOUS
 62
     1
 10
1393.0
 20
671.025046491
 30
0.0
 11
1393.0
 21
694.6
 31
0.0
  0
ARC
  8
0
  6
CONTINUOUS
 62
     1
 10
1452.0
 20
647.5
 30
0.0
 40
55.0
 50
117.826662939
 51
294.694833081
  0
LINE
  8
0
  6
CONTINUOUS
 62
     1
 10
1372.0
 20
668.5
 30
0.0
 11
1402.863835437
 21
672.211077113
 31
0.0
  0
LINE
  8
0
  6
CONTINUOUS
 62
     1
 10
1372.0
 20
626.5
 30
0.0
 11
1402.863835437
 21
622.788922887
 31
0.0
  0
LINE
  8
0
  6
CONTINUOUS
 62
     1
 10
1532.0
 20
668.5
 30
0.0
 11
1501.136164563
 21
672.211077113
 31
0.0
  0
ARC
  8
0
  6
CONTINUOUS
 62
     1
 10
1452.0
 20
647.5
 30
0.0
 40
55.0
 50
294.694833081
 51
44.926070003
  0
CIRCLE
  8
0
  6
CONTINUOUS
 62
     1
 10
1405.000030518
 20
694.5
 30
0.0
 40
9.0
  0
LINE
  8
0
  6
CONTINUOUS
 62
     1
 10
1529.0
 20
668.860720927
 30
0.0
 11
1529.0
 21
804.202534414
 31
0.0
  0
LINE
  8
0
  6
CONTINUOUS
 62
     1
 10
1375.0
 20
699.3
 30
0.0
 11
1375.0
 21
804.202534414
 31
0.0
  0
LINE
  8
0
  6
CONTINUOUS
 62
     1
 10
1419.0
 20
706.5
 30
0.0
 11
1506.0
 21
706.5
 31
0.0
  0
ARC
  8
0
  6
CONTINUOUS
 62
     1
 10
1508.0
 20
838.5
 30
0.0
 40
5.0
 50
0.0
 51
90.0
  0
ARC
  8
0
  6
CONTINUOUS
 62
     1
 10
1396.0
 20
838.5
 30
0.0
 40
5.0
 50
90.0
 51
180.0
  0
LINE
  8
0
  6
CONTINUOUS
 62
     1
 10
1391.0
 20
726.5
 30
0.0
 11
1391.0
 21
838.5
 31
0.0
  0
ARC
  8
0
  6
CONTINUOUS
 62
     1
 10
1396.0
 20
726.5
 30
0.0
 40
5.0
 50
180.0
 51
270.0
  0
LINE
  8
0
  6
CONTINUOUS
 62
     1
 10
1513.0
 20
726.5
 30
0.0
 11
1513.0
 21
838.5
 31
0.0
  0
LINE
  8
0
  6
CONTINUOUS
 62
     1
 10
1396.0
 20
721.5
 30
0.0
 11
1508.0
 21
721.5
 31
0.0
  0
ARC
  8
0
  6
CONTINUOUS
 62
     1
 10
1508.0
 20
726.5
 30
0.0
 40
5.0
 50
270.0
 51
0.0
  0
CIRCLE
  8
0
  6
CONTINUOUS
 62
     1
 10
1452.0
 20
782.5
 30
0.0
 40
57.0
  0
CIRCLE
  8
0
  6
CONTINUOUS
 62
     1
 10
1452.0
 20
782.5
 30
0.0
 40
42.0
  0
CIRCLE
  8
0
  6
CONTINUOUS
 62
     1
 10
1452.0
 20
782.5
 30
0.0
 40
36.5
  0
CIRCLE
  8
0
  6
CONTINUOUS
 62
     1
 10
1452.0
 20
782.5
 30
0.0
 40
15.5
  0
LINE
  8
0
  6
CONTINUOUS
 62
     1
 10
1456.952830189
 20
799.284500979
 30
0.0
 11
1481.330188679
 21
792.091143417
 31
0.0
  0
LINE
  8
0
  6
CONTINUOUS
 62
     1
 10
1456.952830189
 20
765.715499021
 30
0.0
 11
1481.330188679
 21
772.908856583
 31
0.0
  0
ARC
  8
0
  6
CONTINUOUS
 62
     1
 10
1478.5
 20
782.5
 30
0.0
 40
10.0
 50
0.0
 51
150.0
  0
ARC
  8
0
  6
CONTINUOUS
 62
     1
 10
1478.5
 20
782.5
 30
0.0
 40
10.0
 50
210.0
 51
0.0
  0
LINE
  8
0
  6
CONTINUOUS
 62
     1
 10
1466.671400751
 20
777.5
 30
0.0
 11
1469.839745962
 21
777.5
 31
0.0
  0
LINE
  8
0
  6
CONTINUOUS
 62
     1
 10
1466.671400751
 20
787.5
 30
0.0
 11
1469.839745962
 21
787.5
 31
0.0
  0
ARC
  8
0
  6
LTYPE3
 62
     2
 10
1452.0
 20
782.5
 30
0.0
 40
26.5
 50
345.963756532
 51
14.715071651
  0
LINE
  8
0
  6
CONTINUOUS
 62
     1
 10
1447.047169811
 20
799.284500979
 30
0.0
 11
1422.669811321
 21
792.091143417
 31
0.0
  0
LINE
  8
0
  6
CONTINUOUS
 62
     1
 10
1447.047169811
 20
765.715499021
 30
0.0
 11
1422.669811321
 21
772.908856583
 31
0.0
  0
ARC
  8
0
  6
CONTINUOUS
 62
     1
 10
1425.5
 20
782.5
 30
0.0
 40
10.0
 50
30.0
 51
180.0
  0
ARC
  8
0
  6
CONTINUOUS
 62
     1
 10
1425.5
 20
782.5
 30
0.0
 40
10.0
 50
180.0
 51
330.0
  0
LINE
  8
0
  6
CONTINUOUS
 62
     1
 10
1437.328599249
 20
777.5
 30
0.0
 11
1434.160254038
 21
777.5
 31
0.0
  0
LINE
  8
0
  6
CONTINUOUS
 62
     1
 10
1437.328599249
 20
787.5
 30
0.0
 11
1434.160254038
 21
787.5
 31
0.0
  0
ARC
  8
0
  6
LTYPE3
 62
     2
 10
1452.0
 20
782.5
 30
0.0
 40
26.5
 50
165.284928349
 51
194.036243468
  0
ARC
  8
0
  6
CONTINUOUS
 62
     1
 10
1452.0
 20
782.5
 30
0.0
 40
17.5
 50
16.601549599
 51
163.398450401
  0
ARC
  8
0
  6
CONTINUOUS
 62
     1
 10
1452.0
 20
782.5
 30
0.0
 40
17.5
 50
196.601549599
 51
343.398450401
  0
ARC
  8
0
  6
LTYPE3
 62
     2
 10
1452.0
 20
782.5
 30
0.0
 40
51.0
 50
34.902495616
 51
52.696051722
  0
LINE
  8
0
  6
LTYPE3
 62
     2
 10
1484.0
 20
814.5
 30
0.0
 11
1493.0
 21
823.5
 31
0.0
  0
ARC
  8
0
  6
LTYPE3
 62
     2
 10
1452.0
 20
782.5
 30
0.0
 40
25.0
 50
63.434948823
 51
114.623564786
  0
ARC
  8
0
  6
LTYPE3
 62
     2
 10
1452.0
 20
782.5
 30
0.0
 40
25.0
 50
245.376435214
 51
296.565051177
  0
ARC
  8
0
  6
LTYPE3
 62
     2
 10
1452.0
 20
782.5
 30
0.0
 40
51.0
 50
124.902495616
 51
142.696051722
  0
LINE
  8
0
  6
LTYPE3
 62
     2
 10
1420.0
 20
814.5
 30
0.0
 11
1411.0
 21
823.5
 31
0.0
  0
ARC
  8
0
  6
LTYPE3
 62
     2
 10
1452.0
 20
782.5
 30
0.0
 40
51.0
 50
307.303948278
 51
325.097504384
  0
LINE
  8
0
  6
LTYPE3
 62
     2
 10
1484.0
 20
750.5
 30
0.0
 11
1493.0
 21
741.5
 31
0.0
  0
ARC
  8
0
  6
LTYPE3
 62
     2
 10
1452.0
 20
782.5
 30
0.0
 40
51.0
 50
217.303948278
 51
235.097504384
  0
LINE
  8
0
  6
LTYPE3
 62
     2
 10
1420.0
 20
750.5
 30
0.0
 11
1411.0
 21
741.5
 31
0.0
  0
LINE
  8
0
  6
LTYPE3
 62
     2
 10
1494.0
 20
833.5
 30
0.0
 11
1511.0
 21
833.5
 31
0.0
  0
LINE
  8
0
  6
LTYPE3
 62
     2
 10
1503.0
 20
841.5
 30
0.0
 11
1503.0
 21
825.0
 31
0.0
  0
LINE
  8
0
  6
LTYPE3
 62
     2
 10
1410.0
 20
833.5
 30
0.0
 11
1393.0
 21
833.5
 31
0.0
  0
LINE
  8
0
  6
LTYPE3
 62
     2
 10
1401.0
 20
841.5
 30
0.0
 11
1401.0
 21
825.0
 31
0.0
  0
LINE
  8
0
  6
LTYPE3
 62
     2
 10
1494.0
 20
731.5
 30
0.0
 11
1511.0
 21
731.5
 31
0.0
  0
LINE
  8
0
  6
LTYPE3
 62
     2
 10
1503.0
 20
723.5
 30
0.0
 11
1503.0
 21
740.0
 31
0.0
  0
LINE
  8
0
  6
LTYPE3
 62
     2
 10
1410.0
 20
731.5
 30
0.0
 11
1393.0
 21
731.5
 31
0.0
  0
LINE
  8
0
  6
LTYPE3
 62
     2
 10
1401.0
 20
723.5
 30
0.0
 11
1401.0
 21
740.0
 31
0.0
  0
LINE
  8
0
  6
CONTINUOUS
 62
     1
 10
1482.0
 20
852.5
 30
0.0
 11
1482.0
 21
855.5
 31
0.0
  0
ARC
  8
0
  6
CONTINUOUS
 62
     1
 10
1478.0
 20
849.5
 30
0.0
 40
3.0
 50
90.0
 51
180.0
  0
LINE
  8
0
  6
CONTINUOUS
 62
     1
 10
1475.0
 20
838.653619242
 30
0.0
 11
1475.0
 21
849.5
 31
0.0
  0
ARC
  8
0
  6
CONTINUOUS
 62
     1
 10
1471.0
 20
838.653619242
 30
0.0
 40
4.0
 50
304.936144888
 51
0.0
  0
ARC
  8
0
  6
CONTINUOUS
 62
     1
 10
1426.0
 20
849.5
 30
0.0
 40
3.0
 50
0.0
 51
90.0
  0
LINE
  8
0
  6
CONTINUOUS
 62
     1
 10
1429.0
 20
838.653619242
 30
0.0
 11
1429.0
 21
849.5
 31
0.0
  0
ARC
  8
0
  6
CONTINUOUS
 62
     1
 10
1433.0
 20
838.653619242
 30
0.0
 40
4.0
 50
180.0
 51
235.063855112
  0
LINE
  8
0
  6
CONTINUOUS
 62
     1
 10
1475.0
 20
843.5
 30
0.0
 11
1508.0
 21
843.5
 31
0.0
  0
LINE
  8
0
  6
CONTINUOUS
 62
     1
 10
1396.0
 20
843.5
 30
0.0
 11
1429.0
 21
843.5
 31
0.0
  0
CIRCLE
  8
0
  6
CONTINUOUS
 62
     1
 10
1452.0
 20
877.5
 30
0.0
 40
17.0
  0
LINE
  8
0
  6
LTYPE3
 62
     2
 10
1429.0
 20
877.5
 30
0.0
 11
1475.0
 21
877.5
 31
0.0
  0
ARC
  8
0
  6
CONTINUOUS
 62
     1
 10
1410.0
 20
899.520045888
 30
0.0
 40
2.0
 50
90.0
 51
180.0
  0
ARC
  8
0
  6
CONTINUOUS
 62
     1
 10
1418.0
 20
905.5
 30
0.0
 40
2.0
 50
90.0
 51
180.0
  0
LINE
  8
0
  6
CONTINUOUS
 62
     1
 10
1418.0
 20
907.5
 30
0.0
 11
1486.0
 21
907.5
 31
0.0
  0
ARC
  8
0
  6
CONTINUOUS
 62
     1
 10
1486.0
 20
905.5
 30
0.0
 40
2.0
 50
0.0
 51
90.0
  0
LINE
  8
0
  6
CONTINUOUS
 62
     1
 10
1494.0
 20
901.520045888
 30
0.0
 11
1410.0
 21
901.520045888
 31
0.0
  0
ARC
  8
0
  6
CONTINUOUS
 62
     1
 10
1494.0
 20
899.520045888
 30
0.0
 40
2.0
 50
0.0
 51
90.0
  0
ARC
  8
0
  6
CONTINUOUS
 62
     1
 10
1410.0
 20
903.520045888
 30
0.0
 40
2.0
 50
90.0
 51
180.0
  0
ARC
  8
0
  6
CONTINUOUS
 62
     1
 10
1418.0
 20
896.5
 30
0.0
 40
2.0
 50
90.0
 51
180.0
  0
LINE
  8
0
  6
CONTINUOUS
 62
     1
 10
1418.0
 20
898.5
 30
0.0
 11
1486.0
 21
898.5
 31
0.0
  0
ARC
  8
0
  6
CONTINUOUS
 62
     1
 10
1486.0
 20
896.5
 30
0.0
 40
2.0
 50
0.0
 51
90.0
  0
LINE
  8
0
  6
CONTINUOUS
 62
     1
 10
1494.0
 20
905.520045888
 30
0.0
 11
1410.0
 21
905.520045888
 31
0.0
  0
ARC
  8
0
  6
CONTINUOUS
 62
     1
 10
1494.0
 20
903.520045888
 30
0.0
 40
2.0
 50
0.0
 51
90.0
  0
LINE
  8
0
  6
CONTINUOUS
 62
     1
 10
1422.0
 20
852.5
 30
0.0
 11
1482.0
 21
852.5
 31
0.0
  0
LINE
  8
0
  6
CONTINUOUS
 62
     1
 10
1422.0
 20
852.5
 30
0.0
 11
1422.0
 21
855.5
 31
0.0
  0
LINE
  8
0
  6
CONTINUOUS
 62
     1
 10
1488.0
 20
857.5
 30
0.0
 11
1494.0
 21
857.5
 31
0.0
  0
LINE
  8
0
  6
CONTINUOUS
 62
     1
 10
1496.0
 20
859.5
 30
0.0
 11
1496.0
 21
903.520045888
 31
0.0
  0
ARC
  8
0
  6
CONTINUOUS
 62
     1
 10
1494.0
 20
859.5
 30
0.0
 40
2.0
 50
270.0
 51
0.0
  0
LINE
  8
0
  6
CONTINUOUS
 62
     1
 10
1488.0
 20
857.5
 30
0.0
 11
1488.0
 21
896.5
 31
0.0
  0
ARC
  8
0
  6
CONTINUOUS
 62
     1
 10
1486.0
 20
857.5
 30
0.0
 40
2.0
 50
270.0
 51
0.0
  0
LINE
  8
0
  6
CONTINUOUS
 62
     1
 10
1416.0
 20
857.5
 30
0.0
 11
1416.0
 21
896.5
 31
0.0
  0
LINE
  8
0
  6
CONTINUOUS
 62
     1
 10
1418.0
 20
855.5
 30
0.0
 11
1486.0
 21
855.5
 31
0.0
  0
ARC
  8
0
  6
CONTINUOUS
 62
     1
 10
1418.0
 20
857.5
 30
0.0
 40
2.0
 50
180.0
 51
270.0
  0
LINE
  8
0
  6
CONTINUOUS
 62
     1
 10
1416.0
 20
857.5
 30
0.0
 11
1410.0
 21
857.5
 31
0.0
  0
LINE
  8
0
  6
CONTINUOUS
 62
     1
 10
1408.0
 20
859.5
 30
0.0
 11
1408.0
 21
903.520045888
 31
0.0
  0
ARC
  8
0
  6
CONTINUOUS
 62
     1
 10
1410.0
 20
859.5
 30
0.0
 40
2.0
 50
180.0
 51
270.0
  0
CIRCLE
  8
0
  6
CONTINUOUS
 62
     2
 10
1452.0
 20
877.5
 30
0.0
 40
15.0
  0
CIRCLE
  8
0
  6
CONTINUOUS
 62
     6
 10
1452.0
 20
807.5
 30
0.0
 40
3.999998
  0
LINE
  8
0
  6
CONTINUOUS
 62
     6
 10
1455.999998
 20
809.8058812
 30
0.0
 11
1455.999998
 21
805.1941188
 31
0.0
  0
LINE
  8
0
  6
CONTINUOUS
 62
     6
 10
1455.999998
 20
805.1941188
 30
0.0
 11
1452.0
 21
802.8882376
 31
0.0
  0
LINE
  8
0
  6
CONTINUOUS
 62
     6
 10
1448.000002
 20
809.8058812
 30
0.0
 11
1448.000002
 21
805.1941188
 31
0.0
  0
LINE
  8
0
  6
CONTINUOUS
 62
     6
 10
1448.000002
 20
805.1941188
 30
0.0
 11
1452.0
 21
802.8882376
 31
0.0
  0
LINE
  8
0
  6
CONTINUOUS
 62
     6
 10
1455.999998
 20
809.8058812
 30
0.0
 11
1452.0
 21
812.1117624
 31
0.0
  0
LINE
  8
0
  6
CONTINUOUS
 62
     6
 10
1448.000002
 20
809.8058812
 30
0.0
 11
1452.0
 21
812.1117624
 31
0.0
  0
CIRCLE
  8
0
  6
CONTINUOUS
 62
     6
 10
1452.0
 20
757.5
 30
0.0
 40
3.999998
  0
LINE
  8
0
  6
CONTINUOUS
 62
     6
 10
1455.999998
 20
755.1941188
 30
0.0
 11
1455.999998
 21
759.8058812
 31
0.0
  0
LINE
  8
0
  6
CONTINUOUS
 62
     6
 10
1455.999998
 20
759.8058812
 30
0.0
 11
1452.0
 21
762.1117624
 31
0.0
  0
LINE
  8
0
  6
CONTINUOUS
 62
     6
 10
1448.000002
 20
755.1941188
 30
0.0
 11
1448.000002
 21
759.8058812
 31
0.0
  0
LINE
  8
0
  6
CONTINUOUS
 62
     6
 10
1448.000002
 20
759.8058812
 30
0.0
 11
1452.0
 21
762.1117624
 31
0.0
  0
LINE
  8
0
  6
CONTINUOUS
 62
     6
 10
1455.999998
 20
755.1941188
 30
0.0
 11
1452.0
 21
752.8882376
 31
0.0
  0
LINE
  8
0
  6
CONTINUOUS
 62
     6
 10
1448.000002
 20
755.1941188
 30
0.0
 11
1452.0
 21
752.8882376
 31
0.0
  0
CIRCLE
  8
0
  6
CONTINUOUS
 62
     6
 10
1425.5
 20
782.5
 30
0.0
 40
3.5
  0
LINE
  8
0
  6
CONTINUOUS
 62
     6
 10
1421.992597115
 20
784.525
 30
0.0
 11
1425.5
 21
786.55
 31
0.0
  0
LINE
  8
0
  6
CONTINUOUS
 62
     6
 10
1425.5
 20
786.55
 30
0.0
 11
1429.007402885
 21
784.525
 31
0.0
  0
LINE
  8
0
  6
CONTINUOUS
 62
     6
 10
1429.007402885
 20
784.525
 30
0.0
 11
1429.007402885
 21
780.475
 31
0.0
  0
LINE
  8
0
  6
CONTINUOUS
 62
     6
 10
1421.992597115
 20
780.475
 30
0.0
 11
1421.992597115
 21
784.525
 31
0.0
  0
LINE
  8
0
  6
CONTINUOUS
 62
     6
 10
1429.007402885
 20
780.475
 30
0.0
 11
1425.5
 21
778.45
 31
0.0
  0
LINE
  8
0
  6
CONTINUOUS
 62
     6
 10
1425.5
 20
778.45
 30
0.0
 11
1421.992597115
 21
780.475
 31
0.0
  0
LINE
  8
0
  6
CONTINUOUS
 62
     6
 10
1394.50005
 20
837.24703
 30
0.0
 11
1394.50005
 21
829.75297
 31
0.0
  0
LINE
  8
0
  6
CONTINUOUS
 62
     6
 10
1407.49995
 20
837.24703
 30
0.0
 11
1407.49995
 21
829.75297
 31
0.0
  0
LINE
  8
0
  6
CONTINUOUS
 62
     6
 10
1394.50005
 20
837.24703
 30
0.0
 11
1401.0
 21
840.99406
 31
0.0
  0
LINE
  8
0
  6
CONTINUOUS
 62
     6
 10
1407.49995
 20
837.24703
 30
0.0
 11
1401.0
 21
840.99406
 31
0.0
  0
LINE
  8
0
  6
CONTINUOUS
 62
     6
 10
1394.50005
 20
829.75297
 30
0.0
 11
1401.0
 21
826.00594
 31
0.0
  0
CIRCLE
  8
0
  6
CONTINUOUS
 62
     6
 10
1478.5
 20
782.5
 30
0.0
 40
3.5
  0
LINE
  8
0
  6
CONTINUOUS
 62
     6
 10
1482.007402885
 20
784.525
 30
0.0
 11
1478.5
 21
786.55
 31
0.0
  0
LINE
  8
0
  6
CONTINUOUS
 62
     6
 10
1478.5
 20
786.55
 30
0.0
 11
1474.992597115
 21
784.525
 31
0.0
  0
LINE
  8
0
  6
CONTINUOUS
 62
     6
 10
1474.992597115
 20
784.525
 30
0.0
 11
1474.992597115
 21
780.475
 31
0.0
  0
LINE
  8
0
  6
CONTINUOUS
 62
     6
 10
1474.992597115
 20
780.475
 30
0.0
 11
1478.5
 21
778.45
 31
0.0
  0
LINE
  8
0
  6
CONTINUOUS
 62
     6
 10
1478.5
 20
778.45
 30
0.0
 11
1482.007402885
 21
780.475
 31
0.0
  0
LINE
  8
0
  6
CONTINUOUS
 62
     6
 10
1482.007402885
 20
780.475
 30
0.0
 11
1482.007402885
 21
784.525
 31
0.0
  0
LINE
  8
0
  6
CONTINUOUS
 62
     6
 10
1484.062447841
 20
744.131672959
 30
0.0
 11
1484.062447841
 21
748.743435359
 31
0.0
  0
LINE
  8
0
  6
CONTINUOUS
 62
     6
 10
1492.062443841
 20
748.743435359
 30
0.0
 11
1488.062445841
 21
751.049316559
 31
0.0
  0
LINE
  8
0
  6
CONTINUOUS
 62
     6
 10
1484.062447841
 20
748.743435359
 30
0.0
 11
1488.062445841
 21
751.049316559
 31
0.0
  0
LINE
  8
0
  6
CONTINUOUS
 62
     6
 10
1492.062443841
 20
744.131672959
 30
0.0
 11
1488.062445841
 21
741.825791759
 31
0.0
  0
LINE
  8
0
  6
CONTINUOUS
 62
     6
 10
1484.062447841
 20
744.131672959
 30
0.0
 11
1488.062445841
 21
741.825791759
 31
0.0
  0
LINE
  8
0
  6
CONTINUOUS
 62
     6
 10
1492.062443841
 20
744.131672959
 30
0.0
 11
1492.062443841
 21
748.743435359
 31
0.0
  0
CIRCLE
  8
0
  6
CONTINUOUS
 62
     6
 10
1488.062445841
 20
746.437554159
 30
0.0
 40
3.999998
  0
CIRCLE
  8
0
  6
CONTINUOUS
 62
     6
 10
1401.0
 20
833.5
 30
0.0
 40
6.49995
  0
LINE
  8
0
  6
CONTINUOUS
 62
     6
 10
1407.49995
 20
829.75297
 30
0.0
 11
1401.0
 21
826.00594
 31
0.0
  0
LINE
  8
0
  6
CONTINUOUS
 62
     6
 10
1413.631672959
 20
822.562443841
 30
0.0
 11
1418.243435359
 21
822.562443841
 31
0.0
  0
LINE
  8
0
  6
CONTINUOUS
 62
     6
 10
1418.243435359
 20
822.562443841
 30
0.0
 11
1420.549316559
 21
818.562445841
 31
0.0
  0
LINE
  8
0
  6
CONTINUOUS
 62
     6
 10
1418.243435359
 20
814.562447841
 30
0.0
 11
1420.549316559
 21
818.562445841
 31
0.0
  0
LINE
  8
0
  6
CONTINUOUS
 62
     6
 10
1413.631672959
 20
822.562443841
 30
0.0
 11
1411.325791759
 21
818.562445841
 31
0.0
  0
LINE
  8
0
  6
CONTINUOUS
 62
     6
 10
1413.631672959
 20
814.562447841
 30
0.0
 11
1411.325791759
 21
818.562445841
 31
0.0
  0
LINE
  8
0
  6
CONTINUOUS
 62
     6
 10
1413.631672959
 20
814.562447841
 30
0.0
 11
1418.243435359
 21
814.562447841
 31
0.0
  0
CIRCLE
  8
0
  6
CONTINUOUS
 62
     6
 10
1415.937554159
 20
818.562445841
 30
0.0
 40
3.999998
  0
LINE
  8
0
  6
CONTINUOUS
 62
     6
 10
1492.062443841
 20
820.868327041
 30
0.0
 11
1488.062445841
 21
823.174208241
 31
0.0
  0
LINE
  8
0
  6
CONTINUOUS
 62
     6
 10
1484.062447841
 20
820.868327041
 30
0.0
 11
1488.062445841
 21
823.174208241
 31
0.0
  0
LINE
  8
0
  6
CONTINUOUS
 62
     6
 10
1492.062443841
 20
820.868327041
 30
0.0
 11
1492.062443841
 21
816.256564641
 31
0.0
  0
LINE
  8
0
  6
CONTINUOUS
 62
     6
 10
1492.062443841
 20
816.256564641
 30
0.0
 11
1488.062445841
 21
813.950683441
 31
0.0
  0
LINE
  8
0
  6
CONTINUOUS
 62
     6
 10
1484.062447841
 20
816.256564641
 30
0.0
 11
1488.062445841
 21
813.950683441
 31
0.0
  0
LINE
  8
0
  6
CONTINUOUS
 62
     6
 10
1484.062447841
 20
820.868327041
 30
0.0
 11
1484.062447841
 21
816.256564641
 31
0.0
  0
CIRCLE
  8
0
  6
CONTINUOUS
 62
     6
 10
1488.062445841
 20
818.562445841
 30
0.0
 40
3.999998
  0
LINE
  8
0
  6
CONTINUOUS
 62
     6
 10
1496.50005
 20
837.24703
 30
0.0
 11
1496.50005
 21
829.75297
 31
0.0
  0
LINE
  8
0
  6
CONTINUOUS
 62
     6
 10
1496.50005
 20
829.75297
 30
0.0
 11
1503.0
 21
826.00594
 31
0.0
  0
LINE
  8
0
  6
CONTINUOUS
 62
     6
 10
1509.49995
 20
837.24703
 30
0.0
 11
1509.49995
 21
829.75297
 31
0.0
  0
LINE
  8
0
  6
CONTINUOUS
 62
     6
 10
1509.49995
 20
837.24703
 30
0.0
 11
1503.0
 21
840.99406
 31
0.0
  0
LINE
  8
0
  6
CONTINUOUS
 62
     6
 10
1496.50005
 20
837.24703
 30
0.0
 11
1503.0
 21
840.99406
 31
0.0
  0
LINE
  8
0
  6
CONTINUOUS
 62
     6
 10
1509.49995
 20
829.75297
 30
0.0
 11
1503.0
 21
826.00594
 31
0.0
  0
CIRCLE
  8
0
  6
CONTINUOUS
 62
     6
 10
1503.0
 20
833.5
 30
0.0
 40
6.49995
  0
LINE
  8
0
  6
CONTINUOUS
 62
     6
 10
1413.631672959
 20
742.437556159
 30
0.0
 11
1418.243435359
 21
742.437556159
 31
0.0
  0
LINE
  8
0
  6
CONTINUOUS
 62
     6
 10
1418.243435359
 20
742.437556159
 30
0.0
 11
1420.549316559
 21
746.437554159
 31
0.0
  0
LINE
  8
0
  6
CONTINUOUS
 62
     6
 10
1418.243435359
 20
750.437552159
 30
0.0
 11
1420.549316559
 21
746.437554159
 31
0.0
  0
LINE
  8
0
  6
CONTINUOUS
 62
     6
 10
1413.631672959
 20
750.437552159
 30
0.0
 11
1418.243435359
 21
750.437552159
 31
0.0
  0
LINE
  8
0
  6
CONTINUOUS
 62
     6
 10
1413.631672959
 20
742.437556159
 30
0.0
 11
1411.325791759
 21
746.437554159
 31
0.0
  0
LINE
  8
0
  6
CONTINUOUS
 62
     6
 10
1413.631672959
 20
750.437552159
 30
0.0
 11
1411.325791759
 21
746.437554159
 31
0.0
  0
CIRCLE
  8
0
  6
CONTINUOUS
 62
     6
 10
1415.937554159
 20
746.437554159
 30
0.0
 40
3.999998
  0
LINE
  8
0
  6
CONTINUOUS
 62
     6
 10
1407.49995
 20
727.75297
 30
0.0
 11
1407.49995
 21
735.24703
 31
0.0
  0
LINE
  8
0
  6
CONTINUOUS
 62
     6
 10
1407.49995
 20
735.24703
 30
0.0
 11
1401.0
 21
738.99406
 31
0.0
  0
LINE
  8
0
  6
CONTINUOUS
 62
     6
 10
1394.50005
 20
727.75297
 30
0.0
 11
1401.0
 21
724.00594
 31
0.0
  0
LINE
  8
0
  6
CONTINUOUS
 62
     6
 10
1407.49995
 20
727.75297
 30
0.0
 11
1401.0
 21
724.00594
 31
0.0
  0
LINE
  8
0
  6
CONTINUOUS
 62
     6
 10
1394.50005
 20
735.24703
 30
0.0
 11
1401.0
 21
738.99406
 31
0.0
  0
LINE
  8
0
  6
CONTINUOUS
 62
     6
 10
1394.50005
 20
727.75297
 30
0.0
 11
1394.50005
 21
735.24703
 31
0.0
  0
CIRCLE
  8
0
  6
CONTINUOUS
 62
     6
 10
1401.0
 20
731.5
 30
0.0
 40
6.49995
  0
LINE
  8
0
  6
CONTINUOUS
 62
     6
 10
1496.50005
 20
727.75297
 30
0.0
 11
1496.50005
 21
735.24703
 31
0.0
  0
LINE
  8
0
  6
CONTINUOUS
 62
     6
 10
1496.50005
 20
727.75297
 30
0.0
 11
1503.0
 21
724.00594
 31
0.0
  0
LINE
  8
0
  6
CONTINUOUS
 62
     6
 10
1509.49995
 20
727.75297
 30
0.0
 11
1509.49995
 21
735.24703
 31
0.0
  0
LINE
  8
0
  6
CONTINUOUS
 62
     6
 10
1509.49995
 20
727.75297
 30
0.0
 11
1503.0
 21
724.00594
 31
0.0
  0
LINE
  8
0
  6
CONTINUOUS
 62
     6
 10
1509.49995
 20
735.24703
 30
0.0
 11
1503.0
 21
738.99406
 31
0.0
  0
LINE
  8
0
  6
CONTINUOUS
 62
     6
 10
1496.50005
 20
735.24703
 30
0.0
 11
1503.0
 21
738.99406
 31
0.0
  0
CIRCLE
  8
0
  6
CONTINUOUS
 62
     6
 10
1503.0
 20
731.5
 30
0.0
 40
6.49995
  0
LINE
  8
0
  6
LTYPE3
 62
     2
 10
1452.0
 20
571.453571429
 30
0.0
 11
1452.0
 21
915.453571429
 31
0.0
  0
LINE
  8
2
  6
CONTINUOUS
 62
     2
 10
1587.0
 20
536.5
 30
0.0
 11
1660.0
 21
536.5
 31
0.0
  0
LINE
  8
2
  6
CONTINUOUS
 62
     2
 10
1491.000015259
 20
907.5
 30
0.0
 11
1660.0
 21
907.5
 31
0.0
  0
LINE
  8
2
  6
CONTINUOUS
 62
     2
 10
1605.872218677
 20
782.5
 30
0.0
 11
1625.872218677
 21
782.5
 31
0.0
  0
LINE
  8
2
  6
CONTINUOUS
 62
     2
 10
1615.872218677
 20
782.5
 30
0.0
 11
1612.636980613
 21
794.574072829
 31
0.0
  0
LINE
  8
2
  6
CONTINUOUS
 62
     2
 10
1615.872218677
 20
907.5
 30
0.0
 11
1612.636980613
 21
895.425927171
 31
0.0
  0
LINE
  8
2
  6
CONTINUOUS
 62
     2
 10
1601.872218677
 20
907.5
 30
0.0
 11
1625.872218677
 21
907.5
 31
0.0
  0
LINE
  8
0
  6
CONTINUOUS
 62
     2
 10
1615.872218677
 20
647.5
 30
0.0
 11
1619.10745674
 21
635.425927171
 31
0.0
  0
LINE
  8
0
  6
CONTINUOUS
 62
     2
 10
1615.872218677
 20
647.5
 30
0.0
 11
1615.872218677
 21
536.5
 31
0.0
  0
LINE
  8
0
  6
CONTINUOUS
 62
     2
 10
1615.872218677
 20
536.5
 30
0.0
 11
1619.10745674
 21
548.574072829
 31
0.0
  0
LINE
  8
0
  6
CONTINUOUS
 62
     2
 10
1615.872218677
 20
647.5
 30
0.0
 11
1619.10745674
 21
659.574072829
 31
0.0
  0
LINE
  8
0
  6
CONTINUOUS
 62
     2
 10
1615.872218677
 20
782.5
 30
0.0
 11
1619.10745674
 21
770.425927171
 31
0.0
  0
LINE
  8
0
  6
CONTINUOUS
 62
     2
 10
1615.872218677
 20
647.5
 30
0.0
 11
1615.872218677
 21
782.5
 31
0.0
  0
LINE
  8
2
  6
CONTINUOUS
 62
     2
 10
1650.0
 20
536.5
 30
0.0
 11
1653.235238064
 21
548.574072829
 31
0.0
  0
LINE
  8
2
  6
CONTINUOUS
 62
     2
 10
1650.0
 20
536.5
 30
0.0
 11
1646.764761936
 21
548.574072829
 31
0.0
  0
LINE
  8
2
  6
CONTINUOUS
 62
     2
 10
1650.0
 20
536.5
 30
0.0
 11
1650.0
 21
907.5
 31
0.0
  0
LINE
  8
2
  6
CONTINUOUS
 62
     2
 10
1650.0
 20
907.5
 30
0.0
 11
1646.764761936
 21
895.425927171
 31
0.0
  0
LINE
  8
2
  6
CONTINUOUS
 62
     2
 10
1650.0
 20
907.5
 30
0.0
 11
1653.235238064
 21
895.425927171
 31
0.0
  0
LINE
  8
2
  6
CONTINUOUS
 62
     2
 10
1615.872218677
 20
782.5
 30
0.0
 11
1619.10745674
 21
794.574072829
 31
0.0
  0
LINE
  8
2
  6
CONTINUOUS
 62
     2
 10
1615.872218677
 20
782.5
 30
0.0
 11
1615.872218677
 21
907.5
 31
0.0
  0
LINE
  8
2
  6
CONTINUOUS
 62
     2
 10
1615.872218677
 20
907.5
 30
0.0
 11
1619.10745674
 21
895.425927171
 31
0.0
  0
LINE
  8
0
  6
CONTINUOUS
 62
     2
 10
1097.0
 20
605.0
 30
0.0
 11
1097.0
 21
433.2
 31
0.0
  0
LINE
  8
0
  6
CONTINUOUS
 62
     1
 10
1097.0
 20
680.5
 30
0.0
 11
1082.0
 21
680.5
 31
0.0
  0
LINE
  8
0
  6
CONTINUOUS
 62
     1
 10
1097.0
 20
614.5
 30
0.0
 11
1097.0
 21
680.5
 31
0.0
  0
LINE
  8
0
  6
CONTINUOUS
 62
     1
 10
1097.0
 20
614.5
 30
0.0
 11
1082.0
 21
614.5
 31
0.0
  0
LINE
  8
0
  6
LTYPE4
 62
     2
 10
1561.0
 20
647.5
 30
0.0
 11
1361.0
 21
647.5
 31
0.0
  0
ARC
  8
0
  6
CONTINUOUS
 62
     1
 10
1452.0
 20
782.5
 30
0.0
 40
80.0
 50
113.527063947
 51
164.259451475
  0
ARC
  8
0
  6
CONTINUOUS
 62
     1
 10
1452.0
 20
782.5
 30
0.0
 40
80.0
 50
15.740548525
 51
66.184328845
  0
TEXT
  8
0
  6
CONTINUOUS
 62
     2
 10
1222.6
 20
632.75
 30
0.0
 40
18.0
  1
５０
 50
90.0
 41
0.9
 51
0.0
  7
KANJI18
  0
TEXT
  8
0
  6
CONTINUOUS
 62
     2
 10
739.5
 20
625.75
 30
0.0
 40
18.0
  1
φ７０
 50
90.0
 41
0.9
 51
0.0
  7
KANJI18
  0
TEXT
  8
0
  6
CONTINUOUS
 62
     2
 10
710.0
 20
517.0
 30
0.0
 40
18.0
  1
ＰＦ１／２
 50
0.0
 41
0.9
 51
0.0
  7
KANJI18
  0
TEXT
  8
0
  6
CONTINUOUS
 62
     2
 10
868.1
 20
788.3
 30
0.0
 40
18.0
  1
給脂口
 50
0.0
 41
0.9
 51
0.0
  7
KANJI18
  0
TEXT
  8
0
  6
CONTINUOUS
 62
     2
 10
1191.0
 20
723.6
 30
0.0
 40
18.0
  1
φ２５Ｈ１０
 50
0.0
 41
0.9
 51
0.0
  7
KANJI18
  0
TEXT
  8
0
  6
CONTINUOUS
 62
     2
 10
1235.5
 20
699.1
 30
0.0
 40
18.0
  1
ｄ９
 50
0.0
 41
0.9
 51
0.0
  7
KANJI18
  0
TEXT
  8
0
  6
CONTINUOUS
 62
     2
 10
398.75
 20
402.3625
 30
0.0
 40
18.0
  1
８６
 50
0.0
 41
0.9
 51
0.0
  7
KANJI18
  0
TEXT
  8
0
  6
CONTINUOUS
 62
     2
 10
471.75
 20
402.3625
 30
0.0
 40
18.0
  1
６０
 50
0.0
 41
0.9
 51
0.0
  7
KANJI18
  0
TEXT
  8
0
  6
CONTINUOUS
 62
     2
 10
794.75
 20
402.3625
 30
0.0
 40
18.0
  1
ｍｉｎ．Ｌ
 50
0.0
 41
0.9
 51
0.0
  7
KANJI18
  0
TEXT
  8
0
  6
CONTINUOUS
 62
     2
 10
714.25
 20
358.0
 30
0.0
 40
18.0
  1
ｍｉｎ．ＡＬ
 50
0.0
 41
0.9
 51
0.0
  7
KANJI18
  0
TEXT
  8
0
  6
CONTINUOUS
 62
     2
 10
1107.75
 20
445.7
 30
0.0
 40
18.0
  1
５０
 50
0.0
 41
0.9
 51
0.0
  7
KANJI18
  0
TEXT
  8
0
  6
CONTINUOUS
 62
     2
 10
772.25
 20
445.7
 30
0.0
 40
18.0
  1
Ｃ
 50
0.0
 41
0.9
 51
0.0
  7
KANJI18
  0
TEXT
  8
0
  6
CONTINUOUS
 62
     2
 10
1026.75
 20
415.7
 30
0.0
 40
18.0
  1
ｍｉｎ．Ｐ
 50
0.0
 41
0.9
 51
0.0
  7
KANJI18
  0
TEXT
  8
0
  6
CONTINUOUS
 62
     2
 10
381.75
 20
1000.9
 30
0.0
 40
18.0
  1
１１３
 50
0.0
 41
0.9
 51
0.0
  7
KANJI18
  0
TEXT
  8
0
  6
CONTINUOUS
 62
     2
 10
254.6
 20
904.1
 30
0.0
 40
18.0
  1
手動軸カバー
 50
0.0
 41
0.9
 51
0.0
  7
KANJI18
  0
TEXT
  8
2
  6
CONTINUOUS
 62
     3
 10
541.5
 20
1000.9
 30
0.0
 40
18.0
  1
２２２
 50
0.0
 41
0.9
 51
0.0
  7
KANJI18
  0
TEXT
  8
0
  6
CONTINUOUS
 62
     2
 10
1430.25
 20
493.3
 30
0.0
 40
18.0
  1
１５４
 50
0.0
 41
0.9
 51
0.0
  7
KANJI18
  0
TEXT
  8
0
  6
CONTINUOUS
 62
     2
 10
1430.25
 20
452.8375
 30
0.0
 40
18.0
  1
１６０
 50
0.0
 41
0.9
 51
0.0
  7
KANJI18
  0
TEXT
  8
0
  6
CONTINUOUS
 62
     2
 10
1610.872218677
 20
570.25
 30
0.0
 40
18.0
  1
１１１
 50
90.0
 41
0.9
 51
0.0
  7
KANJI18
  0
TEXT
  8
0
  6
CONTINUOUS
 62
     2
 10
1573.222218677
 20
663.25
 30
0.0
 40
18.0
  1
φ２０Ｈ１０深さ２５
 50
90.0
 41
0.9
 51
0.0
  7
KANJI18
  0
TEXT
  8
0
  6
CONTINUOUS
 62
     2
 10
1610.872218677
 20
703.75
 30
0.0
 40
18.0
  1
１３５
 50
90.0
 41
0.9
 51
0.0
  7
KANJI18
  0
TEXT
  8
2
  6
CONTINUOUS
 62
     3
 10
1610.872218677
 20
819.5
 30
0.0
 40
18.0
  1
１２５
 50
90.0
 41
0.9
 51
0.0
  7
KANJI18
  0
TEXT
  8
2
  6
CONTINUOUS
 62
     3
 10
1645.0
 20
696.5
 30
0.0
 40
18.0
  1
３７１
 50
90.0
 41
0.9
 51
0.0
  7
KANJI18
  0
LINE
  8
7
  6
CONTINUOUS
 62
     2
 10
604.0
 20
904.5
 30
0.0
 11
672.0
 21
904.5
 31
0.0
  0
LINE
  8
0
  6
LTYPE2
 62
     2
 10
357.0
 20
782.5
 30
0.0
 11
685.0
 21
782.5
 31
0.0
  0
LINE
  8
0
  6
CONTINUOUS
 62
     2
 10
710.0
 20
512.0
 30
0.0
 11
789.0
 21
512.0
 31
0.0
  0
LINE
  8
0
  6
LTYPE2
 62
     2
 10
1380.0
 20
782.5
 30
0.0
 11
1543.0
 21
782.5
 31
0.0
  0
LINE
  8
0
  6
CONTINUOUS
 62
     2
 10
1578.5
 20
822.6
 30
0.0
 11
1578.5
 21
618.75
 31
0.0
  0
TEXT
  8
0
  6
CONTINUOUS
 62
     2
 10
171.4
 20
37.4
 30
0.0
 40
18.0
  1
ＦＤ　Ｎｏ．ＭＣ１９０
 50
0.0
 41
0.9
 51
0.0
  7
KANJI19
  0
TEXT
  8
0
  6
CONTINUOUS
 62
     2
 10
1971.7200334
 20
166.699994
 30
13.0
 40
30.0
  1
３００２４１８
 50
0.0
 41
0.8
 51
0.0
  7
KANJI20
  0
TEXT
  8
0
  6
CONTINUOUS
 62
     2
 10
1856.92
 20
262.7
 30
0.0
 40
21.0
  1
ＭＣＬＢ０５－Ｊ
 50
0.0
 41
0.793650794
 51
0.0
  7
KANJI21
  0
LINE
  8
0
  6
CONTINUOUS
 62
     1
 10
1112.0
 20
840.6
 30
0.0
 11
1172.0
 21
840.6
 31
0.0
  0
LINE
  8
0
  6
CONTINUOUS
 62
     1
 10
1172.0
 20
825.6
 30
0.0
 11
1172.0
 21
840.6
 31
0.0
  0
LINE
  8
0
  6
CONTINUOUS
 62
     1
 10
1097.0
 20
825.6
 30
0.0
 11
1172.0
 21
825.6
 31
0.0
  0
LINE
  8
0
  6
CONTINUOUS
 62
     1
 10
1125.0
 20
821.1
 30
0.0
 11
1169.0
 21
821.1
 31
0.0
  0
LINE
  8
0
  6
CONTINUOUS
 62
     1
 10
1134.5
 20
815.1
 30
0.0
 11
1159.5
 21
815.1
 31
0.0
  0
LINE
  8
0
  6
CONTINUOUS
 62
     1
 10
1159.5
 20
815.1
 30
0.0
 11
1159.5
 21
821.1
 31
0.0
  0
LINE
  8
0
  6
CONTINUOUS
 62
     1
 10
1134.5
 20
815.1
 30
0.0
 11
1134.5
 21
821.1
 31
0.0
  0
LINE
  8
0
  6
CONTINUOUS
 62
     1
 10
1169.0
 20
821.1
 30
0.0
 11
1169.0
 21
825.6
 31
0.0
  0
LINE
  8
0
  6
CONTINUOUS
 62
     1
 10
1125.0
 20
821.1
 30
0.0
 11
1125.0
 21
825.6
 31
0.0
  0
CIRCLE
  8
0
  6
CONTINUOUS
 62
     1
 10
1147.0
 20
819.1
 30
0.0
 40
2.0
  0
LINE
  8
0
  6
LTYPE4
 62
     2
 10
1143.0
 20
819.2
 30
0.0
 11
1151.2
 21
819.2
 31
0.0
  0
LINE
  8
0
  6
LTYPE1
 62
     2
 10
1159.5
 20
821.1
 30
0.0
 11
1159.5
 21
840.6
 31
0.0
  0
LINE
  8
0
  6
LTYPE1
 62
     2
 10
1134.5
 20
821.1
 30
0.0
 11
1134.5
 21
840.6
 31
0.0
  0
LINE
  8
0
  6
CONTINUOUS
 62
     1
 10
1112.0
 20
865.6
 30
0.0
 11
1172.0
 21
865.6
 31
0.0
  0
LINE
  8
0
  6
CONTINUOUS
 62
     1
 10
1172.0
 20
880.6
 30
0.0
 11
1172.0
 21
865.6
 31
0.0
  0
LINE
  8
0
  6
CONTINUOUS
 62
     1
 10
1097.0
 20
880.6
 30
0.0
 11
1172.0
 21
880.6
 31
0.0
  0
LINE
  8
0
  6
CONTINUOUS
 62
     1
 10
1125.0
 20
885.1
 30
0.0
 11
1169.0
 21
885.1
 31
0.0
  0
LINE
  8
0
  6
CONTINUOUS
 62
     1
 10
1134.5
 20
891.1
 30
0.0
 11
1159.5
 21
891.1
 31
0.0
  0
LINE
  8
0
  6
CONTINUOUS
 62
     1
 10
1159.5
 20
891.1
 30
0.0
 11
1159.5
 21
885.1
 31
0.0
  0
LINE
  8
0
  6
CONTINUOUS
 62
     1
 10
1134.5
 20
891.1
 30
0.0
 11
1134.5
 21
885.1
 31
0.0
  0
LINE
  8
0
  6
CONTINUOUS
 62
     1
 10
1169.0
 20
885.1
 30
0.0
 11
1169.0
 21
880.6
 31
0.0
  0
LINE
  8
0
  6
CONTINUOUS
 62
     1
 10
1125.0
 20
885.1
 30
0.0
 11
1125.0
 21
880.6
 31
0.0
  0
CIRCLE
  8
0
  6
CONTINUOUS
 62
     1
 10
1147.0
 20
887.1
 30
0.0
 40
2.0
  0
LINE
  8
0
  6
LTYPE4
 62
     2
 10
1143.0
 20
887.0
 30
0.0
 11
1151.2
 21
887.0
 31
0.0
  0
LINE
  8
0
  6
LTYPE1
 62
     2
 10
1159.5
 20
885.1
 30
0.0
 11
1159.5
 21
865.6
 31
0.0
  0
LINE
  8
0
  6
LTYPE1
 62
     2
 10
1134.5
 20
885.1
 30
0.0
 11
1134.5
 21
865.6
 31
0.0
  0
LINE
  8
0
  6
CONTINUOUS
 62
     1
 10
1112.0
 20
840.6
 30
0.0
 11
1112.0
 21
865.6
 31
0.0
  0
LINE
  8
0
  6
CONTINUOUS
 62
     1
 10
1134.5
 20
840.6
 30
0.0
 11
1134.5
 21
865.6
 31
0.0
  0
LINE
  8
0
  6
CONTINUOUS
 62
     1
 10
1159.5
 20
840.6
 30
0.0
 11
1159.5
 21
865.6
 31
0.0
  0
LINE
  8
0
  6
LTYPE4
 62
     2
 10
1147.0
 20
810.1
 30
0.0
 11
1147.0
 21
891.1
 31
0.0
  0
LINE
  8
0
  6
LTYPE4
 62
     2
 10
1147.0
 20
896.1
 30
0.0
 11
1147.0
 21
815.1
 31
0.0
  0
LINE
  8
0
  6
CONTINUOUS
 62
     1
 10
1134.5
 20
865.6
 30
0.0
 11
1134.5
 21
840.6
 31
0.0
  0
LINE
  8
0
  6
CONTINUOUS
 62
     1
 10
1159.5
 20
865.6
 30
0.0
 11
1159.5
 21
840.6
 31
0.0
  0
LINE
  8
0
  6
CONTINUOUS
 62
     2
 10
1179.5
 20
825.6
 30
0.0
 11
1257.0
 21
825.6
 31
0.0
  0
LINE
  8
0
  6
CONTINUOUS
 62
     2
 10
1249.5
 20
825.6
 30
0.0
 11
1252.735238064
 21
837.674072829
 31
0.0
  0
LINE
  8
0
  6
CONTINUOUS
 62
     2
 10
1249.5
 20
825.6
 30
0.0
 11
1246.264761936
 21
837.674072829
 31
0.0
  0
LINE
  8
0
  6
CONTINUOUS
 62
     2
 10
1249.5
 20
825.6
 30
0.0
 11
1249.5
 21
880.6
 31
0.0
  0
LINE
  8
0
  6
CONTINUOUS
 62
     2
 10
1249.5
 20
880.6
 30
0.0
 11
1246.264761936
 21
868.525927171
 31
0.0
  0
LINE
  8
0
  6
CONTINUOUS
 62
     2
 10
1249.5
 20
880.6
 30
0.0
 11
1252.735238064
 21
868.525927171
 31
0.0
  0
LINE
  8
0
  6
CONTINUOUS
 62
     2
 10
1179.5
 20
880.6
 30
0.0
 11
1257.0
 21
880.6
 31
0.0
  0
LINE
  8
0
  6
CONTINUOUS
 62
     2
 10
1179.5
 20
840.6
 30
0.0
 11
1228.5
 21
840.6
 31
0.0
  0
LINE
  8
0
  6
CONTINUOUS
 62
     2
 10
1221.0
 20
840.6
 30
0.0
 11
1217.764761936
 21
828.525927171
 31
0.0
  0
LINE
  8
0
  6
CONTINUOUS
 62
     2
 10
1221.0
 20
840.6
 30
0.0
 11
1224.235238064
 21
828.525927171
 31
0.0
  0
LINE
  8
0
  6
CONTINUOUS
 62
     2
 10
1221.0
 20
821.85
 30
0.0
 11
1221.0
 21
912.85
 31
0.0
  0
LINE
  8
0
  6
CONTINUOUS
 62
     2
 10
1221.0
 20
865.6
 30
0.0
 11
1224.235238064
 21
877.674072829
 31
0.0
  0
LINE
  8
0
  6
CONTINUOUS
 62
     2
 10
1221.0
 20
865.6
 30
0.0
 11
1217.764761936
 21
877.674072829
 31
0.0
  0
LINE
  8
0
  6
CONTINUOUS
 62
     2
 10
1179.5
 20
865.6
 30
0.0
 11
1228.5
 21
865.6
 31
0.0
  0
LINE
  8
0
  6
LTYPE5
 62
     2
 10
1058.676112865
 20
813.1
 30
0.0
 11
1027.730004728
 21
813.1
 31
0.0
  0
LINE
  8
0
  6
LTYPE5
 62
     2
 10
1064.230005553
 20
798.1
 30
0.0
 11
1027.730004728
 21
798.1
 31
0.0
  0
ARC
  8
0
  6
CONTINUOUS
 62
     1
 10
1075.337790779
 20
799.1
 30
0.0
 40
1.0
 50
270.0
 51
345.0
  0
ARC
  8
0
  6
CONTINUOUS
 62
     1
 10
1075.337789953
 20
799.1
 30
0.0
 40
1.0
 50
195.0
 51
270.0
  0
LINE
  8
0
  6
CONTINUOUS
 62
     1
 10
1070.749823916
 20
812.358819045
 30
0.0
 11
1074.371864126
 21
798.841180955
 31
0.0
  0
ARC
  8
0
  6
CONTINUOUS
 62
     1
 10
1069.78389809
 20
812.1
 30
0.0
 40
1.0
 50
15.0
 51
90.0
  0
ARC
  8
0
  6
CONTINUOUS
 62
     1
 10
1069.783897416
 20
812.1
 30
0.0
 40
1.0
 50
90.0
 51
165.0
  0
LINE
  8
0
  6
CONTINUOUS
 62
     1
 10
1068.81797159
 20
812.358819045
 30
0.0
 11
1065.19593138
 21
798.841180955
 31
0.0
  0
ARC
  8
0
  6
CONTINUOUS
 62
     1
 10
1064.230005553
 20
799.1
 30
0.0
 40
1.0
 50
270.0
 51
345.0
  0
ARC
  8
0
  6
CONTINUOUS
 62
     1
 10
1064.230003902
 20
799.1
 30
0.0
 40
1.0
 50
195.0
 51
270.0
  0
ARC
  8
0
  6
CONTINUOUS
 62
     1
 10
1058.676112865
 20
812.1
 30
0.0
 40
1.0
 50
15.0
 51
90.0
  0
LINE
  8
0
  6
CONTINUOUS
 62
     1
 10
1059.642038691
 20
812.358819045
 30
0.0
 11
1063.264078901
 21
798.841180955
 31
0.0
  0
LINE
  8
0
  6
CONTINUOUS
 62
     1
 10
1082.0
 20
820.1
 30
0.0
 11
1076.303716605
 21
798.841180955
 31
0.0
  0
LINE
  8
0
  6
CONTINUOUS
 62
     1
 10
1094.5
 20
818.1
 30
0.0
 11
1084.5
 21
818.1
 31
0.0
  0
LINE
  8
0
  6
CONTINUOUS
 62
     1
 10
1097.0
 20
820.1
 30
0.0
 11
1082.0
 21
820.1
 31
0.0
  0
LINE
  8
0
  6
CONTINUOUS
 62
     1
 10
1094.5
 20
820.1
 30
0.0
 11
1094.5
 21
818.1
 31
0.0
  0
LINE
  8
0
  6
CONTINUOUS
 62
     1
 10
1084.5
 20
820.1
 30
0.0
 11
1084.5
 21
818.1
 31
0.0
  0
LINE
  8
0
  6
LTYPE5
 62
     2
 10
1058.676112865
 20
893.1
 30
0.0
 11
1027.730004728
 21
893.1
 31
0.0
  0
LINE
  8
0
  6
LTYPE5
 62
     2
 10
1064.230005553
 20
908.1
 30
0.0
 11
1027.730004728
 21
908.1
 31
0.0
  0
ARC
  8
0
  6
CONTINUOUS
 62
     1
 10
1075.337790779
 20
907.1
 30
0.0
 40
1.0
 50
15.0
 51
90.0
  0
ARC
  8
0
  6
CONTINUOUS
 62
     1
 10
1075.337789953
 20
907.1
 30
0.0
 40
1.0
 50
90.0
 51
165.0
  0
LINE
  8
0
  6
CONTINUOUS
 62
     1
 10
1070.749823916
 20
893.841180955
 30
0.0
 11
1074.371864126
 21
907.358819045
 31
0.0
  0
ARC
  8
0
  6
CONTINUOUS
 62
     1
 10
1069.78389809
 20
894.1
 30
0.0
 40
1.0
 50
270.0
 51
345.0
  0
ARC
  8
0
  6
CONTINUOUS
 62
     1
 10
1069.783897416
 20
894.1
 30
0.0
 40
1.0
 50
195.0
 51
270.0
  0
LINE
  8
0
  6
CONTINUOUS
 62
     1
 10
1068.81797159
 20
893.841180955
 30
0.0
 11
1065.19593138
 21
907.358819045
 31
0.0
  0
ARC
  8
0
  6
CONTINUOUS
 62
     1
 10
1064.230005553
 20
907.1
 30
0.0
 40
1.0
 50
15.0
 51
90.0
  0
ARC
  8
0
  6
CONTINUOUS
 62
     1
 10
1064.230003902
 20
907.1
 30
0.0
 40
1.0
 50
90.0
 51
165.0
  0
ARC
  8
0
  6
CONTINUOUS
 62
     1
 10
1058.676112865
 20
894.1
 30
0.0
 40
1.0
 50
270.0
 51
345.0
  0
LINE
  8
0
  6
CONTINUOUS
 62
     1
 10
1059.642038691
 20
893.841180955
 30
0.0
 11
1063.264078901
 21
907.358819045
 31
0.0
  0
LINE
  8
0
  6
CONTINUOUS
 62
     1
 10
1082.0
 20
886.1
 30
0.0
 11
1076.303716605
 21
907.358819045
 31
0.0
  0
LINE
  8
0
  6
CONTINUOUS
 62
     1
 10
1094.5
 20
888.1
 30
0.0
 11
1084.5
 21
888.1
 31
0.0
  0
LINE
  8
0
  6
CONTINUOUS
 62
     1
 10
1097.0
 20
886.1
 30
0.0
 11
1082.0
 21
886.1
 31
0.0
  0
LINE
  8
0
  6
CONTINUOUS
 62
     1
 10
1094.5
 20
886.1
 30
0.0
 11
1094.5
 21
888.1
 31
0.0
  0
LINE
  8
0
  6
CONTINUOUS
 62
     1
 10
1084.5
 20
886.1
 30
0.0
 11
1084.5
 21
888.1
 31
0.0
  0
LINE
  8
0
  6
CONTINUOUS
 62
     1
 10
1097.0
 20
853.1
 30
0.0
 11
1097.0
 21
886.1
 31
0.0
  0
LINE
  8
0
  6
CONTINUOUS
 62
     1
 10
1082.0
 20
853.1
 30
0.0
 11
1082.0
 21
886.1
 31
0.0
  0
LINE
  8
0
  6
CONTINUOUS
 62
     1
 10
1058.676112865
 20
893.1
 30
0.0
 11
1058.676112865
 21
853.1
 31
0.0
  0
LINE
  8
0
  6
CONTINUOUS
 62
     1
 10
1064.230004728
 20
908.1
 30
0.0
 11
1064.230004728
 21
853.1
 31
0.0
  0
LINE
  8
0
  6
CONTINUOUS
 62
     1
 10
1075.337790779
 20
908.1
 30
0.0
 11
1075.337790779
 21
853.1
 31
0.0
  0
LINE
  8
0
  6
CONTINUOUS
 62
     1
 10
1069.78389809
 20
853.1
 30
0.0
 11
1069.78389809
 21
893.1
 31
0.0
  0
LINE
  8
0
  6
LTYPE3
 62
     2
 10
1029.7
 20
853.1
 30
0.0
 11
1192.0
 21
853.1
 31
0.0
  0
LINE
  8
0
  6
CONTINUOUS
 62
     1
 10
1082.0
 20
853.1
 30
0.0
 11
1082.0
 21
820.1
 31
0.0
  0
LINE
  8
0
  6
CONTINUOUS
 62
     1
 10
1058.676112865
 20
813.1
 30
0.0
 11
1058.676112865
 21
853.1
 31
0.0
  0
LINE
  8
0
  6
CONTINUOUS
 62
     1
 10
1064.230004728
 20
798.1
 30
0.0
 11
1064.230004728
 21
853.1
 31
0.0
  0
LINE
  8
0
  6
CONTINUOUS
 62
     1
 10
1075.337790779
 20
798.1
 30
0.0
 11
1075.337790779
 21
853.1
 31
0.0
  0
LINE
  8
0
  6
CONTINUOUS
 62
     1
 10
1069.78389809
 20
853.1
 30
0.0
 11
1069.78389809
 21
813.1
 31
0.0
  0
LINE
  8
0
  6
CONTINUOUS
 62
     2
 10
1020.230004728
 20
908.1
 30
0.0
 11
1007.9
 21
908.1
 31
0.0
  0
LINE
  8
0
  6
CONTINUOUS
 62
     2
 10
1015.4
 20
908.1
 30
0.0
 11
1012.164761936
 21
896.025927171
 31
0.0
  0
LINE
  8
0
  6
CONTINUOUS
 62
     2
 10
1015.4
 20
908.1
 30
0.0
 11
1018.635238064
 21
896.025927171
 31
0.0
  0
LINE
  8
0
  6
CONTINUOUS
 62
     2
 10
1015.4
 20
908.1
 30
0.0
 11
1015.4
 21
798.1
 31
0.0
  0
LINE
  8
0
  6
CONTINUOUS
 62
     2
 10
1015.4
 20
798.1
 30
0.0
 11
1018.635238064
 21
810.174072829
 31
0.0
  0
LINE
  8
0
  6
CONTINUOUS
 62
     2
 10
1015.4
 20
798.1
 30
0.0
 11
1012.164761936
 21
810.174072829
 31
0.0
  0
LINE
  8
0
  6
CONTINUOUS
 62
     2
 10
1020.230004728
 20
798.1
 30
0.0
 11
1007.9
 21
798.1
 31
0.0
  0
LINE
  8
0
  6
CONTINUOUS
 62
     1
 10
1097.0
 20
820.1
 30
0.0
 11
1097.0
 21
880.6
 31
0.0
  0
LINE
  8
0
  6
CONTINUOUS
 62
     2
 10
1112.0
 20
770.6
 30
0.0
 11
1124.074072829
 21
767.364761936
 31
0.0
  0
LINE
  8
0
  6
CONTINUOUS
 62
     2
 10
1112.0
 20
770.6
 30
0.0
 11
1124.074072829
 21
773.835238064
 31
0.0
  0
LINE
  8
0
  6
CONTINUOUS
 62
     2
 10
1112.0
 20
770.6
 30
0.0
 11
1147.0
 21
770.6
 31
0.0
  0
LINE
  8
0
  6
CONTINUOUS
 62
     2
 10
1147.0
 20
770.6
 30
0.0
 11
1134.925927171
 21
773.835238064
 31
0.0
  0
LINE
  8
0
  6
CONTINUOUS
 62
     2
 10
1147.0
 20
770.6
 30
0.0
 11
1134.925927171
 21
767.364761936
 31
0.0
  0
LINE
  8
0
  6
CONTINUOUS
 62
     2
 10
1112.0
 20
770.6
 30
0.0
 11
1124.074072829
 21
767.364761936
 31
0.0
  0
LINE
  8
0
  6
CONTINUOUS
 62
     2
 10
1112.0
 20
770.6
 30
0.0
 11
1124.074072829
 21
773.835238064
 31
0.0
  0
LINE
  8
0
  6
CONTINUOUS
 62
     2
 10
1130.75
 20
770.6
 30
0.0
 11
1049.75
 21
770.6
 31
0.0
  0
LINE
  8
0
  6
CONTINUOUS
 62
     2
 10
1097.0
 20
770.6
 30
0.0
 11
1084.925927171
 21
773.835238064
 31
0.0
  0
LINE
  8
0
  6
CONTINUOUS
 62
     2
 10
1097.0
 20
770.6
 30
0.0
 11
1084.925927171
 21
767.364761936
 31
0.0
  0
LINE
  8
0
  6
CONTINUOUS
 62
     2
 10
1147.0
 20
805.5
 30
0.0
 11
1147.0
 21
763.1
 31
0.0
  0
LINE
  8
0
  6
CONTINUOUS
 62
     2
 10
1112.0
 20
838.0
 30
0.0
 11
1112.0
 21
763.1
 31
0.0
  0
LINE
  8
0
  6
CONTINUOUS
 62
     2
 10
1097.0
 20
814.0
 30
0.0
 11
1097.0
 21
763.1
 31
0.0
  0
TEXT
  8
0
  6
CONTINUOUS
 62
     2
 10
1216.0
 20
884.35
 30
0.0
 40
18.0
  1
２５
 50
90.0
 41
0.9
 51
0.0
  7
KANJI18
  0
TEXT
  8
0
  6
CONTINUOUS
 62
     2
 10
1010.4
 20
824.6
 30
0.0
 40
18.0
  1
φ１１０
 50
90.0
 41
0.9
 51
0.0
  7
KANJI18
  0
TEXT
  8
0
  6
CONTINUOUS
 62
     2
 10
1115.25
 20
775.6
 30
0.0
 40
18.0
  1
３５
 50
0.0
 41
0.9
 51
0.0
  7
KANJI18
  0
TEXT
  8
0
  6
CONTINUOUS
 62
     2
 10
1050.75
 20
773.6
 30
0.0
 40
18.0
  1
１５
 50
0.0
 41
0.9
 51
0.0
  7
KANJI18
  0
LINE
  8
2
  6
CONTINUOUS
 62
     2
 10
1147.0
 20
772.6
 30
0.0
 11
1147.0
 21
764.6
 31
0.0
  0
LINE
  8
2
  6
CONTINUOUS
 62
     2
 10
1147.0
 20
770.6
 30
0.0
 11
1132.511112606
 21
774.482285677
 31
0.0
  0
LINE
  8
2
  6
CONTINUOUS
 62
     2
 10
1147.0
 20
770.6
 30
0.0
 11
1132.511112606
 21
766.717714323
 31
0.0
  0
LINE
  8
2
  6
CONTINUOUS
 62
     2
 10
1124.5
 20
770.6
 30
0.0
 11
1147.0
 21
770.6
 31
0.0
  0
LINE
  8
2
  6
CONTINUOUS
 62
     2
 10
1147.0
 20
770.6
 30
0.0
 11
1172.0
 21
770.6
 31
0.0
  0
LINE
  8
2
  6
CONTINUOUS
 62
     2
 10
1172.0
 20
770.6
 30
0.0
 11
1226.9
 21
770.6
 31
0.0
  0
LINE
  8
2
  6
CONTINUOUS
 62
     2
 10
1172.0
 20
770.6
 30
0.0
 11
1186.488887394
 21
766.717714323
 31
0.0
  0
LINE
  8
2
  6
CONTINUOUS
 62
     2
 10
1172.0
 20
770.6
 30
0.0
 11
1186.488887394
 21
774.482285677
 31
0.0
  0
LINE
  8
2
  6
CONTINUOUS
 62
     2
 10
1172.0
 20
819.6
 30
0.0
 11
1172.0
 21
764.6
 31
0.0
  0
TEXT
  8
2
  6
CONTINUOUS
 62
     3
 10
1194.5
 20
776.6
 30
0.0
 40
18.0
  1
２５
 50
0.0
 41
0.9
 51
0.0
  7
KANJI18
  0
TEXT
  8
0
  6
CONTINUOUS
 62
     2
 10
1248.5
 20
838.85
 30
0.0
 40
18.0
  1
５５
 50
90.0
 41
0.9
 51
0.0
  7
KANJI18
  0
TEXT
  8
0
  6
CONTINUOUS
 62
     2
 10
479.540009455
 20
759.5
 30
0.0
 40
18.0
  1
日本電産
 50
0.0
 41
0.9
 51
0.0
  7
KANJI18
  0
TEXT
  8
0
  6
CONTINUOUS
 62
     2
 10
479.540009455
 20
740.5
 30
0.0
 40
18.0
  1
エコノストップモータ
 50
0.0
 41
0.766666667
 51
0.0
  7
KANJI22
  0
LINE
  8
2
  6
CONTINUOUS
 62
     2
 10
634.0
 20
839.5
 30
0.0
 11
731.0
 21
839.5
 31
0.0
  0
LINE
  8
2
  6
CONTINUOUS
 62
     2
 10
725.0
 20
839.5
 30
0.0
 11
721.117714323
 21
825.011112606
 31
0.0
  0
LINE
  8
2
  6
CONTINUOUS
 62
     2
 10
725.0
 20
839.5
 30
0.0
 11
728.882285677
 21
825.011112606
 31
0.0
  0
LINE
  8
2
  6
CONTINUOUS
 62
     2
 10
725.0
 20
839.5
 30
0.0
 11
725.0
 21
725.5
 31
0.0
  0
LINE
  8
2
  6
CONTINUOUS
 62
     2
 10
725.0
 20
725.5
 30
0.0
 11
728.882285677
 21
739.988887394
 31
0.0
  0
LINE
  8
2
  6
CONTINUOUS
 62
     2
 10
725.0
 20
725.5
 30
0.0
 11
721.117714323
 21
739.988887394
 31
0.0
  0
LINE
  8
2
  6
CONTINUOUS
 62
     2
 10
634.0
 20
725.5
 30
0.0
 11
731.0
 21
725.5
 31
0.0
  0
TEXT
  8
2
  6
CONTINUOUS
 62
     3
 10
719.0
 20
750.1
 30
0.0
 40
18.0
  1
φ１１４
 50
90.0
 41
0.9
 51
0.0
  7
KANJI18
  0
TEXT
  8
7
  6
CONTINUOUS
 62
     2
 10
604.0
 20
908.5
 30
0.0
 40
18.0
  1
ＰＦ３／４
 50
0.0
 41
0.766666667
 51
0.0
  7
KANJI22
  0
LINE
  8
0
  6
CONTINUOUS
 62
     6
 10
351.629425053
 20
1642.447759827
 30
0.0
 11
119.584646507
 21
1642.447759827
 31
0.0
  0
LINE
  8
0
  6
CONTINUOUS
 62
     3
 10
351.629425053
 20
1614.985259827
 30
0.0
 11
119.584646507
 21
1614.985259827
 31
0.0
  0
LINE
  8
0
  6
CONTINUOUS
 62
     6
 10
351.629425053
 20
1614.985259827
 30
0.0
 11
119.584646507
 21
1614.985259827
 31
0.0
  0
TEXT
  8
0
  6
CONTINUOUS
 62
     6
 10
377.212228
 20
1639.900410728
 30
1.232517
 40
13.182
  1
電気定格　　　
 50
0.0
 41
0.85
 51
0.0
  7
KANJI23
  0
TEXT
  8
0
  6
CONTINUOUS
 62
     6
 10
123.493517202
 20
1645.64592676
 30
1.0647
 40
11.661
  1
ＬＳ０１　　　：推力リミッタ（前進時過負荷用）
 50
0.0
 41
0.822608696
 51
0.0
  7
KANJI24
  0
TEXT
  8
0
  6
CONTINUOUS
 62
     6
 10
123.493517202
 20
1618.18342676
 30
1.0647
 40
11.661
  1
ＬＳ０２　　　：推力リミッタ（後進時過負荷用）
 50
0.0
 41
0.822608696
 51
0.0
  7
KANJI24
  0
TEXT
  8
0
  6
CONTINUOUS
 62
     6
 10
390.013715102
 20
1609.326958599
 30
0.0
 40
11.8638
  1
ＤＣ１２５Ｖ　０．６Ａ　，ＤＣ２５０Ｖ　０．３Ａ　
 50
0.0
 41
0.726495726
 51
0.0
  7
KANJI25
  0
LINE
  8
0
  6
LTYPE3
 62
     6
 10
650.02
 20
1669.9
 30
0.0
 11
101.62
 21
1669.9
 31
0.0
  0
TEXT
  8
0
  6
CONTINUOUS
 62
     6
 10
384.757132178
 20
1657.661726126
 30
0.0
 40
45.0
  1
｝
 50
0.0
 41
0.538166667
 51
0.0
  7
KANJI26
  0
TEXT
  8
0
  6
CONTINUOUS
 62
     6
 10
314.632791539
 20
1428.92382165
 30
0.0
 40
17.740702234
  1
端子台　接続図
 50
0.0
 41
0.880962996
 51
0.0
  7
KANJI27
  0
LINE
  8
0
  6
LTYPE3
 62
     6
 10
650.02
 20
1410.9
 30
0.0
 11
650.02
 21
1669.9
 31
0.0
  0
LINE
  8
0
  6
LTYPE3
 62
     6
 10
101.62
 20
1410.9
 30
0.0
 11
650.02
 21
1410.9
 31
0.0
  0
LINE
  8
0
  6
LTYPE3
 62
     6
 10
101.62
 20
1669.9
 30
0.0
 11
101.62
 21
1410.9
 31
0.0
  0
LINE
  8
0
  6
CONTINUOUS
 62
     2
 10
349.597373465
 20
1479.928121884
 30
0.0
 11
349.597373465
 21
1457.149155128
 31
0.0
  0
LINE
  8
0
  6
CONTINUOUS
 62
     2
 10
376.17283468
 20
1479.928121884
 30
0.0
 11
376.17283468
 21
1457.149155128
 31
0.0
  0
LINE
  8
0
  6
CONTINUOUS
 62
     2
 10
402.748295894
 20
1479.928121884
 30
0.0
 11
402.748295894
 21
1457.149155128
 31
0.0
  0
LINE
  8
0
  6
CONTINUOUS
 62
     2
 10
429.323757109
 20
1479.928121884
 30
0.0
 11
429.323757109
 21
1457.149155128
 31
0.0
  0
CIRCLE
  8
0
  6
CONTINUOUS
 62
     6
 10
421.404269667
 20
1503.407921517
 30
0.0
 40
4.100214016
  0
LINE
  8
0
  6
CONTINUOUS
 62
     6
 10
417.304055651
 20
1503.407921517
 30
0.0
 11
416.036026502
 21
1503.407921517
 31
0.0
  0
LINE
  8
0
  6
CONTINUOUS
 62
     6
 10
442.358027433
 20
1517.094562742
 30
0.0
 11
438.443558096
 21
1494.759507138
 31
0.0
  0
LINE
  8
0
  6
CONTINUOUS
 62
     6
 10
437.631699663
 20
1517.882284037
 30
0.0
 11
433.716922494
 21
1495.547279739
 31
0.0
  0
LINE
  8
0
  6
CONTINUOUS
 62
     6
 10
438.443558096
 20
1494.759507138
 30
0.0
 11
433.716922494
 21
1495.547279739
 31
0.0
  0
CIRCLE
  8
0
  6
CONTINUOUS
 62
     6
 10
442.611487717
 20
1493.939464335
 30
0.0
 40
4.100214016
  0
LINE
  8
0
  6
CONTINUOUS
 62
     6
 10
442.611487717
 20
1489.839250319
 30
0.0
 11
442.611487717
 21
1479.928121884
 31
0.0
  0
LINE
  8
0
  6
CONTINUOUS
 62
     6
 10
416.036026502
 20
1503.407921517
 30
0.0
 11
416.036026502
 21
1479.928121884
 31
0.0
  0
LINE
  8
0
  6
CONTINUOUS
 62
     6
 10
389.460565287
 20
1479.928121884
 30
0.0
 11
389.460565287
 21
1533.633332504
 31
0.0
  0
LINE
  8
0
  6
CONTINUOUS
 62
     6
 10
309.987641926
 20
1517.094562742
 30
0.0
 11
313.902111263
 21
1494.759507138
 31
0.0
  0
LINE
  8
0
  6
CONTINUOUS
 62
     6
 10
314.713969696
 20
1517.882284037
 30
0.0
 11
318.628746865
 21
1495.547279739
 31
0.0
  0
LINE
  8
0
  6
CONTINUOUS
 62
     6
 10
313.902111263
 20
1494.759507138
 30
0.0
 11
318.628746865
 21
1495.547279739
 31
0.0
  0
CIRCLE
  8
0
  6
CONTINUOUS
 62
     6
 10
309.734181642
 20
1493.939464335
 30
0.0
 40
4.100214016
  0
CIRCLE
  8
0
  6
CONTINUOUS
 62
     6
 10
330.941399692
 20
1503.407921517
 30
0.0
 40
4.100214016
  0
LINE
  8
0
  6
CONTINUOUS
 62
     6
 10
335.041613708
 20
1503.407921517
 30
0.0
 11
336.309642857
 21
1503.407921517
 31
0.0
  0
LINE
  8
0
  6
CONTINUOUS
 62
     6
 10
309.734181642
 20
1489.839250319
 30
0.0
 11
309.734181642
 21
1479.928121884
 31
0.0
  0
LINE
  8
0
  6
CONTINUOUS
 62
     6
 10
336.309642857
 20
1503.407921517
 30
0.0
 11
336.309642857
 21
1479.928121884
 31
0.0
  0
LINE
  8
0
  6
CONTINUOUS
 62
     6
 10
362.885104072
 20
1479.928121884
 30
0.0
 11
362.885104072
 21
1533.633332504
 31
0.0
  0
LINE
  8
0
  6
CONTINUOUS
 62
     2
 10
455.899218324
 20
1479.928121884
 30
0.0
 11
455.899218324
 21
1457.149155128
 31
0.0
  0
LINE
  8
0
  6
CONTINUOUS
 62
     2
 10
296.446451035
 20
1479.928121884
 30
0.0
 11
296.446451035
 21
1457.149155128
 31
0.0
  0
LINE
  8
0
  6
CONTINUOUS
 62
     2
 10
323.02191225
 20
1479.928121884
 30
0.0
 11
323.02191225
 21
1457.149155128
 31
0.0
  0
LINE
  8
0
  6
CONTINUOUS
 62
     6
 10
442.611487717
 20
1533.633332504
 30
0.0
 11
389.460565287
 21
1533.633332504
 31
0.0
  0
CIRCLE
  8
0
  6
CONTINUOUS
 62
     6
 10
442.611487717
 20
1521.28941042
 30
0.0
 40
4.100214016
  0
LINE
  8
0
  6
CONTINUOUS
 62
     6
 10
442.358027433
 20
1517.094562742
 30
0.0
 11
437.631699663
 21
1517.882284037
 31
0.0
  0
LINE
  8
0
  6
CONTINUOUS
 62
     6
 10
442.611487717
 20
1525.389624436
 30
0.0
 11
442.611487717
 21
1533.633332504
 31
0.0
  0
CIRCLE
  8
0
  6
CONTINUOUS
 62
     6
 10
309.734181642
 20
1521.28941042
 30
0.0
 40
4.100214016
  0
LINE
  8
0
  6
CONTINUOUS
 62
     6
 10
309.987641926
 20
1517.094562742
 30
0.0
 11
314.713969696
 21
1517.882284037
 31
0.0
  0
LINE
  8
0
  6
CONTINUOUS
 62
     6
 10
309.734181642
 20
1525.389624436
 30
0.0
 11
309.734181642
 21
1533.633332504
 31
0.0
  0
LINE
  8
0
  6
CONTINUOUS
 62
     6
 10
362.885104072
 20
1533.633332504
 30
0.0
 11
309.734181642
 21
1533.633332504
 31
0.0
  0
TEXT
  8
0
  6
CONTINUOUS
 62
     6
 10
314.4972152
 20
1538.152473273
 30
0.819
 40
11.7
  1
ＬＳ０１
 50
0.0
 41
0.8
 51
0.0
  7
KANJI28
  0
TEXT
  8
0
  6
CONTINUOUS
 62
     6
 10
397.117398844
 20
1538.152473273
 30
0.819
 40
11.7
  1
ＬＳ０２
 50
0.0
 41
0.8
 51
0.0
  7
KANJI28
  0
TEXT
  8
0
  6
CONTINUOUS
 62
     3
 10
142.308775989
 20
1460.945649587
 30
0.0
 40
15.0
  1
　　　　　　　　　　　　　　　　　　１　　２　　　３　　　４　　　５　　　６
 50
0.0
 41
0.911
 51
0.0
  7
KANJI29
  0
LINE
  8
0
  6
CONTINUOUS
 62
     2
 10
296.446451035
 20
1479.928121884
 30
0.0
 11
455.899218324
 21
1479.928121884
 31
0.0
  0
LINE
  8
0
  6
CONTINUOUS
 62
     2
 10
296.446451035
 20
1457.149155128
 30
0.0
 11
455.899218324
 21
1457.149155128
 31
0.0
  0
TEXT
  8
0
  6
CONTINUOUS
 62
     6
 10
288.132791539
 20
1567.92382165
 30
0.0
 40
17.740702234
  1
推力リミッタ端子台配列
 50
0.0
 41
0.880962996
 51
0.0
  7
KANJI27
  0
TEXT
  8
0
  6
CONTINUOUS
 62
     6
 10
390.013715102
 20
1625.071931782
 30
0.0
 40
11.8638
  1
ＡＣ１００Ｖ　１２５Ｖ　２５０Ｖ　－１０Ａ
 50
0.0
 41
0.726495726
 51
0.0
  7
KANJI25
  0
LINE
  8
0
  6
LTYPE3
 62
     6
 10
165.708333
 20
1085.133317
 30
0.0
 11
165.708333
 21
1068.732460936
 31
0.0
  0
LINE
  8
0
  6
LTYPE3
 62
     6
 10
296.105262694
 20
1085.133317
 30
0.0
 11
165.708333
 21
1085.133317
 31
0.0
  0
TEXT
  8
0
  6
CONTINUOUS
 62
     6
 10
148.173590591
 20
1071.648168681
 30
1.093390404
 40
10.933904043
  1
Ｕ
 50
0.0
 41
0.9
 51
0.0
  7
KANJI30
  0
CIRCLE
  8
0
  6
CONTINUOUS
 62
     6
 10
165.708333
 20
1065.452289723
 30
0.0
 40
4.373561617
  0
LINE
  8
0
  6
CONTINUOUS
 62
     6
 10
160.68354931
 20
1060.427506033
 30
0.0
 11
170.888526417
 21
1070.63248314
 31
0.0
  0
TEXT
  8
0
  6
CONTINUOUS
 62
     6
 10
175.953806047
 20
1093.799448352
 30
1.518597784
 40
15.185977837
  1
エコノストップモータ
 50
0.0
 41
0.66671875
 51
0.0
  7
KANJI31
  0
CIRCLE
  8
0
  6
CONTINUOUS
 62
     6
 10
210.537339575
 20
1039.939846957
 30
0.0
 40
18.223173404
  0
TEXT
  8
0
  6
CONTINUOUS
 62
     6
 10
202.883606745
 20
1031.192723723
 30
1.82231734
 40
18.223173404
  1
Ｍ
 50
0.0
 41
0.9
 51
0.0
  7
KANJI32
  0
LINE
  8
0
  6
CONTINUOUS
 62
     6
 10
186.482750681
 20
1014.427404191
 30
0.0
 11
197.781118192
 21
1027.548089042
 31
0.0
  0
LINE
  8
0
  6
CONTINUOUS
 62
     6
 10
186.482750681
 20
1065.452289723
 30
0.0
 11
197.781118192
 21
1052.331604872
 31
0.0
  0
LINE
  8
0
  6
CONTINUOUS
 62
     6
 10
186.482750681
 20
1065.452289723
 30
0.0
 11
170.081894617
 21
1065.452289723
 31
0.0
  0
LINE
  8
0
  6
CONTINUOUS
 62
     6
 10
192.678629639
 20
1039.939846957
 30
0.0
 11
170.081894617
 21
1039.939846957
 31
0.0
  0
LINE
  8
0
  6
CONTINUOUS
 62
     6
 10
186.482750681
 20
1014.427404191
 30
0.0
 11
170.081894617
 21
1014.427404191
 31
0.0
  0
TEXT
  8
0
  6
CONTINUOUS
 62
     6
 10
149.266980995
 20
1045.771262446
 30
1.093390404
 40
10.933904043
  1
Ｖ
 50
0.0
 41
0.9
 51
0.0
  7
KANJI30
  0
TEXT
  8
0
  6
CONTINUOUS
 62
     6
 10
150.360371399
 20
1019.894356212
 30
1.093390404
 40
10.933904043
  1
Ｗ
 50
0.0
 41
0.9
 51
0.0
  7
KANJI30
  0
CIRCLE
  8
0
  6
CONTINUOUS
 62
     6
 10
165.708333
 20
1039.939846957
 30
0.0
 40
4.373561617
  0
LINE
  8
0
  6
CONTINUOUS
 62
     6
 10
160.68354931
 20
1034.915063267
 30
0.0
 11
170.888526417
 21
1045.120040374
 31
0.0
  0
LINE
  8
0
  6
LTYPE3
 62
     6
 10
165.708333
 20
1061.443191574
 30
0.0
 11
165.708333
 21
1043.22001817
 31
0.0
  0
CIRCLE
  8
0
  6
CONTINUOUS
 62
     6
 10
165.708333
 20
1014.427404191
 30
0.0
 40
4.373561617
  0
LINE
  8
0
  6
CONTINUOUS
 62
     6
 10
160.68354931
 20
1009.402620501
 30
0.0
 11
170.888526417
 21
1019.607597607
 31
0.0
  0
LINE
  8
0
  6
LTYPE3
 62
     6
 10
165.708333
 20
1035.930748808
 30
0.0
 11
165.708333
 21
1018.800965808
 31
0.0
  0
LINE
  8
0
  6
LTYPE3
 62
     6
 10
165.708333
 20
1010.053842574
 30
0.0
 11
165.708333
 21
989.721584891
 31
0.0
  0
TEXT
  8
0
  6
CONTINUOUS
 62
     6
 10
236.778709277
 20
1031.684749405
 30
1.457853872
 40
14.578538724
  1
Ｂ
 50
0.0
 41
0.9
 51
0.0
  7
KANJI33
  0
CIRCLE
  8
0
  6
CONTINUOUS
 62
     6
 10
243.339051703
 20
1039.939846957
 30
0.0
 40
14.578538724
  0
LINE
  8
0
  6
LTYPE3
 62
     6
 10
296.105262694
 20
989.721584891
 30
0.0
 11
165.708333
 21
989.721584891
 31
0.0
  0
LINE
  8
0
  6
LTYPE3
 62
     6
 10
296.105262694
 20
989.721584891
 30
0.0
 11
296.105262694
 21
1085.133317
 31
0.0
  0
TEXT
  8
0
  6
CONTINUOUS
 62
     2
 10
170.803726364
 20
964.512221811
 30
0.0
 40
15.6
  1
モーター結線図
 50
0.0
 41
0.925
 51
0.0
  7
KANJI34
  0
LINE
  8
0
  6
CONTINUOUS
 62
     1
 10
448.5
 20
722.5
 30
0.0
 11
448.5
 21
652.5
 31
0.0
  0
LINE
  8
0
  6
CONTINUOUS
 62
     1
 10
405.5
 20
722.5
 30
0.0
 11
405.5
 21
652.5
 31
0.0
  0
TEXT
  8
0
  6
CONTINUOUS
 62
     2
 10
410.5
 20
711.5
 30
5.0
 40
20.0
  1
銘板
 50
270.0
 41
0.925
 51
0.0
  7
KANJI35
  0
LINE
  8
0
  6
CONTINUOUS
 62
     1
 10
448.5
 20
722.5
 30
0.0
 11
405.5
 21
722.5
 31
0.0
  0
LINE
  8
0
  6
CONTINUOUS
 62
     1
 10
448.5
 20
652.5
 30
0.0
 11
405.5
 21
652.5
 31
0.0
  0
TEXT
  8
0
  6
CONTINUOUS
 62
     2
 10
565.059258263
 20
1099.288190451
 30
0.0
 40
20.0
  1
ブレーキ解放装置はありません。
 50
0.0
 41
0.925
 51
0.0
  7
KANJI36
  0
TEXT
  8
0
  6
CONTINUOUS
 62
     2
 10
566.059258263
 20
1074.288190451
 30
0.0
 40
20.0
  1
そのまま手動操作をして下さい．
 50
0.0
 41
0.925
 51
0.0
  7
KANJI36
  0
LINE
  8
0
  6
CONTINUOUS
 62
     2
 10
529.712591263
 20
297.671507451
 30
0.0
 11
943.712591263
 21
297.671507451
 31
0.0
  0
TEXT
  8
0
  6
CONTINUOUS
 62
     2
 10
531.712591263
 20
305.671507451
 30
0.0
 40
20.0
  1
推力リミッタの作動値は、約６００ｋｇ（設計値）
 50
0.0
 41
0.925
 51
0.0
  7
KANJI36
  0
LINE
  8
0
  6
CONTINUOUS
 62
     1
 10
570.3
 20
536.5
 30
0.0
 11
559.7
 21
536.5
 31
0.0
  0
ARC
  8
0
  6
CONTINUOUS
 62
     1
 10
565.4
 20
537.5
 30
0.0
 40
5.0
 50
272.3
 51
348.5
  0
ARC
  8
0
  6
CONTINUOUS
 62
     1
 10
564.6
 20
537.5
 30
0.0
 40
5.0
 50
191.5
 51
267.7
  0
LINE
  8
0
  6
CONTINUOUS
 62
     1
 10
565.6
 20
532.5
 30
0.0
 11
564.4
 21
532.5
 31
0.0
  0
LINE
  8
0
  6
LTYPE6
 62
     2
 10
565.0
 20
529.1
 30
0.0
 11
565.0
 21
542.5
 31
0.0
  0
LINE
  8
0
  6
CONTINUOUS
 62
     1
 10
681.3
 20
536.5
 30
0.0
 11
670.7
 21
536.5
 31
0.0
  0
ARC
  8
0
  6
CONTINUOUS
 62
     1
 10
676.4
 20
537.5
 30
0.0
 40
5.0
 50
272.3
 51
348.5
  0
ARC
  8
0
  6
CONTINUOUS
 62
     1
 10
675.6
 20
537.5
 30
0.0
 40
5.0
 50
191.5
 51
267.7
  0
LINE
  8
0
  6
CONTINUOUS
 62
     1
 10
676.6
 20
532.5
 30
0.0
 11
675.4
 21
532.5
 31
0.0
  0
LINE
  8
0
  6
LTYPE6
 62
     2
 10
676.0
 20
529.1
 30
0.0
 11
676.0
 21
542.5
 31
0.0
  0
LINE
  8
0
  6
CONTINUOUS
 62
     1
 10
1412.3
 20
536.5
 30
0.0
 11
1401.7
 21
536.5
 31
0.0
  0
ARC
  8
0
  6
CONTINUOUS
 62
     1
 10
1407.4
 20
537.5
 30
0.0
 40
5.0
 50
272.3
 51
348.5
  0
ARC
  8
0
  6
CONTINUOUS
 62
     1
 10
1406.6
 20
537.5
 30
0.0
 40
5.0
 50
191.5
 51
267.7
  0
LINE
  8
0
  6
CONTINUOUS
 62
     1
 10
1407.6
 20
532.5
 30
0.0
 11
1406.4
 21
532.5
 31
0.0
  0
LINE
  8
0
  6
LTYPE6
 62
     2
 10
1407.0
 20
529.1
 30
0.0
 11
1407.0
 21
542.5
 31
0.0
  0
LINE
  8
0
  6
CONTINUOUS
 62
     1
 10
1502.3
 20
536.5
 30
0.0
 11
1491.7
 21
536.5
 31
0.0
  0
ARC
  8
0
  6
CONTINUOUS
 62
     1
 10
1497.4
 20
537.5
 30
0.0
 40
5.0
 50
272.3
 51
348.5
  0
ARC
  8
0
  6
CONTINUOUS
 62
     1
 10
1496.6
 20
537.5
 30
0.0
 40
5.0
 50
191.5
 51
267.7
  0
LINE
  8
0
  6
CONTINUOUS
 62
     1
 10
1497.6
 20
532.5
 30
0.0
 11
1496.4
 21
532.5
 31
0.0
  0
LINE
  8
0
  6
LTYPE6
 62
     2
 10
1497.0
 20
529.1
 30
0.0
 11
1497.0
 21
542.5
 31
0.0
  0
LINE
  8
0
  6
CONTINUOUS
 62
     2
 10
1177.333333
 20
1009.333317
 30
0.0
 11
1165.259260171
 21
1012.568555064
 31
0.0
  0
LINE
  8
0
  6
CONTINUOUS
 62
     2
 10
1177.333333
 20
1009.333317
 30
0.0
 11
1165.259260171
 21
1006.098078936
 31
0.0
  0
LINE
  8
0
  6
CONTINUOUS
 62
     2
 10
1177.333333
 20
1009.333317
 30
0.0
 11
1136.333333
 21
1009.333317
 31
0.0
  0
TEXT
  8
0
  6
CONTINUOUS
 62
     3
 10
1143.333333
 20
1019.333317
 30
0.0
 40
20.0
  1
前進
 50
0.0
 41
0.925
 51
0.0
  7
KANJI36
  0
TEXT
  8
0
  6
CONTINUOUS
 62
     2
 10
1050.133
 20
1544.99
 30
1.617
 40
16.17
  1
注意：サーマルリレー等の選定は、上記の値で選定して下さい。
 50
0.0
 41
0.9
 51
0.0
  7
KANJI37
  0
LINE
  8
0
  6
CONTINUOUS
 62
     2
 10
1040.893
 20
1540.37
 30
0.0
 11
1487.0
 21
1540.37
 31
0.0
  0
TEXT
  8
0
  6
CONTINUOUS
 62
     2
 10
1781.92
 20
686.9
 30
12.0
 40
24.0
  1
特記事項
 50
0.0
 41
0.9
 51
0.0
  7
KANJI38
  0
TEXT
  8
0
  6
CONTINUOUS
 62
     2
 10
1697.92
 20
638.9
 30
6.171428571
 40
21.6
  1
１。運転時は必ずピストンロッドの回転防止を行って下さい。
 50
0.0
 41
0.857142857
 51
0.0
  7
KANJI39
  0
TEXT
  8
0
  6
CONTINUOUS
 62
     2
 10
1697.92
 20
598.1
 30
6.156
 40
21.6
  1
２。モートル：全閉自冷かご形３０分定格
 50
0.0
 41
0.857222222
 51
0.0
  7
KANJI40
  0
TEXT
  8
0
  6
CONTINUOUS
 62
     2
 10
1697.5199098
 20
557.3000036
 30
6.156
 40
21.6
  1
３。呼称ストロークは、機械的ストロークです。
 50
0.0
 41
0.857222222
 51
0.0
  7
KANJI40
  0
TEXT
  8
0
  6
CONTINUOUS
 62
     2
 10
1697.5199098
 20
522.8000036
 30
6.156
 40
21.6
  1
　　必ず、常用はストローク両端に余裕を取って下さい。
 50
0.0
 41
0.857222222
 51
0.0
  7
KANJI40
  0
LINE
  8
0
  6
CONTINUOUS
 62
     2
 10
1765.12
 20
680.3
 30
0.0
 11
1911.52
 21
680.3
 31
0.0
  0
TEXT
  8
0
  6
CONTINUOUS
 62
     2
 10
1698.4319098
 20
483.1520036
 30
6.156
 40
21.6
  1
　　前後の推奨余裕寸法は、各々１５ｍｍです。
 50
0.0
 41
0.857222222
 51
0.0
  7
KANJI40
  0
LINE
  8
0
  6
CONTINUOUS
 62
     2
 10
555.003319123
 20
239.833311846
 30
0.0
 11
562.730725733
 21
237.762759485
 31
0.0
  0
LINE
  8
0
  6
CONTINUOUS
 62
     2
 10
555.003319123
 20
239.833311846
 30
0.0
 11
562.730725733
 21
241.903864207
 31
0.0
  0
LINE
  8
0
  6
CONTINUOUS
 62
     2
 10
555.003319123
 20
239.833311846
 30
0.0
 11
692.603319123
 21
239.833311846
 31
0.0
  0
LINE
  8
0
  6
CONTINUOUS
 62
     2
 10
692.603319123
 20
239.833311846
 30
0.0
 11
684.875912513
 21
241.903864207
 31
0.0
  0
LINE
  8
0
  6
CONTINUOUS
 62
     2
 10
692.603319123
 20
239.833311846
 30
0.0
 11
684.875912513
 21
237.762759485
 31
0.0
  0
LINE
  8
0
  6
CONTINUOUS
 62
     2
 10
692.603319123
 20
238.633311846
 30
0.0
 11
692.603319123
 21
235.833311846
 31
0.0
  0
LINE
  8
0
  6
CONTINUOUS
 62
     2
 10
692.603319123
 20
239.833311846
 30
0.0
 11
700.330725733
 21
237.762759485
 31
0.0
  0
LINE
  8
0
  6
CONTINUOUS
 62
     2
 10
692.603319123
 20
239.833311846
 30
0.0
 11
700.330725733
 21
241.903864207
 31
0.0
  0
LINE
  8
0
  6
CONTINUOUS
 62
     2
 10
692.603319123
 20
239.833311846
 30
0.0
 11
895.003319123
 21
239.833311846
 31
0.0
  0
LINE
  8
0
  6
CONTINUOUS
 62
     2
 10
895.003319123
 20
239.833311846
 30
0.0
 11
887.275912513
 21
241.903864207
 31
0.0
  0
LINE
  8
0
  6
CONTINUOUS
 62
     2
 10
895.003319123
 20
239.833311846
 30
0.0
 11
887.275912513
 21
237.762759485
 31
0.0
  0
LINE
  8
0
  6
CONTINUOUS
 62
     2
 10
692.603319123
 20
213.503864207
 30
0.0
 11
684.875912513
 21
215.574416568
 31
0.0
  0
LINE
  8
0
  6
CONTINUOUS
 62
     2
 10
692.603319123
 20
213.503864207
 30
0.0
 11
684.875912513
 21
211.433311846
 31
0.0
  0
LINE
  8
0
  6
CONTINUOUS
 62
     2
 10
680.603319123
 20
213.503864207
 30
0.0
 11
692.603319123
 21
213.503864207
 31
0.0
  0
LINE
  8
0
  6
CONTINUOUS
 62
     2
 10
692.603319123
 20
213.503864207
 30
0.0
 11
713.403319123
 21
213.503864207
 31
0.0
  0
LINE
  8
0
  6
CONTINUOUS
 62
     2
 10
713.403319123
 20
213.503864207
 30
0.0
 11
721.130725733
 21
211.433311846
 31
0.0
  0
LINE
  8
0
  6
CONTINUOUS
 62
     2
 10
713.403319123
 20
213.503864207
 30
0.0
 11
721.130725733
 21
215.574416568
 31
0.0
  0
LINE
  8
0
  6
CONTINUOUS
 62
     2
 10
555.003319123
 20
188.233311846
 30
0.0
 11
555.003319123
 21
182.233311846
 31
0.0
  0
LINE
  8
0
  6
CONTINUOUS
 62
     2
 10
555.003319123
 20
186.233311846
 30
0.0
 11
562.730725733
 21
184.162759485
 31
0.0
  0
LINE
  8
0
  6
CONTINUOUS
 62
     2
 10
555.003319123
 20
186.233311846
 30
0.0
 11
562.730725733
 21
188.303864207
 31
0.0
  0
LINE
  8
0
  6
CONTINUOUS
 62
     2
 10
555.003319123
 20
186.233311846
 30
0.0
 11
713.403319123
 21
186.233311846
 31
0.0
  0
LINE
  8
0
  6
CONTINUOUS
 62
     2
 10
713.403319123
 20
186.233311846
 30
0.0
 11
705.675912513
 21
188.303864207
 31
0.0
  0
LINE
  8
0
  6
CONTINUOUS
 62
     2
 10
713.403319123
 20
186.233311846
 30
0.0
 11
705.675912513
 21
184.162759485
 31
0.0
  0
LINE
  8
0
  6
CONTINUOUS
 62
     2
 10
713.403319123
 20
187.433311846
 30
0.0
 11
713.403319123
 21
182.233311846
 31
0.0
  0
LINE
  8
0
  6
CONTINUOUS
 62
     2
 10
713.403319123
 20
186.233311846
 30
0.0
 11
721.130725733
 21
184.162759485
 31
0.0
  0
LINE
  8
0
  6
CONTINUOUS
 62
     2
 10
713.403319123
 20
186.233311846
 30
0.0
 11
721.130725733
 21
188.303864207
 31
0.0
  0
LINE
  8
0
  6
CONTINUOUS
 62
     2
 10
895.003319123
 20
182.633311846
 30
0.0
 11
895.003319123
 21
182.233311846
 31
0.0
  0
LINE
  8
0
  6
CONTINUOUS
 62
     2
 10
555.003319123
 20
157.033311846
 30
0.0
 11
562.730725733
 21
154.962759485
 31
0.0
  0
LINE
  8
0
  6
CONTINUOUS
 62
     2
 10
555.003319123
 20
157.033311846
 30
0.0
 11
562.730725733
 21
159.103864207
 31
0.0
  0
LINE
  8
0
  6
CONTINUOUS
 62
     2
 10
555.003319123
 20
157.033311846
 30
0.0
 11
872.603319123
 21
157.033311846
 31
0.0
  0
LINE
  8
0
  6
CONTINUOUS
 62
     2
 10
872.603319123
 20
157.033311846
 30
0.0
 11
864.875912513
 21
159.103864207
 31
0.0
  0
LINE
  8
0
  6
CONTINUOUS
 62
     2
 10
872.603319123
 20
157.033311846
 30
0.0
 11
864.875912513
 21
154.962759485
 31
0.0
  0
LINE
  8
0
  6
CONTINUOUS
 62
     2
 10
872.603319123
 20
157.833311846
 30
0.0
 11
872.603319123
 21
153.033311846
 31
0.0
  0
LINE
  8
0
  6
CONTINUOUS
 62
     2
 10
872.603319123
 20
157.033311846
 30
0.0
 11
864.875912513
 21
159.103864207
 31
0.0
  0
LINE
  8
0
  6
CONTINUOUS
 62
     2
 10
872.603319123
 20
157.033311846
 30
0.0
 11
864.875912513
 21
154.962759485
 31
0.0
  0
LINE
  8
0
  6
CONTINUOUS
 62
     2
 10
860.603319123
 20
157.033311846
 30
0.0
 11
872.603319123
 21
157.033311846
 31
0.0
  0
LINE
  8
0
  6
CONTINUOUS
 62
     2
 10
872.603319123
 20
157.033311846
 30
0.0
 11
895.003319123
 21
157.033311846
 31
0.0
  0
LINE
  8
0
  6
CONTINUOUS
 62
     2
 10
895.003319123
 20
157.033311846
 30
0.0
 11
902.730725733
 21
154.962759485
 31
0.0
  0
LINE
  8
0
  6
CONTINUOUS
 62
     2
 10
895.003319123
 20
157.033311846
 30
0.0
 11
902.730725733
 21
159.103864207
 31
0.0
  0
LINE
  8
0
  6
CONTINUOUS
 62
     2
 10
555.003319123
 20
250.633311846
 30
0.0
 11
555.003319123
 21
235.833311846
 31
0.0
  0
LINE
  8
0
  6
CONTINUOUS
 62
     2
 10
895.003319123
 20
250.633311846
 30
0.0
 11
895.003319123
 21
235.833311846
 31
0.0
  0
LINE
  8
0
  6
CONTINUOUS
 62
     2
 10
692.603319123
 20
239.433311846
 30
0.0
 11
692.603319123
 21
250.633311846
 31
0.0
  0
LINE
  8
0
  6
CONTINUOUS
 62
     2
 10
713.403319123
 20
226.303864207
 30
0.0
 11
713.403319123
 21
209.503864207
 31
0.0
  0
LINE
  8
0
  6
CONTINUOUS
 62
     2
 10
555.003319123
 20
235.833311846
 30
0.0
 11
555.003319123
 21
143.833311846
 31
0.0
  0
LINE
  8
0
  6
CONTINUOUS
 62
     2
 10
895.003319123
 20
239.833311846
 30
0.0
 11
895.003319123
 21
145.033311846
 31
0.0
  0
LINE
  8
0
  6
CONTINUOUS
 62
     2
 10
713.403319123
 20
213.503864207
 30
0.0
 11
713.403319123
 21
177.033311846
 31
0.0
  0
LINE
  8
0
  6
CONTINUOUS
 62
     2
 10
692.603319123
 20
239.833311846
 30
0.0
 11
692.603319123
 21
204.233311846
 31
0.0
  0
TEXT
  8
0
  6
CONTINUOUS
 62
     3
 10
596.803319123
 20
241.833311846
 30
0.0
 40
15.0
  1
ｍｉｎ．Ｌ
 50
0.0
 41
0.9
 51
0.0
  7
KANJI41
  0
TEXT
  8
0
  6
CONTINUOUS
 62
     3
 10
750.603319123
 20
241.833311846
 30
0.0
 40
15.0
  1
機械的ストローク
 50
0.0
 41
0.9
 51
0.0
  7
KANJI41
  0
TEXT
  8
0
  6
CONTINUOUS
 62
     3
 10
725.403319123
 20
215.503864207
 30
0.0
 40
15.0
  1
余裕
 50
0.0
 41
0.9
 51
0.0
  7
KANJI41
  0
TEXT
  8
0
  6
CONTINUOUS
 62
     3
 10
607.203319123
 20
188.233311846
 30
0.0
 40
15.0
  1
常用ｍｉｎ
 50
0.0
 41
0.9
 51
0.0
  7
KANJI41
  0
TEXT
  8
0
  6
CONTINUOUS
 62
     3
 10
686.803319123
 20
159.033311846
 30
0.0
 40
15.0
  1
常用ｍａｘ
 50
0.0
 41
0.9
 51
0.0
  7
KANJI41
  0
TEXT
  8
0
  6
CONTINUOUS
 62
     3
 10
907.003319123
 20
159.033311846
 30
0.0
 40
15.0
  1
余裕
 50
0.0
 41
0.9
 51
0.0
  7
KANJI41
  0
LINE
  8
0
  6
CONTINUOUS
 62
     2
 10
713.403319123
 20
213.503864207
 30
0.0
 11
753.503319123
 21
213.503864207
 31
0.0
  0
LINE
  8
0
  6
CONTINUOUS
 62
     2
 10
895.003319123
 20
157.033311846
 30
0.0
 11
937.503319123
 21
157.033311846
 31
0.0
  0
TEXT
  8
0
  6
CONTINUOUS
 62
     2
 10
623.8
 20
473.7
 30
0.0
 40
18.0
  1
推力リミッタ
 50
0.0
 41
0.9
 51
0.0
  7
KANJI18
  0
LINE
  8
0
  6
CONTINUOUS
 62
     2
 10
619.601470588
 20
467.2
 30
0.0
 11
720.0
 21
467.2
 31
0.0
  0
LINE
  8
0
  6
CONTINUOUS
 62
     2
 10
582.8
 20
538.7
 30
0.0
 11
619.601470588
 21
467.2
 31
0.0
  0
ARC
  8
0
  6
CONTINUOUS
 62
     2
 10
298.0
 20
783.0
 30
0.0
 40
20.0
 50
231.952957468
 51
156.801409486
  0
LINE
  8
0
  6
CONTINUOUS
 62
     2
 10
279.6170994
 20
790.878385972
 30
0.0
 11
281.91179211
 21
800.715824749
 31
0.0
  0
TEXT
  8
0
  6
CONTINUOUS
 62
     2
 10
217.6170994
 20
773.878385972
 30
0.0
 40
15.0
  1
前進方向
 50
0.0
 41
0.9
 51
0.0
  7
KANJI41
  0
LINE
  8
0
  6
CONTINUOUS
 62
     2
 10
279.6170994
 20
790.878385972
 30
0.0
 11
287.885260778
 21
795.785722507
 31
0.0
  0
TEXT
  8
0
  6
CONTINUOUS
 62
     3
 10
260.666667
 20
877.766683
 30
1.5
 40
15.0
  1
手動軸□８
 50
0.0
 41
0.9
 51
0.0
  7
KANJI42
  0
LINE
  8
0
  6
CONTINUOUS
 62
     1
 10
1009.12
 20
1522.24
 30
0.0
 11
1786.72
 21
1522.24
 31
0.0
  0
LINE
  8
0
  6
CONTINUOUS
 62
     1
 10
1009.12
 20
1488.64
 30
0.0
 11
1786.72
 21
1488.64
 31
0.0
  0
TEXT
  8
0
  6
CONTINUOUS
 62
     2
 10
1057.12
 20
1498.24
 30
1.536
 40
15.36
  1
形
 50
0.0
 41
0.9
 51
0.0
  7
KANJI43
  0
TEXT
  8
0
  6
CONTINUOUS
 62
     2
 10
1150.72
 20
1498.24
 30
1.536
 40
15.36
  1
式
 50
0.0
 41
0.9
 51
0.0
  7
KANJI43
  0
TEXT
  8
0
  6
CONTINUOUS
 62
     2
 10
1223.2
 20
1497.28
 30
1.44
 40
14.4
  1
ストローク
 50
0.0
 41
0.9
 51
0.0
  7
KANJI44
  0
TEXT
  8
0
  6
CONTINUOUS
 62
     2
 10
1315.36
 20
1496.32
 30
0.0
 40
14.4
  1
ｍｉｎ　
 50
0.0
 41
0.9
 51
0.0
  7
KANJI45
  0
TEXT
  8
0
  6
CONTINUOUS
 62
     2
 10
1411.36
 20
1496.32
 30
0.0
 40
14.4
  1
ｍｉｎ　
 50
0.0
 41
0.9
 51
0.0
  7
KANJI45
  0
TEXT
  8
0
  6
CONTINUOUS
 62
     2
 10
1603.36
 20
1496.32
 30
0.0
 40
14.4
  1
ｍｉｎ　
 50
0.0
 41
0.9
 51
0.0
  7
KANJI45
  0
TEXT
  8
0
  6
CONTINUOUS
 62
     2
 10
1364.32
 20
1497.28
 30
1.68
 40
16.8
  1
ＡＬ
 50
0.0
 41
0.9
 51
0.0
  7
KANJI46
  0
TEXT
  8
0
  6
CONTINUOUS
 62
     2
 10
1460.32
 20
1497.28
 30
1.68
 40
16.8
  1
Ｌ
 50
0.0
 41
0.9
 51
0.0
  7
KANJI46
  0
TEXT
  8
0
  6
CONTINUOUS
 62
     2
 10
1541.92
 20
1497.28
 30
1.68
 40
16.8
  1
Ｃ
 50
0.0
 41
0.9
 51
0.0
  7
KANJI46
  0
TEXT
  8
0
  6
CONTINUOUS
 62
     2
 10
1652.32
 20
1497.28
 30
1.68
 40
16.8
  1
Ｐ
 50
0.0
 41
0.9
 51
0.0
  7
KANJI46
  0
TEXT
  8
0
  6
CONTINUOUS
 62
     2
 10
1751.08
 20
1496.92
 30
0.0
 40
12.96
  1
（ｋｇ）
 50
0.0
 41
0.740740741
 51
0.0
  7
KANJI47
  0
TEXT
  8
0
  6
CONTINUOUS
 62
     2
 10
1693.48
 20
1496.68
 30
1.44
 40
16.8
  1
概算重量
 50
0.0
 41
0.857142857
 51
0.0
  7
KANJI48
  0
TEXT
  8
0
  6
CONTINUOUS
 62
     2
 10
1232.32
 20
1468.08
 30
1.44
 40
14.4
  1
　２００
 50
0.0
 41
0.9
 51
0.0
  7
KANJI44
  0
TEXT
  8
0
  6
CONTINUOUS
 62
     2
 10
1232.32
 20
1439.48
 30
1.44
 40
14.4
  1
　３００
 50
0.0
 41
0.9
 51
0.0
  7
KANJI44
  0
TEXT
  8
0
  6
CONTINUOUS
 62
     2
 10
1232.32
 20
1410.88
 30
1.44
 40
14.4
  1
　４００
 50
0.0
 41
0.9
 51
0.0
  7
KANJI44
  0
TEXT
  8
0
  6
CONTINUOUS
 62
     2
 10
1232.32
 20
1382.28
 30
1.44
 40
14.4
  1
　５００
 50
0.0
 41
0.9
 51
0.0
  7
KANJI44
  0
TEXT
  8
0
  6
CONTINUOUS
 62
     2
 10
1232.32
 20
1353.68
 30
1.44
 40
14.4
  1
　６００
 50
0.0
 41
0.9
 51
0.0
  7
KANJI44
  0
TEXT
  8
0
  6
CONTINUOUS
 62
     2
 10
1232.32
 20
1325.08
 30
1.44
 40
14.4
  1
　７００
 50
0.0
 41
0.9
 51
0.0
  7
KANJI44
  0
TEXT
  8
0
  6
CONTINUOUS
 62
     2
 10
1232.32
 20
1296.48
 30
1.44
 40
14.4
  1
　８００
 50
0.0
 41
0.9
 51
0.0
  7
KANJI44
  0
TEXT
  8
0
  6
CONTINUOUS
 62
     2
 10
1232.32
 20
1267.88
 30
1.44
 40
14.4
  1
　９００
 50
0.0
 41
0.9
 51
0.0
  7
KANJI44
  0
TEXT
  8
0
  6
CONTINUOUS
 62
     2
 10
1232.32
 20
1239.28
 30
1.44
 40
14.4
  1
１０００
 50
0.0
 41
0.9
 51
0.0
  7
KANJI44
  0
LINE
  8
0
  6
CONTINUOUS
 62
     1
 10
1009.12
 20
1059.24
 30
0.0
 11
1786.72
 21
1059.24
 31
0.0
  0
LINE
  8
0
  6
CONTINUOUS
 62
     1
 10
1009.12
 20
1522.24
 30
0.0
 11
1009.12
 21
1059.24
 31
0.0
  0
LINE
  8
0
  6
CONTINUOUS
 62
     1
 10
1786.72
 20
1522.24
 30
0.0
 11
1786.72
 21
1059.24
 31
0.0
  0
LINE
  8
0
  6
CONTINUOUS
 62
     1
 10
1210.72
 20
1522.24
 30
0.0
 11
1210.72
 21
1059.24
 31
0.0
  0
LINE
  8
0
  6
CONTINUOUS
 62
     2
 10
1306.72
 20
1522.24
 30
0.0
 11
1306.72
 21
1059.24
 31
0.0
  0
LINE
  8
0
  6
CONTINUOUS
 62
     2
 10
1402.72
 20
1522.24
 30
0.0
 11
1402.72
 21
1059.24
 31
0.0
  0
LINE
  8
0
  6
CONTINUOUS
 62
     2
 10
1498.72
 20
1522.24
 30
0.0
 11
1498.72
 21
1059.24
 31
0.0
  0
LINE
  8
0
  6
CONTINUOUS
 62
     2
 10
1594.72
 20
1522.24
 30
0.0
 11
1594.72
 21
1059.24
 31
0.0
  0
LINE
  8
0
  6
CONTINUOUS
 62
     2
 10
1690.72
 20
1522.24
 30
0.0
 11
1690.72
 21
1059.24
 31
0.0
  0
TEXT
  8
0
  6
CONTINUOUS
 62
     2
 10
1232.32
 20
1210.68
 30
1.44
 40
14.4
  1
１１００
 50
0.0
 41
0.9
 51
0.0
  7
KANJI44
  0
TEXT
  8
0
  6
CONTINUOUS
 62
     2
 10
1232.32
 20
1182.08
 30
1.44
 40
14.4
  1
１２００
 50
0.0
 41
0.9
 51
0.0
  7
KANJI44
  0
TEXT
  8
0
  6
CONTINUOUS
 62
     2
 10
1232.32
 20
1153.48
 30
1.44
 40
14.4
  1
１３００
 50
0.0
 41
0.9
 51
0.0
  7
KANJI44
  0
TEXT
  8
0
  6
CONTINUOUS
 62
     2
 10
1232.32
 20
1124.88
 30
1.44
 40
14.4
  1
１４００
 50
0.0
 41
0.9
 51
0.0
  7
KANJI44
  0
TEXT
  8
0
  6
CONTINUOUS
 62
     2
 10
1232.32
 20
1096.28
 30
1.44
 40
14.4
  1
１５００
 50
0.0
 41
0.9
 51
0.0
  7
KANJI44
  0
TEXT
  8
0
  6
CONTINUOUS
 62
     2
 10
1328.32
 20
1468.48
 30
1.44
 40
14.4
  1
　６１９
 50
0.0
 41
0.9
 51
0.0
  7
KANJI44
  0
TEXT
  8
0
  6
CONTINUOUS
 62
     2
 10
1328.32
 20
1439.88
 30
1.44
 40
14.4
  1
　７１９
 50
0.0
 41
0.9
 51
0.0
  7
KANJI44
  0
TEXT
  8
0
  6
CONTINUOUS
 62
     2
 10
1424.32
 20
1468.48
 30
1.44
 40
14.4
  1
　４７３
 50
0.0
 41
0.9
 51
0.0
  7
KANJI44
  0
TEXT
  8
0
  6
CONTINUOUS
 62
     2
 10
1424.32
 20
1439.88
 30
1.44
 40
14.4
  1
　５７３
 50
0.0
 41
0.9
 51
0.0
  7
KANJI44
  0
TEXT
  8
0
  6
CONTINUOUS
 62
     2
 10
1520.32
 20
1468.48
 30
1.44
 40
14.4
  1
　３７８
 50
0.0
 41
0.9
 51
0.0
  7
KANJI44
  0
TEXT
  8
0
  6
CONTINUOUS
 62
     2
 10
1520.32
 20
1439.88
 30
1.44
 40
14.4
  1
　４７８
 50
0.0
 41
0.9
 51
0.0
  7
KANJI44
  0
TEXT
  8
0
  6
CONTINUOUS
 62
     2
 10
1520.32
 20
1411.28
 30
1.44
 40
14.4
  1
　５７８
 50
0.0
 41
0.9
 51
0.0
  7
KANJI44
  0
TEXT
  8
0
  6
CONTINUOUS
 62
     2
 10
1520.32
 20
1382.68
 30
1.44
 40
14.4
  1
　６７８
 50
0.0
 41
0.9
 51
0.0
  7
KANJI44
  0
TEXT
  8
0
  6
CONTINUOUS
 62
     2
 10
1520.32
 20
1354.08
 30
1.44
 40
14.4
  1
　８１８
 50
0.0
 41
0.9
 51
0.0
  7
KANJI44
  0
TEXT
  8
0
  6
CONTINUOUS
 62
     2
 10
1520.32
 20
1325.48
 30
1.44
 40
14.4
  1
　９１８
 50
0.0
 41
0.9
 51
0.0
  7
KANJI44
  0
TEXT
  8
0
  6
CONTINUOUS
 62
     2
 10
1520.32
 20
1296.88
 30
1.44
 40
14.4
  1
１０１８
 50
0.0
 41
0.9
 51
0.0
  7
KANJI44
  0
TEXT
  8
0
  6
CONTINUOUS
 62
     2
 10
1520.32
 20
1268.28
 30
1.44
 40
14.4
  1
１１１８
 50
0.0
 41
0.9
 51
0.0
  7
KANJI44
  0
TEXT
  8
0
  6
CONTINUOUS
 62
     2
 10
1520.32
 20
1239.68
 30
1.44
 40
14.4
  1
１２１８
 50
0.0
 41
0.9
 51
0.0
  7
KANJI44
  0
TEXT
  8
0
  6
CONTINUOUS
 62
     2
 10
1520.32
 20
1211.08
 30
1.44
 40
14.4
  1
１３１８
 50
0.0
 41
0.9
 51
0.0
  7
KANJI44
  0
TEXT
  8
0
  6
CONTINUOUS
 62
     2
 10
1520.32
 20
1182.48
 30
1.44
 40
14.4
  1
１４１８
 50
0.0
 41
0.9
 51
0.0
  7
KANJI44
  0
TEXT
  8
0
  6
CONTINUOUS
 62
     2
 10
1520.32
 20
1153.88
 30
1.44
 40
14.4
  1
１５１８
 50
0.0
 41
0.9
 51
0.0
  7
KANJI44
  0
TEXT
  8
0
  6
CONTINUOUS
 62
     2
 10
1520.32
 20
1125.28
 30
1.44
 40
14.4
  1
１６１８
 50
0.0
 41
0.9
 51
0.0
  7
KANJI44
  0
TEXT
  8
0
  6
CONTINUOUS
 62
     2
 10
1520.32
 20
1096.68
 30
1.44
 40
14.4
  1
１７１８
 50
0.0
 41
0.9
 51
0.0
  7
KANJI44
  0
TEXT
  8
0
  6
CONTINUOUS
 62
     2
 10
1617.74
 20
1468.33
 30
1.44
 40
14.4
  1
　　４５
 50
0.0
 41
0.9
 51
0.0
  7
KANJI44
  0
LINE
  8
0
  6
CONTINUOUS
 62
     2
 10
1010.54
 20
1460.69
 30
0.0
 11
1788.14
 21
1460.69
 31
0.0
  0
TEXT
  8
0
  6
CONTINUOUS
 62
     2
 10
1617.74
 20
1439.73
 30
1.44
 40
14.4
  1
　　４５
 50
0.0
 41
0.9
 51
0.0
  7
KANJI44
  0
LINE
  8
0
  6
CONTINUOUS
 62
     2
 10
1010.54
 20
1432.09
 30
0.0
 11
1788.14
 21
1432.09
 31
0.0
  0
TEXT
  8
0
  6
CONTINUOUS
 62
     2
 10
1617.74
 20
1411.13
 30
1.44
 40
14.4
  1
　　８５
 50
0.0
 41
0.9
 51
0.0
  7
KANJI44
  0
LINE
  8
0
  6
CONTINUOUS
 62
     2
 10
1010.54
 20
1403.49
 30
0.0
 11
1788.14
 21
1403.49
 31
0.0
  0
TEXT
  8
0
  6
CONTINUOUS
 62
     2
 10
1617.74
 20
1382.53
 30
1.44
 40
14.4
  1
　１１２
 50
0.0
 41
0.9
 51
0.0
  7
KANJI44
  0
LINE
  8
0
  6
CONTINUOUS
 62
     2
 10
1010.54
 20
1374.89
 30
0.0
 11
1788.14
 21
1374.89
 31
0.0
  0
TEXT
  8
0
  6
CONTINUOUS
 62
     2
 10
1617.74
 20
1353.93
 30
1.44
 40
14.4
  1
　１２８
 50
0.0
 41
0.9
 51
0.0
  7
KANJI44
  0
LINE
  8
0
  6
CONTINUOUS
 62
     2
 10
1010.54
 20
1346.29
 30
0.0
 11
1788.14
 21
1346.29
 31
0.0
  0
TEXT
  8
0
  6
CONTINUOUS
 62
     2
 10
1617.74
 20
1325.33
 30
1.44
 40
14.4
  1
　１４８
 50
0.0
 41
0.9
 51
0.0
  7
KANJI44
  0
LINE
  8
0
  6
CONTINUOUS
 62
     2
 10
1010.54
 20
1317.69
 30
0.0
 11
1788.14
 21
1317.69
 31
0.0
  0
TEXT
  8
0
  6
CONTINUOUS
 62
     2
 10
1617.74
 20
1296.73
 30
1.44
 40
14.4
  1
　１６８
 50
0.0
 41
0.9
 51
0.0
  7
KANJI44
  0
LINE
  8
0
  6
CONTINUOUS
 62
     2
 10
1010.54
 20
1289.09
 30
0.0
 11
1788.14
 21
1289.09
 31
0.0
  0
TEXT
  8
0
  6
CONTINUOUS
 62
     2
 10
1617.74
 20
1268.13
 30
1.44
 40
14.4
  1
　１９８
 50
0.0
 41
0.9
 51
0.0
  7
KANJI44
  0
LINE
  8
0
  6
CONTINUOUS
 62
     2
 10
1010.54
 20
1260.49
 30
0.0
 11
1788.14
 21
1260.49
 31
0.0
  0
TEXT
  8
0
  6
CONTINUOUS
 62
     2
 10
1617.74
 20
1239.53
 30
1.44
 40
14.4
  1
　２３１
 50
0.0
 41
0.9
 51
0.0
  7
KANJI44
  0
LINE
  8
0
  6
CONTINUOUS
 62
     2
 10
1010.54
 20
1231.89
 30
0.0
 11
1788.14
 21
1231.89
 31
0.0
  0
LINE
  8
0
  6
CONTINUOUS
 62
     2
 10
1010.54
 20
1203.29
 30
0.0
 11
1788.14
 21
1203.29
 31
0.0
  0
LINE
  8
0
  6
CONTINUOUS
 62
     2
 10
1010.54
 20
1174.69
 30
0.0
 11
1788.14
 21
1174.69
 31
0.0
  0
LINE
  8
0
  6
CONTINUOUS
 62
     2
 10
1010.54
 20
1146.09
 30
0.0
 11
1788.14
 21
1146.09
 31
0.0
  0
LINE
  8
0
  6
CONTINUOUS
 62
     2
 10
1010.54
 20
1117.49
 30
0.0
 11
1788.14
 21
1117.49
 31
0.0
  0
LINE
  8
0
  6
CONTINUOUS
 62
     2
 10
1010.54
 20
1088.89
 30
0.0
 11
1788.14
 21
1088.89
 31
0.0
  0
TEXT
  8
0
  6
CONTINUOUS
 62
     2
 10
1617.74
 20
1210.93
 30
1.44
 40
14.4
  1
　２４５
 50
0.0
 41
0.9
 51
0.0
  7
KANJI44
  0
TEXT
  8
0
  6
CONTINUOUS
 62
     2
 10
1617.74
 20
1182.33
 30
1.44
 40
14.4
  1
　２６８
 50
0.0
 41
0.9
 51
0.0
  7
KANJI44
  0
TEXT
  8
0
  6
CONTINUOUS
 62
     2
 10
1617.74
 20
1153.73
 30
1.44
 40
14.4
  1
　２８８
 50
0.0
 41
0.9
 51
0.0
  7
KANJI44
  0
TEXT
  8
0
  6
CONTINUOUS
 62
     2
 10
1617.74
 20
1125.13
 30
1.44
 40
14.4
  1
　３１０
 50
0.0
 41
0.9
 51
0.0
  7
KANJI44
  0
TEXT
  8
0
  6
CONTINUOUS
 62
     2
 10
1617.74
 20
1096.53
 30
1.44
 40
14.4
  1
　３５０
 50
0.0
 41
0.9
 51
0.0
  7
KANJI44
  0
TEXT
  8
0
  6
CONTINUOUS
 62
     2
 10
1424.32
 20
1411.28
 30
1.44
 40
14.4
  1
　７１３
 50
0.0
 41
0.9
 51
0.0
  7
KANJI44
  0
TEXT
  8
0
  6
CONTINUOUS
 62
     2
 10
1328.32
 20
1411.28
 30
1.44
 40
14.4
  1
　８５９
 50
0.0
 41
0.9
 51
0.0
  7
KANJI44
  0
TEXT
  8
0
  6
CONTINUOUS
 62
     2
 10
1424.32
 20
1382.68
 30
1.44
 40
14.4
  1
　８４０
 50
0.0
 41
0.9
 51
0.0
  7
KANJI44
  0
TEXT
  8
0
  6
CONTINUOUS
 62
     2
 10
1328.32
 20
1382.68
 30
1.44
 40
14.4
  1
　９８６
 50
0.0
 41
0.9
 51
0.0
  7
KANJI44
  0
TEXT
  8
0
  6
CONTINUOUS
 62
     2
 10
1424.32
 20
1354.08
 30
1.44
 40
14.4
  1
　９９６
 50
0.0
 41
0.9
 51
0.0
  7
KANJI44
  0
TEXT
  8
0
  6
CONTINUOUS
 62
     2
 10
1328.32
 20
1354.08
 30
1.44
 40
14.4
  1
１１４２
 50
0.0
 41
0.9
 51
0.0
  7
KANJI44
  0
TEXT
  8
0
  6
CONTINUOUS
 62
     2
 10
1424.32
 20
1325.48
 30
1.44
 40
14.4
  1
１１１６
 50
0.0
 41
0.9
 51
0.0
  7
KANJI44
  0
TEXT
  8
0
  6
CONTINUOUS
 62
     2
 10
1328.32
 20
1325.48
 30
1.44
 40
14.4
  1
１２６２
 50
0.0
 41
0.9
 51
0.0
  7
KANJI44
  0
TEXT
  8
0
  6
CONTINUOUS
 62
     2
 10
1424.32
 20
1296.88
 30
1.44
 40
14.4
  1
１２３６
 50
0.0
 41
0.9
 51
0.0
  7
KANJI44
  0
TEXT
  8
0
  6
CONTINUOUS
 62
     2
 10
1328.32
 20
1296.88
 30
1.44
 40
14.4
  1
１３８２
 50
0.0
 41
0.9
 51
0.0
  7
KANJI44
  0
TEXT
  8
0
  6
CONTINUOUS
 62
     2
 10
1424.32
 20
1268.28
 30
1.44
 40
14.4
  1
１３６６
 50
0.0
 41
0.9
 51
0.0
  7
KANJI44
  0
TEXT
  8
0
  6
CONTINUOUS
 62
     2
 10
1328.32
 20
1268.28
 30
1.44
 40
14.4
  1
１５１２
 50
0.0
 41
0.9
 51
0.0
  7
KANJI44
  0
TEXT
  8
0
  6
CONTINUOUS
 62
     2
 10
1424.32
 20
1239.68
 30
1.44
 40
14.4
  1
１４９９
 50
0.0
 41
0.9
 51
0.0
  7
KANJI44
  0
TEXT
  8
0
  6
CONTINUOUS
 62
     2
 10
1328.32
 20
1239.68
 30
1.44
 40
14.4
  1
１６４５
 50
0.0
 41
0.9
 51
0.0
  7
KANJI44
  0
TEXT
  8
0
  6
CONTINUOUS
 62
     2
 10
1424.32
 20
1211.08
 30
1.44
 40
14.4
  1
１５６３
 50
0.0
 41
0.9
 51
0.0
  7
KANJI44
  0
TEXT
  8
0
  6
CONTINUOUS
 62
     2
 10
1328.32
 20
1211.08
 30
1.44
 40
14.4
  1
１７０９
 50
0.0
 41
0.9
 51
0.0
  7
KANJI44
  0
TEXT
  8
0
  6
CONTINUOUS
 62
     2
 10
1424.32
 20
1182.48
 30
1.44
 40
14.4
  1
１７３６
 50
0.0
 41
0.9
 51
0.0
  7
KANJI44
  0
TEXT
  8
0
  6
CONTINUOUS
 62
     2
 10
1328.32
 20
1182.48
 30
1.44
 40
14.4
  1
１８８２
 50
0.0
 41
0.9
 51
0.0
  7
KANJI44
  0
TEXT
  8
0
  6
CONTINUOUS
 62
     2
 10
1424.32
 20
1153.88
 30
1.44
 40
14.4
  1
１８５６
 50
0.0
 41
0.9
 51
0.0
  7
KANJI44
  0
TEXT
  8
0
  6
CONTINUOUS
 62
     2
 10
1328.32
 20
1153.88
 30
1.44
 40
14.4
  1
２００２
 50
0.0
 41
0.9
 51
0.0
  7
KANJI44
  0
TEXT
  8
0
  6
CONTINUOUS
 62
     2
 10
1424.32
 20
1125.28
 30
1.44
 40
14.4
  1
１９７８
 50
0.0
 41
0.9
 51
0.0
  7
KANJI44
  0
TEXT
  8
0
  6
CONTINUOUS
 62
     2
 10
1328.32
 20
1125.28
 30
1.44
 40
14.4
  1
２１２４
 50
0.0
 41
0.9
 51
0.0
  7
KANJI44
  0
TEXT
  8
0
  6
CONTINUOUS
 62
     2
 10
1424.32
 20
1096.68
 30
1.44
 40
14.4
  1
２１１８
 50
0.0
 41
0.9
 51
0.0
  7
KANJI44
  0
TEXT
  8
0
  6
CONTINUOUS
 62
     2
 10
1328.32
 20
1096.68
 30
1.44
 40
14.4
  1
２２６４
 50
0.0
 41
0.9
 51
0.0
  7
KANJI44
  0
TEXT
  8
0
  6
CONTINUOUS
 62
     2
 10
1024.72
 20
1467.72
 30
0.96
 40
14.4
  1
ＭＣＬＢ０５－　　２Ｊ
 50
0.0
 41
0.833333333
 51
0.0
  7
KANJI49
  0
TEXT
  8
0
  6
CONTINUOUS
 62
     2
 10
1024.72
 20
1439.12
 30
0.96
 40
14.4
  1
ＭＣＬＢ０５－　　３Ｊ
 50
0.0
 41
0.833333333
 51
0.0
  7
KANJI49
  0
TEXT
  8
0
  6
CONTINUOUS
 62
     2
 10
1024.72
 20
1410.52
 30
0.96
 40
14.4
  1
ＭＣＬＢ０５－　　４Ｊ
 50
0.0
 41
0.833333333
 51
0.0
  7
KANJI49
  0
TEXT
  8
0
  6
CONTINUOUS
 62
     2
 10
1024.72
 20
1381.92
 30
0.96
 40
14.4
  1
ＭＣＬＢ０５－　　５Ｊ
 50
0.0
 41
0.833333333
 51
0.0
  7
KANJI49
  0
TEXT
  8
0
  6
CONTINUOUS
 62
     2
 10
1024.72
 20
1353.32
 30
0.96
 40
14.4
  1
ＭＣＬＢ０５－　　６Ｊ
 50
0.0
 41
0.833333333
 51
0.0
  7
KANJI49
  0
TEXT
  8
0
  6
CONTINUOUS
 62
     2
 10
1024.72
 20
1324.72
 30
0.96
 40
14.4
  1
ＭＣＬＢ０５－　　７Ｊ
 50
0.0
 41
0.833333333
 51
0.0
  7
KANJI49
  0
TEXT
  8
0
  6
CONTINUOUS
 62
     2
 10
1024.72
 20
1296.12
 30
0.96
 40
14.4
  1
ＭＣＬＢ０５－　　８Ｊ
 50
0.0
 41
0.833333333
 51
0.0
  7
KANJI49
  0
TEXT
  8
0
  6
CONTINUOUS
 62
     2
 10
1024.72
 20
1267.52
 30
0.96
 40
14.4
  1
ＭＣＬＢ０５－　　９Ｊ
 50
0.0
 41
0.833333333
 51
0.0
  7
KANJI49
  0
TEXT
  8
0
  6
CONTINUOUS
 62
     2
 10
1024.72
 20
1238.92
 30
0.96
 40
14.4
  1
ＭＣＬＢ０５－　１０Ｊ
 50
0.0
 41
0.833333333
 51
0.0
  7
KANJI49
  0
TEXT
  8
0
  6
CONTINUOUS
 62
     2
 10
1024.72
 20
1210.32
 30
0.96
 40
14.4
  1
ＭＣＬＢ０５－　１１Ｊ
 50
0.0
 41
0.833333333
 51
0.0
  7
KANJI49
  0
TEXT
  8
0
  6
CONTINUOUS
 62
     2
 10
1024.72
 20
1181.72
 30
0.96
 40
14.4
  1
ＭＣＬＢ０５－　１２Ｊ
 50
0.0
 41
0.833333333
 51
0.0
  7
KANJI49
  0
TEXT
  8
0
  6
CONTINUOUS
 62
     2
 10
1024.72
 20
1153.12
 30
0.96
 40
14.4
  1
ＭＣＬＢ０５－　１３Ｊ
 50
0.0
 41
0.833333333
 51
0.0
  7
KANJI49
  0
TEXT
  8
0
  6
CONTINUOUS
 62
     2
 10
1024.72
 20
1124.52
 30
0.96
 40
14.4
  1
ＭＣＬＢ０５－　１４Ｊ
 50
0.0
 41
0.833333333
 51
0.0
  7
KANJI49
  0
TEXT
  8
0
  6
CONTINUOUS
 62
     2
 10
1024.72
 20
1095.92
 30
0.96
 40
14.4
  1
ＭＣＬＢ０５－　１５Ｊ
 50
0.0
 41
0.833333333
 51
0.0
  7
KANJI49
  0
TEXT
  8
0
  6
CONTINUOUS
 62
     2
 10
1024.72
 20
1066.92
 30
0.96
 40
14.4
  1
ＭＣＬＢ０５－　　　Ｊ
 50
0.0
 41
0.833333333
 51
0.0
  7
KANJI49
  0
TEXT
  8
0
  6
CONTINUOUS
 62
     2
 10
1712.32
 20
1468.08
 30
1.44
 40
14.4
  1
　３９
 50
0.0
 41
0.9
 51
0.0
  7
KANJI44
  0
TEXT
  8
0
  6
CONTINUOUS
 62
     2
 10
1712.32
 20
1439.48
 30
1.44
 40
14.4
  1
　４２
 50
0.0
 41
0.9
 51
0.0
  7
KANJI44
  0
TEXT
  8
0
  6
CONTINUOUS
 62
     2
 10
1712.32
 20
1410.88
 30
1.44
 40
14.4
  1
　４４
 50
0.0
 41
0.9
 51
0.0
  7
KANJI44
  0
TEXT
  8
0
  6
CONTINUOUS
 62
     2
 10
1712.32
 20
1382.28
 30
1.44
 40
14.4
  1
　４６
 50
0.0
 41
0.9
 51
0.0
  7
KANJI44
  0
TEXT
  8
0
  6
CONTINUOUS
 62
     2
 10
1712.32
 20
1353.68
 30
1.44
 40
14.4
  1
　４８
 50
0.0
 41
0.9
 51
0.0
  7
KANJI44
  0
TEXT
  8
0
  6
CONTINUOUS
 62
     2
 10
1712.32
 20
1325.08
 30
1.44
 40
14.4
  1
　５１
 50
0.0
 41
0.9
 51
0.0
  7
KANJI44
  0
TEXT
  8
0
  6
CONTINUOUS
 62
     2
 10
1712.32
 20
1296.48
 30
1.44
 40
14.4
  1
　５４
 50
0.0
 41
0.9
 51
0.0
  7
KANJI44
  0
TEXT
  8
0
  6
CONTINUOUS
 62
     2
 10
1712.32
 20
1267.88
 30
1.44
 40
14.4
  1
　５６
 50
0.0
 41
0.9
 51
0.0
  7
KANJI44
  0
TEXT
  8
0
  6
CONTINUOUS
 62
     2
 10
1712.32
 20
1239.28
 30
1.44
 40
14.4
  1
　５８
 50
0.0
 41
0.9
 51
0.0
  7
KANJI44
  0
TEXT
  8
0
  6
CONTINUOUS
 62
     2
 10
1712.32
 20
1210.68
 30
1.44
 40
14.4
  1
　６０
 50
0.0
 41
0.9
 51
0.0
  7
KANJI44
  0
TEXT
  8
0
  6
CONTINUOUS
 62
     2
 10
1712.32
 20
1182.08
 30
1.44
 40
14.4
  1
　６２
 50
0.0
 41
0.9
 51
0.0
  7
KANJI44
  0
TEXT
  8
0
  6
CONTINUOUS
 62
     2
 10
1712.32
 20
1153.48
 30
1.44
 40
14.4
  1
　６４
 50
0.0
 41
0.9
 51
0.0
  7
KANJI44
  0
TEXT
  8
0
  6
CONTINUOUS
 62
     2
 10
1712.32
 20
1124.88
 30
1.44
 40
14.4
  1
　６６
 50
0.0
 41
0.9
 51
0.0
  7
KANJI44
  0
TEXT
  8
0
  6
CONTINUOUS
 62
     2
 10
1712.32
 20
1096.28
 30
1.44
 40
14.4
  1
　６８
 50
0.0
 41
0.9
 51
0.0
  7
KANJI44
  0
LINE
  8
0
  6
CONTINUOUS
 62
     2
 10
872.603319123
 20
199.033311846
 30
0.0
 11
872.603319123
 21
144.233311846
 31
0.0
  0
LINE
  8
0
  6
CONTINUOUS
 62
     2
 10
713.403319123
 20
186.233311846
 30
0.0
 11
872.603319123
 21
186.233311846
 31
0.0
  0
LINE
  8
0
  6
CONTINUOUS
 62
     2
 10
872.603319123
 20
186.233311846
 30
0.0
 11
864.875912513
 21
188.303864207
 31
0.0
  0
LINE
  8
0
  6
CONTINUOUS
 62
     2
 10
872.603319123
 20
186.233311846
 30
0.0
 11
864.875912513
 21
184.162759485
 31
0.0
  0
TEXT
  8
0
  6
CONTINUOUS
 62
     3
 10
748.403319123
 20
188.233311846
 30
0.0
 40
15.0
  1
常用ストローク
 50
0.0
 41
0.9
 51
0.0
  7
KANJI41
  0
TEXT
  8
0
  6
CONTINUOUS
 62
     2
 10
1643.5200334
 20
137.899994
 30
1.8
 40
21.0
  1
０７．０９．２７
 50
0.0
 41
0.571428571
 51
0.0
  7
KANJI50
  0
LINE
  8
0
  6
CONTINUOUS
 62
     2
 10
1868.92
 20
907.7
 30
0.0
 11
2393.92
 21
907.7
 31
0.0
  0
LINE
  8
0
  6
CONTINUOUS
 62
     2
 10
1868.92
 20
865.7
 30
0.0
 11
2393.92
 21
865.7
 31
0.0
  0
LINE
  8
0
  6
CONTINUOUS
 62
     2
 10
1916.92
 20
1243.7
 30
0.0
 11
1916.92
 21
907.7
 31
0.0
  0
TEXT
  8
0
  6
CONTINUOUS
 62
     2
 10
1901.92
 20
876.5
 30
79.962857143
 40
22.8
  1
付属品
 50
0.0
 41
0.9
 51
0.0
  7
KANJI51
  0
TEXT
  8
0
  6
CONTINUOUS
 62
     2
 10
1901.92
 20
834.5
 30
180.445714286
 40
22.8
  1
台数
 50
0.0
 41
0.9
 51
0.0
  7
KANJI52
  0
LINE
  8
0
  6
CONTINUOUS
 62
     1
 10
1868.92
 20
1639.7
 30
0.0
 11
2393.92
 21
1639.7
 31
0.0
  0
TEXT
  8
0
  6
CONTINUOUS
 62
     2
 10
1943.92
 20
1595.9
 30
17.09964
 40
27.0
  1
マイティシリンダ仕様
 50
0.0
 41
0.9
 51
0.0
  7
KANJI53
  0
LINE
  8
0
  6
CONTINUOUS
 62
     2
 10
1916.92
 20
949.7
 30
0.0
 11
2393.92
 21
949.7
 31
0.0
  0
LINE
  8
0
  6
CONTINUOUS
 62
     2
 10
1916.92
 20
1075.7
 30
0.0
 11
2393.92
 21
1075.7
 31
0.0
  0
LINE
  8
0
  6
CONTINUOUS
 62
     2
 10
1916.92
 20
1117.7
 30
0.0
 11
2393.92
 21
1117.7
 31
0.0
  0
LINE
  8
0
  6
CONTINUOUS
 62
     2
 10
1868.92
 20
1327.7
 30
0.0
 11
2393.92
 21
1327.7
 31
0.0
  0
LINE
  8
0
  6
CONTINUOUS
 62
     2
 10
1868.92
 20
1285.7
 30
0.0
 11
2393.92
 21
1285.7
 31
0.0
  0
LINE
  8
0
  6
CONTINUOUS
 62
     2
 10
1868.92
 20
1243.7
 30
0.0
 11
2393.92
 21
1243.7
 31
0.0
  0
LINE
  8
0
  6
CONTINUOUS
 62
     2
 10
1916.92
 20
1159.7
 30
0.0
 11
2393.92
 21
1159.7
 31
0.0
  0
LINE
  8
0
  6
CONTINUOUS
 62
     2
 10
1916.92
 20
1201.7
 30
0.0
 11
2393.92
 21
1201.7
 31
0.0
  0
LINE
  8
0
  6
CONTINUOUS
 62
     2
 10
1868.92
 20
1537.7
 30
0.0
 11
2393.92
 21
1537.7
 31
0.0
  0
LINE
  8
0
  6
CONTINUOUS
 62
     2
 10
1868.92
 20
1495.7
 30
0.0
 11
2393.92
 21
1495.7
 31
0.0
  0
LINE
  8
0
  6
CONTINUOUS
 62
     2
 10
1868.92
 20
1453.7
 30
0.0
 11
2393.92
 21
1453.7
 31
0.0
  0
LINE
  8
0
  6
CONTINUOUS
 62
     2
 10
1868.92
 20
1411.7
 30
0.0
 11
2393.92
 21
1411.7
 31
0.0
  0
LINE
  8
0
  6
CONTINUOUS
 62
     2
 10
1868.92
 20
1369.7
 30
0.0
 11
2393.92
 21
1369.7
 31
0.0
  0
LINE
  8
0
  6
CONTINUOUS
 62
     2
 10
1868.92
 20
1579.7
 30
0.0
 11
2393.92
 21
1579.7
 31
0.0
  0
TEXT
  8
0
  6
CONTINUOUS
 62
     2
 10
1943.92
 20
1170.5
 30
33.439782857
 40
22.8
  1
電源電圧
 50
0.0
 41
0.9
 51
0.0
  7
KANJI54
  0
TEXT
  8
0
  6
CONTINUOUS
 62
     2
 10
1943.92
 20
1128.5
 30
60.42
 40
22.8
  1
周波数
 50
0.0
 41
0.9
 51
0.0
  7
KANJI55
  0
TEXT
  8
0
  6
CONTINUOUS
 62
     2
 10
1943.92
 20
1086.5
 30
141.36
 40
22.8
  1
電流
 50
0.0
 41
0.9
 51
0.0
  7
KANJI56
  0
TEXT
  8
0
  6
CONTINUOUS
 62
     2
 10
1943.92
 20
1044.5
 30
60.42
 40
22.8
  1
絶縁級
 50
0.0
 41
0.9
 51
0.0
  7
KANJI55
  0
TEXT
  8
0
  6
CONTINUOUS
 62
     2
 10
1901.92
 20
1548.5
 30
180.445714286
 40
22.8
  1
形式
 50
0.0
 41
0.9
 51
0.0
  7
KANJI52
  0
TEXT
  8
0
  6
CONTINUOUS
 62
     2
 10
1901.92
 20
1506.5
 30
180.445714286
 40
22.8
  1
推力
 50
0.0
 41
0.9
 51
0.0
  7
KANJI52
  0
TEXT
  8
0
  6
CONTINUOUS
 62
     2
 10
1901.92
 20
1464.5
 30
29.721428571
 40
22.8
  1
ストローク
 50
0.0
 41
0.9
 51
0.0
  7
KANJI57
  0
TEXT
  8
0
  6
CONTINUOUS
 62
     2
 10
1901.92
 20
1338.5
 30
180.445714286
 40
22.8
  1
構造
 50
0.0
 41
0.9
 51
0.0
  7
KANJI52
  0
TEXT
  8
0
  6
CONTINUOUS
 62
     2
 10
1901.92
 20
1296.5
 30
12.973851429
 40
22.8
  1
過負荷安全装置
 50
0.0
 41
0.9
 51
0.0
  7
KANJI58
  0
TEXT
  8
0
  6
CONTINUOUS
 62
     2
 10
1901.92
 20
1254.5
 30
79.962857143
 40
22.8
  1
塗装色
 50
0.0
 41
0.9
 51
0.0
  7
KANJI51
  0
TEXT
  8
0
  6
CONTINUOUS
 62
     2
 10
1877.92
 20
1380.5
 30
1.954285714
 40
22.8
  1
ピストンロッド回転トルク
 50
0.0
 41
0.9
 51
0.0
  7
KANJI59
  0
LINE
  8
0
  6
CONTINUOUS
 62
     2
 10
1868.92
 20
1033.7
 30
0.0
 11
2393.92
 21
1033.7
 31
0.0
  0
LINE
  8
0
  6
CONTINUOUS
 62
     2
 10
1916.92
 20
991.7
 30
0.0
 11
2393.92
 21
991.7
 31
0.0
  0
TEXT
  8
0
  6
CONTINUOUS
 62
     2
 10
1893.37
 20
1237.7
 30
13.2
 40
21.0
  1
モ　トル仕様
 50
0.0
 41
0.9
 51
0.0
  7
KANJI60
  0
TEXT
  8
0
  6
CONTINUOUS
 62
     2
 10
1893.37
 20
1015.7
 30
1.2
 40
21.0
  1
ブレ　キ
 50
0.0
 41
0.9
 51
0.0
  7
KANJI61
  0
LINE
  8
0
  6
CONTINUOUS
 62
     2
 10
1891.72
 20
965.9
 30
0.0
 11
1891.72
 21
953.3
 31
0.0
  0
TEXT
  8
0
  6
CONTINUOUS
 62
     2
 10
2203.42
 20
1297.7
 30
9.0
 40
21.0
  1
推力リミッタ
 50
0.0
 41
0.9
 51
0.0
  7
KANJI62
  0
TEXT
  8
0
  6
CONTINUOUS
 62
     2
 10
2260.42
 20
1045.7
 30
1.8
 40
18.0
  1
Ｅ
 50
0.0
 41
0.9
 51
0.0
  7
KANJI63
  0
TEXT
  8
0
  6
CONTINUOUS
 62
     2
 10
2216.92
 20
960.5
 30
12.0
 40
21.0
  1
同時切り
 50
0.0
 41
0.9
 51
0.0
  7
KANJI64
  0
TEXT
  8
0
  6
CONTINUOUS
 62
     2
 10
1943.92
 20
1002.5
 30
141.36
 40
22.8
  1
形式
 50
0.0
 41
0.9
 51
0.0
  7
KANJI56
  0
TEXT
  8
0
  6
CONTINUOUS
 62
     2
 10
1943.92
 20
960.5
 30
33.439782857
 40
22.8
  1
操作方式
 50
0.0
 41
0.9
 51
0.0
  7
KANJI54
  0
LINE
  8
0
  6
CONTINUOUS
 62
     2
 10
1891.72
 20
1201.1
 30
0.0
 11
1891.72
 21
1187.3
 31
0.0
  0
TEXT
  8
0
  6
CONTINUOUS
 62
     2
 10
1943.92
 20
1212.5
 30
3.0
 40
22.8
  1
出力　相数　極数
 50
0.0
 41
0.9
 51
0.0
  7
KANJI65
  0
TEXT
  8
0
  6
CONTINUOUS
 62
     2
 10
1901.92
 20
1422.5
 30
12.0
 40
22.8
  1
公称速度
 50
0.0
 41
0.9
 51
0.0
  7
KANJI66
  0
TEXT
  8
0
  6
CONTINUOUS
 62
     2
 10
2025.82
 20
1421.3
 30
0.0
 40
21.0
  1
（５０／６０Ｈｚ）
 50
0.0
 41
0.628571429
 51
0.0
  7
KANJI67
  0
TEXT
  8
0
  6
CONTINUOUS
 62
     2
 10
2146.42
 20
1002.95
 30
3.3
 40
20.4
  1
スプリング制動式電磁ブレーキ
 50
0.0
 41
0.705882353
 51
0.0
  7
KANJI68
  0
TEXT
  8
0
  6
CONTINUOUS
 62
     2
 10
2365.42
 20
1170.5
 30
0.216
 40
18.0
  1
Ｖ
 50
0.0
 41
0.8
 51
0.0
  7
KANJI69
  0
TEXT
  8
0
  6
CONTINUOUS
 62
     2
 10
2354.62
 20
1128.5
 30
0.216
 40
18.0
  1
Ｈｚ
 50
0.0
 41
0.8
 51
0.0
  7
KANJI69
  0
TEXT
  8
0
  6
CONTINUOUS
 62
     2
 10
2365.42
 20
1086.5
 30
0.216
 40
18.0
  1
Ａ
 50
0.0
 41
0.8
 51
0.0
  7
KANJI69
  0
TEXT
  8
0
  6
CONTINUOUS
 62
     2
 10
2286.52
 20
1213.7
 30
1.8
 40
18.0
  1
３φ
 50
0.0
 41
0.9
 51
0.0
  7
KANJI63
  0
TEXT
  8
0
  6
CONTINUOUS
 62
     2
 10
2346.52
 20
1213.7
 30
1.8
 40
18.0
  1
４Ｐ
 50
0.0
 41
0.9
 51
0.0
  7
KANJI63
  0
TEXT
  8
0
  6
CONTINUOUS
 62
     2
 10
2144.92
 20
1255.7
 30
1.2
 40
19.2
  1
マンセル　７．５ＧＹ　５／４．５
 50
0.0
 41
0.71875
 51
0.0
  7
KANJI70
  0
TEXT
  8
0
  6
CONTINUOUS
 62
     2
 10
2144.92
 20
1171.7
 30
1.8
 40
18.0
  1
　　　　　　　／　　　
 50
0.0
 41
0.9
 51
0.0
  7
KANJI63
  0
TEXT
  8
0
  6
CONTINUOUS
 62
     2
 10
2144.92
 20
1129.7
 30
1.8
 40
18.0
  1
　　　　５０／　６０
 50
0.0
 41
0.9
 51
0.0
  7
KANJI63
  0
TEXT
  8
0
  6
CONTINUOUS
 62
     2
 10
2144.92
 20
1087.7
 30
1.8
 40
18.0
  1
　　　　　　　／　　　
 50
0.0
 41
0.9
 51
0.0
  7
KANJI63
  0
TEXT
  8
0
  6
CONTINUOUS
 62
     2
 10
2349.52
 20
1466.9
 30
0.1536
 40
19.2
  1
ｍｍ
 50
0.0
 41
0.8
 51
0.0
  7
KANJI71
  0
TEXT
  8
0
  6
CONTINUOUS
 62
     2
 10
2310.52
 20
1423.7
 30
0.0
 40
21.0
  1
ｍｍ／ｓｅｃ
 50
0.0
 41
0.571428571
 51
0.0
  7
KANJI72
  0
TEXT
  8
0
  6
CONTINUOUS
 62
     2
 10
2188.72
 20
1507.7
 30
1.8
 40
18.0
  1
４．９ＫＮ（５００ｋｇ）
 50
0.0
 41
0.9
 51
0.0
  7
KANJI63
  0
TEXT
  8
0
  6
CONTINUOUS
 62
     2
 10
2203.42
 20
1339.7
 30
9.0
 40
21.0
  1
全閉屋外形
 50
0.0
 41
0.9
 51
0.0
  7
KANJI62
  0
TEXT
  8
0
  6
CONTINUOUS
 62
     2
 10
2150.92
 20
1213.7
 30
1.8
 40
18.0
  1
　０．３ＫＷ
 50
0.0
 41
0.9
 51
0.0
  7
KANJI63
  0
TEXT
  8
0
  6
CONTINUOUS
 62
     2
 10
2147.92
 20
1423.7
 30
1.8
 40
18.0
  1
　２５／３０
 50
0.0
 41
0.9
 51
0.0
  7
KANJI63
  0
TEXT
  8
0
  6
CONTINUOUS
 62
     2
 10
2158.42
 20
1547.6
 30
1.2
 40
18.0
  1
ＭＣＬＢ０５－　Ｊ
 50
0.0
 41
0.833333333
 51
0.0
  7
KANJI73
  0
LINE
  8
0
  6
CONTINUOUS
 62
     1
 10
1868.92
 20
781.7
 30
0.0
 11
2393.92
 21
781.7
 31
0.0
  0
LINE
  8
0
  6
CONTINUOUS
 62
     2
 10
1868.92
 20
823.7
 30
0.0
 11
2393.92
 21
823.7
 31
0.0
  0
TEXT
  8
0
  6
CONTINUOUS
 62
     2
 10
2338.72
 20
793.88
 30
0.0
 40
21.0
  1
ｋｇ
 50
0.0
 41
0.9
 51
0.0
  7
KANJI74
  0
TEXT
  8
0
  6
CONTINUOUS
 62
     2
 10
1900.72
 20
792.5
 30
6.0
 40
21.0
  1
概算重量（１台当り）
 50
0.0
 41
0.857142857
 51
0.0
  7
KANJI75
  0
TEXT
  8
0
  6
CONTINUOUS
 62
     2
 10
2159.92
 20
1381.7
 30
0.0
 40
18.0
  1
１９．６Ｎ・ｍ（２ｋｇ・ｍ）
 50
0.0
 41
0.833333333
 51
0.0
  7
KANJI76
  0
LINE
  8
0
  6
CONTINUOUS
 62
     1
 10
1868.92
 20
1639.7
 30
0.0
 11
1868.92
 21
781.7
 31
0.0
  0
LINE
  8
0
  6
CONTINUOUS
 62
     2
 10
2144.92
 20
1579.7
 30
0.0
 11
2144.92
 21
781.7
 31
0.0
  0
LINE
  8
0
  6
CONTINUOUS
 62
     1
 10
2393.92
 20
1639.7
 30
0.0
 11
2393.92
 21
781.7
 31
0.0
  0
ENDSEC
  0
EOF
