  0
SECTION
  2
HEADER
  9
$ACADVER
  1
AC1009
  9
$DWGCODEPAGE
  3
dos932
  9
$EXTMIN
 10
0.0
 20
0.0
 30
0.0
  9
$EXTMAX
 10
2100.0
 20
1485.0
 30
0.0
  9
$LIMMIN
 10
0.0
 20
0.0
  9
$LIMMAX
 10
2100.0
 20
1485.0
  9
$LTSCALE
 40
1.0
  9
$PDMODE
 70
     0
  0
ENDSEC
  0
SECTION
  2
TABLES
  0
TABLE
  2
VPORT
 70
     1
  0
VPORT
  2
*ACTIVE
 70
     0
 10
0.0
 20
0.0
 11
1.0
 21
1.0
 12
1050.0
 22
742.5
 13
0.0
 23
0.0
 14
10.0
 24
10.0
 15
10.0
 25
10.0
 16
0.0
 26
0.0
 36
1.0
 17
0.0
 27
0.0
 37
0.0
 40
2100.0
 41
1.414141414
 42
50.0
 43
0.0
 44
0.0
 50
0.0
 51
0.0
 71
     0
 72
  1000
 73
     1
 74
     3
 75
     0
 76
     0
 77
     0
 78
     0
  0
ENDTAB
  0
TABLE
  2
LTYPE
 70
     6
  0
LTYPE
  2
CONTINUOUS
 70
    64
  3
Solid line
 72
    65
 73
     0
 40
0.0
  0
LTYPE
  2
LTYPE1
 70
    64
  3
HIDDEN
 72
    65
 73
     2
 40
15.0
 49
9.0
 49
-6.0
  0
LTYPE
  2
LTYPE2
 70
    64
  3
CENTER
 72
    65
 73
     4
 40
75.0
 49
52.5
 49
-7.5
 49
7.5
 49
-7.5
  0
LTYPE
  2
LTYPE3
 70
    64
  3
CENTER
 72
    65
 73
     4
 40
50.0
 49
35.0
 49
-5.0
 49
5.0
 49
-5.0
  0
LTYPE
  2
LTYPE4
 70
    64
  3
CENTER
 72
    65
 73
     4
 40
45.0
 49
31.5
 49
-4.5
 49
4.5
 49
-4.5
  0
LTYPE
  2
LTYPE5
 70
    64
  3
PHANTOM
 72
    65
 73
     6
 40
50.0
 49
37.5
 49
-2.5
 49
2.5
 49
-2.5
 49
2.5
 49
-2.5
  0
ENDTAB
  0
TABLE
  2
LAYER
 70
   128
  0
LAYER
  2
0
 70
     0
 62
     7
  6
CONTINUOUS
  0
LAYER
  2
2
 70
     0
 62
     7
  6
CONTINUOUS
  0
LAYER
  2
3
 70
     0
 62
     7
  6
CONTINUOUS
  0
LAYER
  2
4
 70
     0
 62
     7
  6
CONTINUOUS
  0
LAYER
  2
5
 70
     0
 62
     7
  6
CONTINUOUS
  0
LAYER
  2
6
 70
     0
 62
     7
  6
CONTINUOUS
  0
LAYER
  2
7
 70
     0
 62
     7
  6
CONTINUOUS
  0
LAYER
  2
8
 70
     0
 62
     7
  6
CONTINUOUS
  0
LAYER
  2
9
 70
     0
 62
     7
  6
CONTINUOUS
  0
LAYER
  2
10
 70
     0
 62
     7
  6
CONTINUOUS
  0
LAYER
  2
11
 70
     0
 62
     7
  6
CONTINUOUS
  0
LAYER
  2
12
 70
     0
 62
     7
  6
CONTINUOUS
  0
LAYER
  2
13
 70
     0
 62
     7
  6
CONTINUOUS
  0
LAYER
  2
14
 70
     0
 62
     7
  6
CONTINUOUS
  0
LAYER
  2
15
 70
     0
 62
     7
  6
CONTINUOUS
  0
LAYER
  2
16
 70
     0
 62
     7
  6
CONTINUOUS
  0
LAYER
  2
17
 70
     0
 62
     7
  6
CONTINUOUS
  0
LAYER
  2
18
 70
     0
 62
     7
  6
CONTINUOUS
  0
LAYER
  2
19
 70
     0
 62
     7
  6
CONTINUOUS
  0
LAYER
  2
20
 70
     0
 62
     7
  6
CONTINUOUS
  0
LAYER
  2
21
 70
     0
 62
     7
  6
CONTINUOUS
  0
LAYER
  2
22
 70
     0
 62
     7
  6
CONTINUOUS
  0
LAYER
  2
23
 70
     0
 62
     7
  6
CONTINUOUS
  0
LAYER
  2
24
 70
     0
 62
     7
  6
CONTINUOUS
  0
LAYER
  2
25
 70
     0
 62
     7
  6
CONTINUOUS
  0
LAYER
  2
26
 70
     0
 62
     7
  6
CONTINUOUS
  0
LAYER
  2
27
 70
     0
 62
     7
  6
CONTINUOUS
  0
LAYER
  2
28
 70
     0
 62
     7
  6
CONTINUOUS
  0
LAYER
  2
29
 70
     0
 62
     7
  6
CONTINUOUS
  0
LAYER
  2
30
 70
     0
 62
     7
  6
CONTINUOUS
  0
LAYER
  2
31
 70
     0
 62
     7
  6
CONTINUOUS
  0
LAYER
  2
32
 70
     0
 62
     7
  6
CONTINUOUS
  0
LAYER
  2
33
 70
     0
 62
     7
  6
CONTINUOUS
  0
LAYER
  2
34
 70
     0
 62
     7
  6
CONTINUOUS
  0
LAYER
  2
35
 70
     0
 62
     7
  6
CONTINUOUS
  0
LAYER
  2
36
 70
     0
 62
     7
  6
CONTINUOUS
  0
LAYER
  2
37
 70
     0
 62
     7
  6
CONTINUOUS
  0
LAYER
  2
38
 70
     0
 62
     7
  6
CONTINUOUS
  0
LAYER
  2
39
 70
     0
 62
     7
  6
CONTINUOUS
  0
LAYER
  2
40
 70
     0
 62
     7
  6
CONTINUOUS
  0
LAYER
  2
41
 70
     0
 62
     7
  6
CONTINUOUS
  0
LAYER
  2
42
 70
     0
 62
     7
  6
CONTINUOUS
  0
LAYER
  2
43
 70
     0
 62
     7
  6
CONTINUOUS
  0
LAYER
  2
44
 70
     0
 62
     7
  6
CONTINUOUS
  0
LAYER
  2
45
 70
     0
 62
     7
  6
CONTINUOUS
  0
LAYER
  2
46
 70
     0
 62
     7
  6
CONTINUOUS
  0
LAYER
  2
47
 70
     0
 62
     7
  6
CONTINUOUS
  0
LAYER
  2
48
 70
     0
 62
     7
  6
CONTINUOUS
  0
LAYER
  2
49
 70
     0
 62
     7
  6
CONTINUOUS
  0
LAYER
  2
50
 70
     0
 62
     7
  6
CONTINUOUS
  0
LAYER
  2
51
 70
     0
 62
     7
  6
CONTINUOUS
  0
LAYER
  2
52
 70
     0
 62
     7
  6
CONTINUOUS
  0
LAYER
  2
53
 70
     0
 62
     7
  6
CONTINUOUS
  0
LAYER
  2
54
 70
     0
 62
     7
  6
CONTINUOUS
  0
LAYER
  2
55
 70
     0
 62
     7
  6
CONTINUOUS
  0
LAYER
  2
56
 70
     0
 62
     7
  6
CONTINUOUS
  0
LAYER
  2
57
 70
     0
 62
     7
  6
CONTINUOUS
  0
LAYER
  2
58
 70
     0
 62
     7
  6
CONTINUOUS
  0
LAYER
  2
59
 70
     0
 62
     7
  6
CONTINUOUS
  0
LAYER
  2
60
 70
     0
 62
     7
  6
CONTINUOUS
  0
LAYER
  2
61
 70
     0
 62
     7
  6
CONTINUOUS
  0
LAYER
  2
62
 70
     0
 62
     7
  6
CONTINUOUS
  0
LAYER
  2
63
 70
     0
 62
     7
  6
CONTINUOUS
  0
LAYER
  2
64
 70
     0
 62
     7
  6
CONTINUOUS
  0
LAYER
  2
65
 70
     0
 62
     7
  6
CONTINUOUS
  0
LAYER
  2
66
 70
     0
 62
     7
  6
CONTINUOUS
  0
LAYER
  2
67
 70
     0
 62
     7
  6
CONTINUOUS
  0
LAYER
  2
68
 70
     0
 62
     7
  6
CONTINUOUS
  0
LAYER
  2
69
 70
     0
 62
     7
  6
CONTINUOUS
  0
LAYER
  2
70
 70
     0
 62
     7
  6
CONTINUOUS
  0
LAYER
  2
71
 70
     0
 62
     7
  6
CONTINUOUS
  0
LAYER
  2
72
 70
     0
 62
     7
  6
CONTINUOUS
  0
LAYER
  2
73
 70
     0
 62
     7
  6
CONTINUOUS
  0
LAYER
  2
74
 70
     0
 62
     7
  6
CONTINUOUS
  0
LAYER
  2
75
 70
     0
 62
     7
  6
CONTINUOUS
  0
LAYER
  2
76
 70
     0
 62
     7
  6
CONTINUOUS
  0
LAYER
  2
77
 70
     0
 62
     7
  6
CONTINUOUS
  0
LAYER
  2
78
 70
     0
 62
     7
  6
CONTINUOUS
  0
LAYER
  2
79
 70
     0
 62
     7
  6
CONTINUOUS
  0
LAYER
  2
80
 70
     0
 62
     7
  6
CONTINUOUS
  0
LAYER
  2
81
 70
     0
 62
     7
  6
CONTINUOUS
  0
LAYER
  2
82
 70
     0
 62
     7
  6
CONTINUOUS
  0
LAYER
  2
83
 70
     0
 62
     7
  6
CONTINUOUS
  0
LAYER
  2
84
 70
     0
 62
     7
  6
CONTINUOUS
  0
LAYER
  2
85
 70
     0
 62
     7
  6
CONTINUOUS
  0
LAYER
  2
86
 70
     0
 62
     7
  6
CONTINUOUS
  0
LAYER
  2
87
 70
     0
 62
     7
  6
CONTINUOUS
  0
LAYER
  2
88
 70
     0
 62
     7
  6
CONTINUOUS
  0
LAYER
  2
89
 70
     0
 62
     7
  6
CONTINUOUS
  0
LAYER
  2
90
 70
     0
 62
     7
  6
CONTINUOUS
  0
LAYER
  2
91
 70
     0
 62
     7
  6
CONTINUOUS
  0
LAYER
  2
92
 70
     0
 62
     7
  6
CONTINUOUS
  0
LAYER
  2
93
 70
     0
 62
     7
  6
CONTINUOUS
  0
LAYER
  2
94
 70
     0
 62
     7
  6
CONTINUOUS
  0
LAYER
  2
95
 70
     0
 62
     7
  6
CONTINUOUS
  0
LAYER
  2
96
 70
     0
 62
     7
  6
CONTINUOUS
  0
LAYER
  2
97
 70
     0
 62
     7
  6
CONTINUOUS
  0
LAYER
  2
98
 70
     0
 62
     7
  6
CONTINUOUS
  0
LAYER
  2
99
 70
     0
 62
     7
  6
CONTINUOUS
  0
LAYER
  2
100
 70
     0
 62
     7
  6
CONTINUOUS
  0
LAYER
  2
101
 70
     0
 62
     7
  6
CONTINUOUS
  0
LAYER
  2
102
 70
     0
 62
     7
  6
CONTINUOUS
  0
LAYER
  2
103
 70
     0
 62
     7
  6
CONTINUOUS
  0
LAYER
  2
104
 70
     0
 62
     7
  6
CONTINUOUS
  0
LAYER
  2
105
 70
     0
 62
     7
  6
CONTINUOUS
  0
LAYER
  2
106
 70
     0
 62
     7
  6
CONTINUOUS
  0
LAYER
  2
107
 70
     0
 62
     7
  6
CONTINUOUS
  0
LAYER
  2
108
 70
     0
 62
     7
  6
CONTINUOUS
  0
LAYER
  2
109
 70
     0
 62
     7
  6
CONTINUOUS
  0
LAYER
  2
110
 70
     0
 62
     7
  6
CONTINUOUS
  0
LAYER
  2
111
 70
     0
 62
     7
  6
CONTINUOUS
  0
LAYER
  2
112
 70
     0
 62
     7
  6
CONTINUOUS
  0
LAYER
  2
113
 70
     0
 62
     7
  6
CONTINUOUS
  0
LAYER
  2
114
 70
     0
 62
     7
  6
CONTINUOUS
  0
LAYER
  2
115
 70
     0
 62
     7
  6
CONTINUOUS
  0
LAYER
  2
116
 70
     0
 62
     7
  6
CONTINUOUS
  0
LAYER
  2
117
 70
     0
 62
     7
  6
CONTINUOUS
  0
LAYER
  2
118
 70
     0
 62
     7
  6
CONTINUOUS
  0
LAYER
  2
119
 70
     0
 62
     7
  6
CONTINUOUS
  0
LAYER
  2
120
 70
     0
 62
     7
  6
CONTINUOUS
  0
LAYER
  2
121
 70
     0
 62
     7
  6
CONTINUOUS
  0
LAYER
  2
122
 70
     0
 62
     7
  6
CONTINUOUS
  0
LAYER
  2
123
 70
     0
 62
     7
  6
CONTINUOUS
  0
LAYER
  2
124
 70
     0
 62
     7
  6
CONTINUOUS
  0
LAYER
  2
125
 70
     0
 62
     7
  6
CONTINUOUS
  0
LAYER
  2
126
 70
     0
 62
     7
  6
CONTINUOUS
  0
LAYER
  2
127
 70
     0
 62
     7
  6
CONTINUOUS
  0
LAYER
  2
128
 70
     0
 62
     7
  6
CONTINUOUS
  0
ENDTAB
  0
TABLE
  2
STYLE
 70
    77
  0
STYLE
  2
STANDARD
 70
     0
 40
0.0
 41
1.0
 50
0.0
 71
     0
 42
0.2
  3
txt.shx
  4
extfont.shx
  0
STYLE
  2
KANJI0
 70
     0
 40
12.8
 41
0.9
 50
0.0
 71
     0
 42
12.8
  3
txt.shx
  4
extfont.shx
  0
STYLE
  2
KANJI1
 70
     0
 40
12.0
 41
0.9
 50
0.0
 71
     0
 42
12.0
  3
txt.shx
  4
extfont.shx
  0
STYLE
  2
KANJI2
 70
     0
 40
12.0
 41
0.9
 50
0.0
 71
     0
 42
12.0
  3
txt.shx
  4
extfont.shx
  0
STYLE
  2
KANJI3
 70
     0
 40
14.0
 41
0.9
 50
0.0
 71
     0
 42
14.0
  3
txt.shx
  4
extfont.shx
  0
STYLE
  2
KANJI4
 70
     0
 40
10.8
 41
0.740740741
 50
0.0
 71
     0
 42
10.8
  3
txt.shx
  4
extfont.shx
  0
STYLE
  2
KANJI5
 70
     0
 40
14.0
 41
0.857142857
 50
0.0
 71
     0
 42
14.0
  3
txt.shx
  4
extfont.shx
  0
STYLE
  2
KANJI6
 70
     0
 40
9.999997897
 41
0.6
 50
0.0
 71
     0
 42
9.999997897
  3
txt.shx
  4
extfont.shx
  0
STYLE
  2
KANJI7
 70
     0
 40
11.999997477
 41
0.9
 50
0.0
 71
     0
 42
11.999997477
  3
txt.shx
  4
extfont.shx
  0
STYLE
  2
KANJI8
 70
     0
 40
14.999996846
 41
0.9
 50
0.0
 71
     0
 42
14.999996846
  3
txt.shx
  4
extfont.shx
  0
STYLE
  2
KANJI9
 70
     0
 40
12.999999
 41
0.75
 50
0.0
 71
     0
 42
12.999999
  3
txt.shx
  4
extfont.shx
  0
STYLE
  2
KANJI10
 70
     0
 40
8.666666
 41
0.6
 50
0.0
 71
     0
 42
8.666666
  3
txt.shx
  4
extfont.shx
  0
STYLE
  2
KANJI11
 70
     0
 40
10.3999992
 41
0.6
 50
0.0
 71
     0
 42
10.3999992
  3
txt.shx
  4
extfont.shx
  0
STYLE
  2
KANJI12
 70
     0
 40
15.1666655
 41
0.42031746
 50
0.0
 71
     0
 42
15.1666655
  3
txt.shx
  4
extfont.shx
  0
STYLE
  2
KANJI13
 70
     0
 40
25.999998
 41
0.9
 50
0.0
 71
     0
 42
25.999998
  3
txt.shx
  4
extfont.shx
  0
STYLE
  2
KANJI14
 70
     0
 40
22.5
 41
0.666666667
 50
0.0
 71
     0
 42
22.5
  3
txt.shx
  4
extfont.shx
  0
STYLE
  2
KANJI15
 70
     0
 40
18.0
 41
1.111111111
 50
0.0
 71
     0
 42
18.0
  3
txt.shx
  4
extfont.shx
  0
STYLE
  2
KANJI16
 70
     0
 40
8.666666
 41
0.8
 50
0.0
 71
     0
 42
8.666666
  3
txt.shx
  4
extfont.shx
  0
STYLE
  2
KANJI17
 70
     0
 40
10.3999992
 41
0.8
 50
0.0
 71
     0
 42
10.3999992
  3
txt.shx
  4
extfont.shx
  0
STYLE
  2
KANJI18
 70
     0
 40
25.0
 41
1.0
 50
0.0
 71
     0
 42
25.0
  3
txt.shx
  4
extfont.shx
  0
STYLE
  2
KANJI19
 70
     0
 40
25.0
 41
1.0
 50
0.0
 71
     0
 42
25.0
  3
txt.shx
  4
extfont.shx
  0
STYLE
  2
KANJI20
 70
     0
 40
25.0
 41
0.8
 50
0.0
 71
     0
 42
25.0
  3
txt.shx
  4
extfont.shx
  0
STYLE
  2
KANJI21
 70
     0
 40
20.0
 41
1.0
 50
0.0
 71
     0
 42
20.0
  3
txt.shx
  4
extfont.shx
  0
STYLE
  2
KANJI22
 70
     0
 40
17.5
 41
0.857142857
 50
0.0
 71
     0
 42
17.5
  3
txt.shx
  4
extfont.shx
  0
STYLE
  2
KANJI23
 70
     0
 40
12.0
 41
0.833333333
 50
0.0
 71
     0
 42
12.0
  3
txt.shx
  4
extfont.shx
  0
STYLE
  2
KANJI24
 70
     0
 40
17.5
 41
0.793650794
 50
0.0
 71
     0
 42
17.5
  3
txt.shx
  4
extfont.shx
  0
STYLE
  2
KANJI25
 70
     0
 40
25.0
 41
0.8
 50
0.0
 71
     0
 42
25.0
  3
txt.shx
  4
extfont.shx
  0
STYLE
  2
KANJI26
 70
     0
 40
15.0
 41
0.9
 50
0.0
 71
     0
 42
15.0
  3
txt.shx
  4
extfont.shx
  0
STYLE
  2
KANJI27
 70
     0
 40
11.55
 41
0.9
 50
0.0
 71
     0
 42
11.55
  3
txt.shx
  4
extfont.shx
  0
STYLE
  2
KANJI28
 70
     0
 40
20.0
 41
0.9
 50
0.0
 71
     0
 42
20.0
  3
txt.shx
  4
extfont.shx
  0
STYLE
  2
KANJI29
 70
     0
 40
18.0
 41
0.857142857
 50
0.0
 71
     0
 42
18.0
  3
txt.shx
  4
extfont.shx
  0
STYLE
  2
KANJI30
 70
     0
 40
18.0
 41
0.857222222
 50
0.0
 71
     0
 42
18.0
  3
txt.shx
  4
extfont.shx
  0
STYLE
  2
KANJI31
 70
     0
 40
20.0
 41
0.925
 50
0.0
 71
     0
 42
20.0
  3
txt.shx
  4
extfont.shx
  0
STYLE
  2
KANJI32
 70
     0
 40
9.0
 41
0.9
 50
0.0
 71
     0
 42
9.0
  3
txt.shx
  4
extfont.shx
  0
STYLE
  2
KANJI33
 70
     0
 40
12.0
 41
0.9
 50
0.0
 71
     0
 42
12.0
  3
txt.shx
  4
extfont.shx
  0
STYLE
  2
KANJI34
 70
     0
 40
10.933904043
 41
0.9
 50
0.0
 71
     0
 42
10.933904043
  3
txt.shx
  4
extfont.shx
  0
STYLE
  2
KANJI35
 70
     0
 40
15.185977837
 41
0.66671875
 50
0.0
 71
     0
 42
15.185977837
  3
txt.shx
  4
extfont.shx
  0
STYLE
  2
KANJI36
 70
     0
 40
18.223173404
 41
0.9
 50
0.0
 71
     0
 42
18.223173404
  3
txt.shx
  4
extfont.shx
  0
STYLE
  2
KANJI37
 70
     0
 40
15.6
 41
0.925
 50
0.0
 71
     0
 42
15.6
  3
txt.shx
  4
extfont.shx
  0
STYLE
  2
KANJI38
 70
     0
 40
14.578538724
 41
0.9
 50
0.0
 71
     0
 42
14.578538724
  3
txt.shx
  4
extfont.shx
  0
STYLE
  2
KANJI39
 70
     0
 40
15.0
 41
0.9
 50
0.0
 71
     0
 42
15.0
  3
txt.shx
  4
extfont.shx
  0
STYLE
  2
KANJI40
 70
     0
 40
20.0
 41
0.925
 50
0.0
 71
     0
 42
20.0
  3
txt.shx
  4
extfont.shx
  0
STYLE
  2
KANJI41
 70
     0
 40
13.182
 41
0.85
 50
0.0
 71
     0
 42
13.182
  3
txt.shx
  4
extfont.shx
  0
STYLE
  2
KANJI42
 70
     0
 40
11.661
 41
0.822608696
 50
0.0
 71
     0
 42
11.661
  3
txt.shx
  4
extfont.shx
  0
STYLE
  2
KANJI43
 70
     0
 40
11.8638
 41
0.726495726
 50
0.0
 71
     0
 42
11.8638
  3
txt.shx
  4
extfont.shx
  0
STYLE
  2
KANJI44
 70
     4
 40
45.0
 41
0.538166667
 50
0.0
 71
     0
 42
45.0
  3
txt.shx
  4
extfont.shx
  0
STYLE
  2
KANJI45
 70
     0
 40
17.740702234
 41
0.880962996
 50
0.0
 71
     0
 42
17.740702234
  3
txt.shx
  4
extfont.shx
  0
STYLE
  2
KANJI46
 70
     0
 40
11.7
 41
0.8
 50
0.0
 71
     0
 42
11.7
  3
txt.shx
  4
extfont.shx
  0
STYLE
  2
KANJI47
 70
     0
 40
15.0
 41
0.911
 50
0.0
 71
     0
 42
15.0
  3
txt.shx
  4
extfont.shx
  0
STYLE
  2
KANJI48
 70
     0
 40
13.475
 41
0.9
 50
0.0
 71
     0
 42
13.475
  3
txt.shx
  4
extfont.shx
  0
STYLE
  2
KANJI49
 70
     0
 40
17.5
 41
0.571428571
 50
0.0
 71
     0
 42
17.5
  3
txt.shx
  4
extfont.shx
  0
STYLE
  2
KANJI50
 70
     0
 40
22.5
 41
0.9
 50
0.0
 71
     0
 42
22.5
  3
txt.shx
  4
extfont.shx
  0
STYLE
  2
KANJI51
 70
     0
 40
19.0
 41
0.9
 50
0.0
 71
     0
 42
19.0
  3
txt.shx
  4
extfont.shx
  0
STYLE
  2
KANJI52
 70
     0
 40
19.0
 41
0.9
 50
0.0
 71
     0
 42
19.0
  3
txt.shx
  4
extfont.shx
  0
STYLE
  2
KANJI53
 70
     0
 40
19.0
 41
0.9
 50
0.0
 71
     0
 42
19.0
  3
txt.shx
  4
extfont.shx
  0
STYLE
  2
KANJI54
 70
     0
 40
19.0
 41
0.9
 50
0.0
 71
     0
 42
19.0
  3
txt.shx
  4
extfont.shx
  0
STYLE
  2
KANJI55
 70
     0
 40
19.0
 41
0.9
 50
0.0
 71
     0
 42
19.0
  3
txt.shx
  4
extfont.shx
  0
STYLE
  2
KANJI56
 70
     0
 40
19.0
 41
0.9
 50
0.0
 71
     0
 42
19.0
  3
txt.shx
  4
extfont.shx
  0
STYLE
  2
KANJI57
 70
     0
 40
19.0
 41
0.9
 50
0.0
 71
     0
 42
19.0
  3
txt.shx
  4
extfont.shx
  0
STYLE
  2
KANJI58
 70
     0
 40
19.0
 41
0.9
 50
0.0
 71
     0
 42
19.0
  3
txt.shx
  4
extfont.shx
  0
STYLE
  2
KANJI59
 70
     4
 40
17.5
 41
0.9
 50
0.0
 71
     0
 42
17.5
  3
txt.shx
  4
extfont.shx
  0
STYLE
  2
KANJI60
 70
     4
 40
17.5
 41
0.9
 50
0.0
 71
     0
 42
17.5
  3
txt.shx
  4
extfont.shx
  0
STYLE
  2
KANJI61
 70
     0
 40
17.5
 41
0.9
 50
0.0
 71
     0
 42
17.5
  3
txt.shx
  4
extfont.shx
  0
STYLE
  2
KANJI62
 70
     0
 40
15.0
 41
0.9
 50
0.0
 71
     0
 42
15.0
  3
txt.shx
  4
extfont.shx
  0
STYLE
  2
KANJI63
 70
     0
 40
17.5
 41
0.9
 50
0.0
 71
     0
 42
17.5
  3
txt.shx
  4
extfont.shx
  0
STYLE
  2
KANJI64
 70
     0
 40
19.0
 41
0.9
 50
0.0
 71
     0
 42
19.0
  3
txt.shx
  4
extfont.shx
  0
STYLE
  2
KANJI65
 70
     0
 40
19.0
 41
0.9
 50
0.0
 71
     0
 42
19.0
  3
txt.shx
  4
extfont.shx
  0
STYLE
  2
KANJI66
 70
     0
 40
17.5
 41
0.628571429
 50
0.0
 71
     0
 42
17.5
  3
txt.shx
  4
extfont.shx
  0
STYLE
  2
KANJI67
 70
     0
 40
17.0
 41
0.705882353
 50
0.0
 71
     0
 42
17.0
  3
txt.shx
  4
extfont.shx
  0
STYLE
  2
KANJI68
 70
     0
 40
15.0
 41
0.8
 50
0.0
 71
     0
 42
15.0
  3
txt.shx
  4
extfont.shx
  0
STYLE
  2
KANJI69
 70
     0
 40
16.0
 41
0.71875
 50
0.0
 71
     0
 42
16.0
  3
txt.shx
  4
extfont.shx
  0
STYLE
  2
KANJI70
 70
     0
 40
16.0
 41
0.8
 50
0.0
 71
     0
 42
16.0
  3
txt.shx
  4
extfont.shx
  0
STYLE
  2
KANJI71
 70
     0
 40
15.0
 41
0.833333333
 50
0.0
 71
     0
 42
15.0
  3
txt.shx
  4
extfont.shx
  0
STYLE
  2
KANJI72
 70
     0
 40
17.5
 41
0.9
 50
0.0
 71
     0
 42
17.5
  3
txt.shx
  4
extfont.shx
  0
STYLE
  2
KANJI73
 70
     0
 40
15.0
 41
0.766666667
 50
0.0
 71
     0
 42
15.0
  3
txt.shx
  4
extfont.shx
  0
STYLE
  2
KANJI74
 70
     0
 40
17.5
 41
0.571428571
 50
0.0
 71
     0
 42
17.5
  3
txt.shx
  4
extfont.shx
  0
STYLE
  2
KANJI75
 70
     0
 40
15.0
 41
0.9
 50
0.0
 71
     0
 42
15.0
  3
txt.shx
  4
extfont.shx
  0
ENDTAB
  0
TABLE
  2
VIEW
 70
     0
  0
ENDTAB
  0
ENDSEC
  0
SECTION
  2
BLOCKS
  0
ENDSEC
  0
SECTION
  2
ENTITIES
  0
LINE
  8
0
  6
CONTINUOUS
 62
     6
 10
69.1
 20
50.75
 30
0.0
 11
69.1
 21
1395.75
 31
0.0
  0
LINE
  8
0
  6
CONTINUOUS
 62
     6
 10
69.1
 20
1395.75
 30
0.0
 11
2004.1
 21
1395.75
 31
0.0
  0
LINE
  8
0
  6
CONTINUOUS
 62
     1
 10
845.1
 20
1233.7
 30
0.0
 11
1493.1
 21
1233.7
 31
0.0
  0
LINE
  8
0
  6
CONTINUOUS
 62
     1
 10
845.1
 20
1205.7
 30
0.0
 11
1493.1
 21
1205.7
 31
0.0
  0
LINE
  8
0
  6
CONTINUOUS
 62
     2
 10
845.1
 20
1177.7
 30
0.0
 11
1493.1
 21
1177.7
 31
0.0
  0
LINE
  8
0
  6
CONTINUOUS
 62
     2
 10
845.1
 20
1149.7
 30
0.0
 11
1493.1
 21
1149.7
 31
0.0
  0
LINE
  8
0
  6
CONTINUOUS
 62
     2
 10
845.1
 20
1121.7
 30
0.0
 11
1493.1
 21
1121.7
 31
0.0
  0
TEXT
  8
0
  6
CONTINUOUS
 62
     2
 10
885.1
 20
1213.7
 30
1.28
 40
12.8
  1
形
 50
0.0
 41
0.9
 51
0.0
  7
KANJI0
  0
TEXT
  8
0
  6
CONTINUOUS
 62
     2
 10
963.1
 20
1213.7
 30
1.28
 40
12.8
  1
式
 50
0.0
 41
0.9
 51
0.0
  7
KANJI0
  0
TEXT
  8
0
  6
CONTINUOUS
 62
     2
 10
1023.5
 20
1212.9
 30
1.2
 40
12.0
  1
ストローク
 50
0.0
 41
0.9
 51
0.0
  7
KANJI1
  0
TEXT
  8
0
  6
CONTINUOUS
 62
     2
 10
1100.3
 20
1212.1
 30
0.0
 40
12.0
  1
ｍｉｎ　
 50
0.0
 41
0.9
 51
0.0
  7
KANJI2
  0
TEXT
  8
0
  6
CONTINUOUS
 62
     2
 10
1180.3
 20
1212.1
 30
0.0
 40
12.0
  1
ｍｉｎ　
 50
0.0
 41
0.9
 51
0.0
  7
KANJI2
  0
TEXT
  8
0
  6
CONTINUOUS
 62
     2
 10
1340.3
 20
1212.1
 30
0.0
 40
12.0
  1
ｍｉｎ　
 50
0.0
 41
0.9
 51
0.0
  7
KANJI2
  0
TEXT
  8
0
  6
CONTINUOUS
 62
     2
 10
1141.1
 20
1212.9
 30
1.4
 40
14.0
  1
ＡＬ
 50
0.0
 41
0.9
 51
0.0
  7
KANJI3
  0
TEXT
  8
0
  6
CONTINUOUS
 62
     2
 10
1221.1
 20
1212.9
 30
1.4
 40
14.0
  1
Ｌ
 50
0.0
 41
0.9
 51
0.0
  7
KANJI3
  0
TEXT
  8
0
  6
CONTINUOUS
 62
     2
 10
1289.1
 20
1212.9
 30
1.4
 40
14.0
  1
Ｃ
 50
0.0
 41
0.9
 51
0.0
  7
KANJI3
  0
TEXT
  8
0
  6
CONTINUOUS
 62
     2
 10
1381.1
 20
1212.9
 30
1.4
 40
14.0
  1
Ｐ
 50
0.0
 41
0.9
 51
0.0
  7
KANJI3
  0
TEXT
  8
0
  6
CONTINUOUS
 62
     2
 10
1463.4
 20
1212.6
 30
0.0
 40
10.8
  1
（ｋｇ）
 50
0.0
 41
0.740740741
 51
0.0
  7
KANJI4
  0
TEXT
  8
0
  6
CONTINUOUS
 62
     2
 10
1415.4
 20
1212.4
 30
1.2
 40
14.0
  1
概算重量
 50
0.0
 41
0.857142857
 51
0.0
  7
KANJI5
  0
TEXT
  8
0
  6
CONTINUOUS
 62
     2
 10
1031.1
 20
1184.4
 30
1.2
 40
12.0
  1
　１００
 50
0.0
 41
0.9
 51
0.0
  7
KANJI1
  0
TEXT
  8
0
  6
CONTINUOUS
 62
     2
 10
1031.1
 20
1156.4
 30
1.2
 40
12.0
  1
　２００
 50
0.0
 41
0.9
 51
0.0
  7
KANJI1
  0
TEXT
  8
0
  6
CONTINUOUS
 62
     2
 10
1031.1
 20
1128.4
 30
1.2
 40
12.0
  1
　３００
 50
0.0
 41
0.9
 51
0.0
  7
KANJI1
  0
TEXT
  8
0
  6
CONTINUOUS
 62
     2
 10
1191.1
 20
1128.4
 30
1.2
 40
12.0
  1
　５０８
 50
0.0
 41
0.9
 51
0.0
  7
KANJI1
  0
TEXT
  8
0
  6
CONTINUOUS
 62
     2
 10
1191.1
 20
1156.4
 30
1.2
 40
12.0
  1
　４０８
 50
0.0
 41
0.9
 51
0.0
  7
KANJI1
  0
TEXT
  8
0
  6
CONTINUOUS
 62
     2
 10
1271.1
 20
1184.4
 30
1.2
 40
12.0
  1
　２３８
 50
0.0
 41
0.9
 51
0.0
  7
KANJI1
  0
TEXT
  8
0
  6
CONTINUOUS
 62
     2
 10
1271.1
 20
1156.4
 30
1.2
 40
12.0
  1
　３３８
 50
0.0
 41
0.9
 51
0.0
  7
KANJI1
  0
TEXT
  8
0
  6
CONTINUOUS
 62
     2
 10
1271.1
 20
1128.4
 30
1.2
 40
12.0
  1
　４３８
 50
0.0
 41
0.9
 51
0.0
  7
KANJI1
  0
TEXT
  8
0
  6
CONTINUOUS
 62
     2
 10
1351.1
 20
1128.4
 30
1.2
 40
12.0
  1
　　３５
 50
0.0
 41
0.9
 51
0.0
  7
KANJI1
  0
TEXT
  8
0
  6
CONTINUOUS
 62
     2
 10
1351.1
 20
1156.4
 30
1.2
 40
12.0
  1
　　３５
 50
0.0
 41
0.9
 51
0.0
  7
KANJI1
  0
TEXT
  8
0
  6
CONTINUOUS
 62
     2
 10
1351.1
 20
1184.4
 30
1.2
 40
12.0
  1
　　３５
 50
0.0
 41
0.9
 51
0.0
  7
KANJI1
  0
TEXT
  8
0
  6
CONTINUOUS
 62
     2
 10
1031.1
 20
1016.4
 30
1.2
 40
12.0
  1
　７００
 50
0.0
 41
0.9
 51
0.0
  7
KANJI1
  0
TEXT
  8
0
  6
CONTINUOUS
 62
     2
 10
1271.1
 20
1016.4
 30
1.2
 40
12.0
  1
　８７８
 50
0.0
 41
0.9
 51
0.0
  7
KANJI1
  0
LINE
  8
0
  6
CONTINUOUS
 62
     2
 10
845.1
 20
1065.7
 30
0.0
 11
1493.1
 21
1065.7
 31
0.0
  0
LINE
  8
0
  6
CONTINUOUS
 62
     2
 10
845.1
 20
1093.7
 30
0.0
 11
1493.1
 21
1093.7
 31
0.0
  0
LINE
  8
0
  6
CONTINUOUS
 62
     2
 10
845.1
 20
1009.7
 30
0.0
 11
1493.1
 21
1009.7
 31
0.0
  0
LINE
  8
0
  6
CONTINUOUS
 62
     2
 10
845.1
 20
1037.7
 30
0.0
 11
1493.1
 21
1037.7
 31
0.0
  0
TEXT
  8
0
  6
CONTINUOUS
 62
     2
 10
1031.1
 20
1072.4
 30
1.2
 40
12.0
  1
　５００
 50
0.0
 41
0.9
 51
0.0
  7
KANJI1
  0
TEXT
  8
0
  6
CONTINUOUS
 62
     2
 10
1271.1
 20
1072.4
 30
1.2
 40
12.0
  1
　６３８
 50
0.0
 41
0.9
 51
0.0
  7
KANJI1
  0
TEXT
  8
0
  6
CONTINUOUS
 62
     2
 10
1031.1
 20
1100.4
 30
1.2
 40
12.0
  1
　４００
 50
0.0
 41
0.9
 51
0.0
  7
KANJI1
  0
TEXT
  8
0
  6
CONTINUOUS
 62
     2
 10
1031.1
 20
1044.4
 30
1.2
 40
12.0
  1
　６００
 50
0.0
 41
0.9
 51
0.0
  7
KANJI1
  0
TEXT
  8
0
  6
CONTINUOUS
 62
     2
 10
1271.1
 20
1100.4
 30
1.2
 40
12.0
  1
　５３８
 50
0.0
 41
0.9
 51
0.0
  7
KANJI1
  0
TEXT
  8
0
  6
CONTINUOUS
 62
     2
 10
1271.1
 20
1044.4
 30
1.2
 40
12.0
  1
　７７８
 50
0.0
 41
0.9
 51
0.0
  7
KANJI1
  0
TEXT
  8
0
  6
CONTINUOUS
 62
     2
 10
1191.1
 20
1184.4
 30
1.2
 40
12.0
  1
　３０８
 50
0.0
 41
0.9
 51
0.0
  7
KANJI1
  0
TEXT
  8
0
  6
CONTINUOUS
 62
     2
 10
1111.1
 20
1184.4
 30
1.2
 40
12.0
  1
　４５０
 50
0.0
 41
0.9
 51
0.0
  7
KANJI1
  0
TEXT
  8
0
  6
CONTINUOUS
 62
     2
 10
1111.1
 20
1156.4
 30
1.2
 40
12.0
  1
　５５０
 50
0.0
 41
0.9
 51
0.0
  7
KANJI1
  0
TEXT
  8
0
  6
CONTINUOUS
 62
     2
 10
1111.1
 20
1128.4
 30
1.2
 40
12.0
  1
　６５０
 50
0.0
 41
0.9
 51
0.0
  7
KANJI1
  0
TEXT
  8
0
  6
CONTINUOUS
 62
     4
 10
84.099996846
 20
75.749994744
 30
0.99999979
 40
9.999997897
  1
ＰＡＲＴＳ　ＬＩＳＴ
 50
0.0
 41
0.6
 51
0.0
  7
KANJI6
  0
TEXT
  8
0
  6
CONTINUOUS
 62
     4
 10
84.099996846
 20
60.749997897
 30
1.199999748
 40
11.999997477
  1
部品表
 50
0.0
 41
0.9
 51
0.0
  7
KANJI7
  0
LINE
  8
0
  6
CONTINUOUS
 62
     6
 10
74.099998949
 20
125.749984231
 30
0.0
 11
399.099930615
 21
125.749984231
 31
0.0
  0
LINE
  8
0
  6
CONTINUOUS
 62
     6
 10
74.099998949
 20
55.749998949
 30
0.0
 11
399.099930615
 21
55.749998949
 31
0.0
  0
LINE
  8
0
  6
CONTINUOUS
 62
     6
 10
74.099998949
 20
55.749998949
 30
0.0
 11
74.099998949
 21
125.749984231
 31
0.0
  0
LINE
  8
0
  6
CONTINUOUS
 62
     6
 10
74.099998949
 20
90.74999159
 30
0.0
 11
399.099930615
 21
90.74999159
 31
0.0
  0
TEXT
  8
0
  6
CONTINUOUS
 62
     3
 10
84.099996846
 20
100.749989487
 30
1.499999685
 40
14.999996846
  1
ＰＬ
 50
0.0
 41
0.9
 51
0.0
  7
KANJI8
  0
LINE
  8
0
  6
CONTINUOUS
 62
     4
 10
12.183333
 20
55.083333
 30
0.0
 11
64.183329
 21
55.083333
 31
0.0
  0
LINE
  8
0
  6
CONTINUOUS
 62
     4
 10
12.183333
 20
81.083331
 30
0.0
 11
64.183329
 21
81.083331
 31
0.0
  0
LINE
  8
0
  6
CONTINUOUS
 62
     4
 10
12.183333
 20
107.083329
 30
0.0
 11
64.183329
 21
107.083329
 31
0.0
  0
LINE
  8
0
  6
CONTINUOUS
 62
     4
 10
12.183333
 20
133.083327
 30
0.0
 11
64.183329
 21
133.083327
 31
0.0
  0
LINE
  8
0
  6
CONTINUOUS
 62
     4
 10
12.183333
 20
159.083325
 30
0.0
 11
64.183329
 21
159.083325
 31
0.0
  0
LINE
  8
0
  6
CONTINUOUS
 62
     4
 10
12.183333
 20
185.083323
 30
0.0
 11
64.183329
 21
185.083323
 31
0.0
  0
LINE
  8
0
  6
CONTINUOUS
 62
     4
 10
12.183333
 20
211.083321
 30
0.0
 11
64.183329
 21
211.083321
 31
0.0
  0
LINE
  8
0
  6
CONTINUOUS
 62
     4
 10
12.183333
 20
237.083319
 30
0.0
 11
64.183329
 21
237.083319
 31
0.0
  0
LINE
  8
0
  6
CONTINUOUS
 62
     4
 10
12.183333
 20
263.083317
 30
0.0
 11
64.183329
 21
263.083317
 31
0.0
  0
LINE
  8
0
  6
CONTINUOUS
 62
     4
 10
12.183333
 20
289.083315
 30
0.0
 11
64.183329
 21
289.083315
 31
0.0
  0
LINE
  8
0
  6
CONTINUOUS
 62
     4
 10
64.183329
 20
55.083333
 30
0.0
 11
64.183329
 21
289.083315
 31
0.0
  0
LINE
  8
0
  6
CONTINUOUS
 62
     4
 10
38.183331
 20
55.083333
 30
0.0
 11
38.183331
 21
263.083317
 31
0.0
  0
TEXT
  8
0
  6
CONTINUOUS
 62
     4
 10
21.06666565
 20
62.66666575
 30
1.2999999
 40
12.999999
  1
計
 50
0.0
 41
0.75
 51
0.0
  7
KANJI9
  0
TEXT
  8
0
  6
CONTINUOUS
 62
     4
 10
21.06666565
 20
115.09999505
 30
1.2999999
 40
12.999999
  1
設
 50
0.0
 41
0.75
 51
0.0
  7
KANJI9
  0
TEXT
  8
0
  6
CONTINUOUS
 62
     4
 10
21.06666565
 20
140.66665975
 30
1.2999999
 40
12.999999
  1
管
 50
0.0
 41
0.75
 51
0.0
  7
KANJI9
  0
TEXT
  8
0
  6
CONTINUOUS
 62
     4
 10
21.06666565
 20
166.66665775
 30
1.2999999
 40
12.999999
  1
製
 50
0.0
 41
0.75
 51
0.0
  7
KANJI9
  0
TEXT
  8
0
  6
CONTINUOUS
 62
     4
 10
21.06666565
 20
192.66665575
 30
1.2999999
 40
12.999999
  1
資
 50
0.0
 41
0.75
 51
0.0
  7
KANJI9
  0
TEXT
  8
0
  6
CONTINUOUS
 62
     4
 10
21.06666565
 20
218.66665375
 30
1.2999999
 40
12.999999
  1
営
 50
0.0
 41
0.75
 51
0.0
  7
KANJI9
  0
TEXT
  8
0
  6
CONTINUOUS
 62
     4
 10
21.06666565
 20
244.66665175
 30
1.2999999
 40
12.999999
  1
客
 50
0.0
 41
0.75
 51
0.0
  7
KANJI9
  0
TEXT
  8
0
  6
CONTINUOUS
 62
     4
 10
20.849999
 20
271.749983
 30
1.2999999
 40
12.999999
  1
出　図
 50
0.0
 41
0.75
 51
0.0
  7
KANJI9
  0
LINE
  8
0
  6
CONTINUOUS
 62
     4
 10
12.183333
 20
55.083333
 30
0.0
 11
12.183333
 21
289.083315
 31
0.0
  0
TEXT
  8
0
  6
CONTINUOUS
 62
     4
 10
309.099949538
 20
75.749994744
 30
0.99999979
 40
9.999997897
  1
Ｎ０．
 50
0.0
 41
0.6
 51
0.0
  7
KANJI6
  0
TEXT
  8
0
  6
CONTINUOUS
 62
     4
 10
309.099949538
 20
60.749997897
 30
1.199999748
 40
11.999997477
  1
項番
 50
0.0
 41
0.9
 51
0.0
  7
KANJI7
  0
LINE
  8
0
  6
CONTINUOUS
 62
     6
 10
2004.1
 20
50.75
 30
0.0
 11
69.1
 21
50.75
 31
0.0
  0
LINE
  8
0
  6
CONTINUOUS
 62
     6
 10
399.099930615
 20
55.749998949
 30
0.0
 11
399.099930615
 21
125.749984231
 31
0.0
  0
LINE
  8
0
  6
CONTINUOUS
 62
     6
 10
299.099951641
 20
55.749998949
 30
0.0
 11
299.099951641
 21
125.749984231
 31
0.0
  0
LINE
  8
0
  6
CONTINUOUS
 62
     6
 10
2004.1
 20
1395.75
 30
0.0
 11
2004.1
 21
50.75
 31
0.0
  0
LINE
  8
0
  6
CONTINUOUS
 62
     6
 10
1332.433385
 20
55.083333
 30
0.0
 11
1332.433385
 21
332.416645
 31
0.0
  0
LINE
  8
0
  6
CONTINUOUS
 62
     6
 10
1999.766667
 20
55.083333
 30
0.0
 11
1999.766667
 21
332.416645
 31
0.0
  0
LINE
  8
0
  6
CONTINUOUS
 62
     4
 10
1490.6000395
 20
55.083333
 30
0.0
 11
1490.6000395
 21
332.416645
 31
0.0
  0
LINE
  8
0
  6
CONTINUOUS
 62
     4
 10
1332.433385
 20
89.749997
 30
0.0
 11
1490.6000395
 21
89.749997
 31
0.0
  0
TEXT
  8
0
  6
CONTINUOUS
 62
     4
 10
1341.100051
 20
74.5833315
 30
0.8666666
 40
8.666666
  1
ＳＣＡＬＥ
 50
0.0
 41
0.6
 51
0.0
  7
KANJI10
  0
TEXT
  8
0
  6
CONTINUOUS
 62
     4
 10
1341.100051
 20
61.5833325
 30
1.03999992
 40
10.3999992
  1
尺度
 50
0.0
 41
0.6
 51
0.0
  7
KANJI11
  0
LINE
  8
0
  6
CONTINUOUS
 62
     6
 10
990.100078
 20
89.749997
 30
0.0
 11
1332.433385
 21
89.749997
 31
0.0
  0
LINE
  8
0
  6
CONTINUOUS
 62
     6
 10
990.100078
 20
55.083333
 30
0.0
 11
1999.766667
 21
55.083333
 31
0.0
  0
TEXT
  8
0
  6
CONTINUOUS
 62
     6
 10
1494.9333725
 20
74.5833315
 30
0.0
 40
15.1666655
  1
ＵＮＩＴＥＣ　ＩＮＤＵＳＴＲＹ　ＣＯ．，ＬＴＤ．
 50
0.0
 41
0.42031746
 51
0.0
  7
KANJI12
  0
TEXT
  8
0
  6
CONTINUOUS
 62
     6
 10
1707.645856138
 20
68.9499986
 30
2.5999998
 40
25.999998
  1
ユニテック工業株式会社
 50
0.0
 41
0.9
 51
0.0
  7
KANJI13
  0
LINE
  8
0
  6
CONTINUOUS
 62
     6
 10
1672.979192138
 20
78.0499979
 30
0.0
 11
1661.539193018
 21
78.0499979
 31
0.0
  0
LINE
  8
0
  6
CONTINUOUS
 62
     6
 10
1672.979192138
 20
80.12999774
 30
0.0
 11
1661.539193018
 21
80.12999774
 31
0.0
  0
LINE
  8
0
  6
CONTINUOUS
 62
     6
 10
1672.979192138
 20
78.0499979
 30
0.0
 11
1684.419191258
 21
78.0499979
 31
0.0
  0
LINE
  8
0
  6
CONTINUOUS
 62
     6
 10
1672.979192138
 20
80.12999774
 30
0.0
 11
1684.419191258
 21
80.12999774
 31
0.0
  0
LINE
  8
0
  6
CONTINUOUS
 62
     6
 10
1684.419191258
 20
80.12999774
 30
0.0
 11
1684.419191258
 21
78.0499979
 31
0.0
  0
ARC
  8
0
  6
CONTINUOUS
 62
     6
 10
1687.019191058
 20
79.08999782
 30
0.0
 40
10.3999992
 50
185.739170477
 51
90.0
  0
ARC
  8
0
  6
CONTINUOUS
 62
     6
 10
1687.019191058
 20
79.08999782
 30
0.0
 40
12.47999904
 50
184.780191847
 51
90.0
  0
LINE
  8
0
  6
CONTINUOUS
 62
     6
 10
1661.539193018
 20
78.0499979
 30
0.0
 11
1661.539193018
 21
80.12999774
 31
0.0
  0
ARC
  8
0
  6
CONTINUOUS
 62
     6
 10
1658.939193218
 20
79.08999782
 30
0.0
 40
10.3999992
 50
90.0
 51
354.260829523
  0
ARC
  8
0
  6
CONTINUOUS
 62
     6
 10
1658.939193218
 20
79.08999782
 30
0.0
 40
12.47999904
 50
90.0
 51
355.219808153
  0
LINE
  8
0
  6
CONTINUOUS
 62
     6
 10
1671.419192258
 20
91.56999686
 30
0.0
 11
1671.419192258
 21
89.48999702
 31
0.0
  0
LINE
  8
0
  6
CONTINUOUS
 62
     6
 10
1658.939193218
 20
89.48999702
 30
0.0
 11
1671.419192258
 21
89.48999702
 31
0.0
  0
LINE
  8
0
  6
CONTINUOUS
 62
     6
 10
1674.539192018
 20
91.56999686
 30
0.0
 11
1674.539192018
 21
89.48999702
 31
0.0
  0
LINE
  8
0
  6
CONTINUOUS
 62
     6
 10
1687.019191058
 20
89.48999702
 30
0.0
 11
1674.539192018
 21
89.48999702
 31
0.0
  0
TEXT
  8
0
  6
CONTINUOUS
 62
     2
 10
1424.1
 20
60.75
 30
1.5
 40
22.5
  1
１／５
 50
0.0
 41
0.666666667
 51
0.0
  7
KANJI14
  0
TEXT
  8
0
  6
CONTINUOUS
 62
     4
 10
1100.6000695
 20
74.5833315
 30
0.8666666
 40
8.666666
  1
ＢＹ
 50
0.0
 41
0.6
 51
0.0
  7
KANJI10
  0
TEXT
  8
0
  6
CONTINUOUS
 62
     4
 10
1195.9333955
 20
74.5833315
 30
0.8666666
 40
8.666666
  1
ＤＥＳＣＲＩＰＴＩＯＮ
 50
0.0
 41
0.6
 51
0.0
  7
KANJI10
  0
TEXT
  8
0
  6
CONTINUOUS
 62
     4
 10
1100.6000695
 20
61.5833325
 30
1.03999992
 40
10.3999992
  1
担当
 50
0.0
 41
0.6
 51
0.0
  7
KANJI11
  0
TEXT
  8
0
  6
CONTINUOUS
 62
     4
 10
1208.9333945
 20
61.5833325
 30
1.03999992
 40
10.3999992
  1
記　　　　事
 50
0.0
 41
0.6
 51
0.0
  7
KANJI11
  0
LINE
  8
0
  6
CONTINUOUS
 62
     4
 10
1008.51674325
 20
83.2499975
 30
0.0
 11
994.433411
 21
61.5833325
 31
0.0
  0
TEXT
  8
0
  6
CONTINUOUS
 62
     4
 10
1044.2667405
 20
74.5833315
 30
0.8666666
 40
8.666666
  1
ＤＡＴＥ
 50
0.0
 41
0.6
 51
0.0
  7
KANJI10
  0
TEXT
  8
0
  6
CONTINUOUS
 62
     4
 10
1050.76674
 20
61.5833325
 30
1.03999992
 40
10.3999992
  1
日付
 50
0.0
 41
0.6
 51
0.0
  7
KANJI11
  0
LINE
  8
0
  6
CONTINUOUS
 62
     4
 10
994.433411
 20
61.5833325
 30
0.0
 11
1022.6000755
 21
61.5833325
 31
0.0
  0
LINE
  8
0
  6
CONTINUOUS
 62
     4
 10
1008.51674325
 20
83.2499975
 30
0.0
 11
1022.6000755
 21
61.5833325
 31
0.0
  0
LINE
  8
0
  6
CONTINUOUS
 62
     6
 10
990.100078
 20
55.083333
 30
0.0
 11
990.100078
 21
89.749997
 31
0.0
  0
LINE
  8
0
  6
CONTINUOUS
 62
     4
 10
1026.9334085
 20
55.083333
 30
0.0
 11
1026.9334085
 21
89.749997
 31
0.0
  0
LINE
  8
0
  6
CONTINUOUS
 62
     4
 10
1087.6000705
 20
55.083333
 30
0.0
 11
1087.6000705
 21
89.749997
 31
0.0
  0
LINE
  8
0
  6
CONTINUOUS
 62
     4
 10
1126.6000675
 20
55.083333
 30
0.0
 11
1126.6000675
 21
89.749997
 31
0.0
  0
TEXT
  8
0
  6
CONTINUOUS
 62
     4
 10
1341.100051
 20
247.9166515
 30
0.8666666
 40
8.666666
  1
ＣＯＤＥ
 50
0.0
 41
0.6
 51
0.0
  7
KANJI10
  0
LINE
  8
0
  6
CONTINUOUS
 62
     4
 10
1332.433385
 20
263.083317
 30
0.0
 11
1999.766667
 21
263.083317
 31
0.0
  0
TEXT
  8
0
  6
CONTINUOUS
 62
     4
 10
1341.100051
 20
234.9166525
 30
1.03999992
 40
10.3999992
  1
分類
 50
0.0
 41
0.6
 51
0.0
  7
KANJI11
  0
LINE
  8
0
  6
CONTINUOUS
 62
     4
 10
1999.766667
 20
297.749981
 30
0.0
 11
1999.766667
 21
332.416645
 31
0.0
  0
LINE
  8
0
  6
CONTINUOUS
 62
     6
 10
1333.058385
 20
297.749981
 30
0.0
 11
2000.391667
 21
297.749981
 31
0.0
  0
LINE
  8
0
  6
CONTINUOUS
 62
     6
 10
1332.433385
 20
332.416645
 30
0.0
 11
1999.766667
 21
332.416645
 31
0.0
  0
TEXT
  8
0
  6
CONTINUOUS
 62
     4
 10
1347.85
 20
302.916664
 30
5.0
 40
18.0
  1
ご用途
 50
0.0
 41
1.111111111
 51
0.0
  7
KANJI15
  0
TEXT
  8
0
  6
CONTINUOUS
 62
     4
 10
1347.85
 20
268.25
 30
5.0
 40
18.0
  1
ご注文主
 50
0.0
 41
1.111111111
 51
0.0
  7
KANJI15
  0
TEXT
  8
0
  6
CONTINUOUS
 62
     4
 10
1341.100051
 20
143.9166595
 30
0.8666666
 40
8.666666
  1
ＤＲＡＷＮ
 50
0.0
 41
0.6
 51
0.0
  7
KANJI10
  0
TEXT
  8
0
  6
CONTINUOUS
 62
     4
 10
1341.100051
 20
178.5833235
 30
0.8666666
 40
8.666666
  1
ＤＥＳＩＧＮ
 50
0.0
 41
0.6
 51
0.0
  7
KANJI10
  0
TEXT
  8
0
  6
CONTINUOUS
 62
     4
 10
1341.100051
 20
213.2499875
 30
0.8666666
 40
8.666666
  1
ＣＨＥＣＫ
 50
0.0
 41
0.6
 51
0.0
  7
KANJI10
  0
LINE
  8
0
  6
CONTINUOUS
 62
     4
 10
1332.433385
 20
193.749989
 30
0.0
 11
1490.6000395
 21
193.749989
 31
0.0
  0
LINE
  8
0
  6
CONTINUOUS
 62
     4
 10
1332.433385
 20
159.083325
 30
0.0
 11
1490.6000395
 21
159.083325
 31
0.0
  0
LINE
  8
0
  6
CONTINUOUS
 62
     4
 10
1332.433385
 20
228.416653
 30
0.0
 11
1490.6000395
 21
228.416653
 31
0.0
  0
TEXT
  8
0
  6
CONTINUOUS
 62
     4
 10
1341.100051
 20
165.5833245
 30
1.03999992
 40
10.3999992
  1
設計
 50
0.0
 41
0.6
 51
0.0
  7
KANJI11
  0
TEXT
  8
0
  6
CONTINUOUS
 62
     4
 10
1341.100051
 20
200.2499885
 30
1.03999992
 40
10.3999992
  1
検図
 50
0.0
 41
0.6
 51
0.0
  7
KANJI11
  0
LINE
  8
0
  6
CONTINUOUS
 62
     4
 10
1503.38337185
 20
228.416653
 30
0.0
 11
1999.766667
 21
228.416653
 31
0.0
  0
LINE
  8
0
  6
CONTINUOUS
 62
     4
 10
1490.6000395
 20
159.083325
 30
0.0
 11
1999.766667
 21
159.083325
 31
0.0
  0
TEXT
  8
0
  6
CONTINUOUS
 62
     4
 10
1499.2667055
 20
143.9166595
 30
0.8666666
 40
8.666666
  1
ＤＲＡＷＩＮＧ　ＮＯ．
 50
0.0
 41
0.8
 51
0.0
  7
KANJI16
  0
TEXT
  8
0
  6
CONTINUOUS
 62
     4
 10
1499.2667055
 20
178.5833235
 30
0.8666666
 40
8.666666
  1
ＭＦＧ　ＮＯ．
 50
0.0
 41
0.8
 51
0.0
  7
KANJI16
  0
TEXT
  8
0
  6
CONTINUOUS
 62
     4
 10
1499.2667055
 20
213.2499875
 30
0.8666666
 40
8.666666
  1
ＴＹＰＥ
 50
0.0
 41
0.8
 51
0.0
  7
KANJI16
  0
LINE
  8
0
  6
CONTINUOUS
 62
     4
 10
1503.6000385
 20
193.749989
 30
0.0
 11
1702.9333565
 21
193.749989
 31
0.0
  0
TEXT
  8
0
  6
CONTINUOUS
 62
     4
 10
1499.2667055
 20
128.749994
 30
1.03999992
 40
10.3999992
  1
図　面　番　号
 50
0.0
 41
0.8
 51
0.0
  7
KANJI17
  0
TEXT
  8
0
  6
CONTINUOUS
 62
     4
 10
1499.2667055
 20
163.416658
 30
1.03999992
 40
10.3999992
  1
製番
 50
0.0
 41
0.8
 51
0.0
  7
KANJI17
  0
TEXT
  8
0
  6
CONTINUOUS
 62
     4
 10
1499.2667055
 20
198.083322
 30
1.03999992
 40
10.3999992
  1
機種
 50
0.0
 41
0.8
 51
0.0
  7
KANJI17
  0
LINE
  8
0
  6
CONTINUOUS
 62
     4
 10
1332.433385
 20
124.416661
 30
0.0
 11
1490.6000395
 21
124.416661
 31
0.0
  0
TEXT
  8
0
  6
CONTINUOUS
 62
     4
 10
1341.100051
 20
109.2499955
 30
0.8666666
 40
8.666666
  1
ＤＡＴＥ
 50
0.0
 41
0.6
 51
0.0
  7
KANJI10
  0
TEXT
  8
0
  6
CONTINUOUS
 62
     4
 10
1341.100051
 20
96.2499965
 30
1.03999992
 40
10.3999992
  1
日付
 50
0.0
 41
0.6
 51
0.0
  7
KANJI11
  0
TEXT
  8
0
  6
CONTINUOUS
 62
     4
 10
1341.100051
 20
130.9166605
 30
1.03999992
 40
10.3999992
  1
作図
 50
0.0
 41
0.6
 51
0.0
  7
KANJI11
  0
LINE
  8
0
  6
CONTINUOUS
 62
     4
 10
1490.6000395
 20
109.2499955
 30
0.0
 11
1999.766667
 21
109.2499955
 31
0.0
  0
LINE
  8
0
  6
LTYPE1
 62
     4
 10
1854.6000115
 20
115.749995
 30
0.0
 11
1854.6000115
 21
150.416659
 31
0.0
  0
LINE
  8
0
  6
LTYPE1
 62
     4
 10
1824.2666805
 20
115.749995
 30
0.0
 11
1824.2666805
 21
150.416659
 31
0.0
  0
LINE
  8
0
  6
LTYPE1
 62
     4
 10
1793.9333495
 20
115.749995
 30
0.0
 11
1793.9333495
 21
150.416659
 31
0.0
  0
LINE
  8
0
  6
LTYPE1
 62
     4
 10
1763.6000185
 20
115.749995
 30
0.0
 11
1763.6000185
 21
150.416659
 31
0.0
  0
LINE
  8
0
  6
LTYPE1
 62
     4
 10
1733.2666875
 20
115.749995
 30
0.0
 11
1733.2666875
 21
150.416659
 31
0.0
  0
LINE
  8
0
  6
LTYPE1
 62
     4
 10
1702.9333565
 20
115.749995
 30
0.0
 11
1702.9333565
 21
150.416659
 31
0.0
  0
LINE
  8
0
  6
LTYPE1
 62
     4
 10
1672.6000255
 20
115.749995
 30
0.0
 11
1672.6000255
 21
150.416659
 31
0.0
  0
LINE
  8
0
  6
LTYPE1
 62
     4
 10
1642.2666945
 20
115.749995
 30
0.0
 11
1642.2666945
 21
150.416659
 31
0.0
  0
LINE
  8
0
  6
LTYPE1
 62
     4
 10
1642.2666945
 20
150.416659
 30
0.0
 11
1854.6000115
 21
150.416659
 31
0.0
  0
LINE
  8
0
  6
LTYPE1
 62
     4
 10
1642.2666945
 20
115.749995
 30
0.0
 11
1854.6000115
 21
115.749995
 31
0.0
  0
LINE
  8
0
  6
CONTINUOUS
 62
     4
 10
1871.9333435
 20
134.16666025
 30
0.0
 11
1880.6000095
 21
134.16666025
 31
0.0
  0
LINE
  8
0
  6
CONTINUOUS
 62
     4
 10
1926.100006
 20
121.16666125
 30
0.0
 11
1895.766675
 21
121.16666125
 31
0.0
  0
LINE
  8
0
  6
CONTINUOUS
 62
     4
 10
1895.766675
 20
121.16666125
 30
0.0
 11
1910.9333405
 21
147.16665925
 31
0.0
  0
LINE
  8
0
  6
CONTINUOUS
 62
     4
 10
1910.9333405
 20
147.16665925
 30
0.0
 11
1926.100006
 21
121.16666125
 31
0.0
  0
TEXT
  8
0
  6
CONTINUOUS
 62
     4
 10
1715.9333555
 20
213.2499875
 30
0.8666666
 40
8.666666
  1
ＴＩＴＬＥ
 50
0.0
 41
0.8
 51
0.0
  7
KANJI16
  0
TEXT
  8
0
  6
CONTINUOUS
 62
     4
 10
1715.9333555
 20
198.083322
 30
1.03999992
 40
10.3999992
  1
名称
 50
0.0
 41
0.8
 51
0.0
  7
KANJI17
  0
TEXT
  8
0
  6
CONTINUOUS
 62
     2
 10
1786.6
 20
165.75
 30
12.5
 40
25.0
  1
外形寸法図
 50
0.0
 41
1.0
 51
0.0
  7
KANJI18
  0
TEXT
  8
0
  6
CONTINUOUS
 62
     2
 10
1756.6
 20
195.75
 30
3.571428571
 40
25.0
  1
マイティシリンダ
 50
0.0
 41
1.0
 51
0.0
  7
KANJI19
  0
TEXT
  8
0
  6
CONTINUOUS
 62
     2
 10
1616.0166945
 20
120.749995
 30
1.5
 40
25.0
  1
Ａ
 50
0.0
 41
0.8
 51
0.0
  7
KANJI20
  0
CIRCLE
  8
0
  6
CONTINUOUS
 62
     2
 10
1583.5166945
 20
174.499995
 30
0.0
 40
12.5
  0
TEXT
  8
0
  6
CONTINUOUS
 62
     2
 10
1574.1416945
 20
165.124995
 30
1.5
 40
20.0
  1
Ｓ
 50
0.0
 41
1.0
 51
0.0
  7
KANJI21
  0
LINE
  8
0
  6
CONTINUOUS
 62
     6
 10
1671.419192258
 20
91.56999686
 30
0.0
 11
1658.939193218
 21
91.56999686
 31
0.0
  0
LINE
  8
0
  6
CONTINUOUS
 62
     6
 10
1674.539192018
 20
91.56999686
 30
0.0
 11
1687.019191058
 21
91.56999686
 31
0.0
  0
TEXT
  8
0
  6
CONTINUOUS
 62
     2
 10
1388.2666945
 20
133.249995
 30
5.0
 40
17.5
  1
岡田
 50
0.0
 41
0.857142857
 51
0.0
  7
KANJI22
  0
TEXT
  8
0
  6
CONTINUOUS
 62
     2
 10
1431.1
 20
1184.4
 30
1.2
 40
12.0
  1
　　３２
 50
0.0
 41
0.9
 51
0.0
  7
KANJI1
  0
TEXT
  8
0
  6
CONTINUOUS
 62
     2
 10
1431.1
 20
1156.4
 30
1.2
 40
12.0
  1
　　３３
 50
0.0
 41
0.9
 51
0.0
  7
KANJI1
  0
TEXT
  8
0
  6
CONTINUOUS
 62
     2
 10
1431.1
 20
1128.4
 30
1.2
 40
12.0
  1
　　３４
 50
0.0
 41
0.9
 51
0.0
  7
KANJI1
  0
TEXT
  8
0
  6
CONTINUOUS
 62
     2
 10
1431.1
 20
1100.4
 30
1.2
 40
12.0
  1
　　３５
 50
0.0
 41
0.9
 51
0.0
  7
KANJI1
  0
TEXT
  8
0
  6
CONTINUOUS
 62
     2
 10
1351.1
 20
1100.4
 30
1.2
 40
12.0
  1
　　３５
 50
0.0
 41
0.9
 51
0.0
  7
KANJI1
  0
TEXT
  8
0
  6
CONTINUOUS
 62
     2
 10
1351.1
 20
1072.4
 30
1.2
 40
12.0
  1
　　３５
 50
0.0
 41
0.9
 51
0.0
  7
KANJI1
  0
TEXT
  8
0
  6
CONTINUOUS
 62
     2
 10
1351.1
 20
1044.4
 30
1.2
 40
12.0
  1
　　３５
 50
0.0
 41
0.9
 51
0.0
  7
KANJI1
  0
TEXT
  8
0
  6
CONTINUOUS
 62
     2
 10
1351.1
 20
1016.4
 30
1.2
 40
12.0
  1
　　３５
 50
0.0
 41
0.9
 51
0.0
  7
KANJI1
  0
TEXT
  8
0
  6
CONTINUOUS
 62
     2
 10
1431.1
 20
1044.4
 30
1.2
 40
12.0
  1
　　３８
 50
0.0
 41
0.9
 51
0.0
  7
KANJI1
  0
TEXT
  8
0
  6
CONTINUOUS
 62
     2
 10
1431.1
 20
1016.4
 30
1.2
 40
12.0
  1
　　３９
 50
0.0
 41
0.9
 51
0.0
  7
KANJI1
  0
TEXT
  8
0
  6
CONTINUOUS
 62
     2
 10
1431.1
 20
1072.4
 30
1.2
 40
12.0
  1
　　３６
 50
0.0
 41
0.9
 51
0.0
  7
KANJI1
  0
TEXT
  8
0
  6
CONTINUOUS
 62
     2
 10
1111.1
 20
1100.4
 30
1.2
 40
12.0
  1
　７５０
 50
0.0
 41
0.9
 51
0.0
  7
KANJI1
  0
TEXT
  8
0
  6
CONTINUOUS
 62
     2
 10
1111.1
 20
1072.4
 30
1.2
 40
12.0
  1
　８５０
 50
0.0
 41
0.9
 51
0.0
  7
KANJI1
  0
TEXT
  8
0
  6
CONTINUOUS
 62
     2
 10
1111.1
 20
1044.4
 30
1.2
 40
12.0
  1
　９９０
 50
0.0
 41
0.9
 51
0.0
  7
KANJI1
  0
TEXT
  8
0
  6
CONTINUOUS
 62
     2
 10
1111.1
 20
1016.4
 30
1.2
 40
12.0
  1
１０９０
 50
0.0
 41
0.9
 51
0.0
  7
KANJI1
  0
TEXT
  8
0
  6
CONTINUOUS
 62
     2
 10
1191.1
 20
1016.4
 30
1.2
 40
12.0
  1
　９４８
 50
0.0
 41
0.9
 51
0.0
  7
KANJI1
  0
TEXT
  8
0
  6
CONTINUOUS
 62
     2
 10
1191.1
 20
1044.4
 30
1.2
 40
12.0
  1
　８４８
 50
0.0
 41
0.9
 51
0.0
  7
KANJI1
  0
TEXT
  8
0
  6
CONTINUOUS
 62
     2
 10
1191.1
 20
1072.4
 30
1.2
 40
12.0
  1
　７０８
 50
0.0
 41
0.9
 51
0.0
  7
KANJI1
  0
TEXT
  8
0
  6
CONTINUOUS
 62
     2
 10
1191.1
 20
1100.4
 30
1.2
 40
12.0
  1
　６０８
 50
0.0
 41
0.9
 51
0.0
  7
KANJI1
  0
TEXT
  8
0
  6
CONTINUOUS
 62
     2
 10
858.1
 20
1184.1
 30
0.8
 40
12.0
  1
ＭＤ０３　－　　１
 50
0.0
 41
0.833333333
 51
0.0
  7
KANJI23
  0
TEXT
  8
0
  6
CONTINUOUS
 62
     2
 10
858.1
 20
1156.1
 30
0.8
 40
12.0
  1
ＭＤ０３　－　　２
 50
0.0
 41
0.833333333
 51
0.0
  7
KANJI23
  0
TEXT
  8
0
  6
CONTINUOUS
 62
     2
 10
858.1
 20
1128.1
 30
0.8
 40
12.0
  1
ＭＤ０３　－　　３
 50
0.0
 41
0.833333333
 51
0.0
  7
KANJI23
  0
TEXT
  8
0
  6
CONTINUOUS
 62
     2
 10
858.1
 20
1100.1
 30
0.8
 40
12.0
  1
ＭＤ０３　－　　４
 50
0.0
 41
0.833333333
 51
0.0
  7
KANJI23
  0
TEXT
  8
0
  6
CONTINUOUS
 62
     2
 10
858.1
 20
1072.1
 30
0.8
 40
12.0
  1
ＭＤ０３　－　　５
 50
0.0
 41
0.833333333
 51
0.0
  7
KANJI23
  0
TEXT
  8
0
  6
CONTINUOUS
 62
     2
 10
858.1
 20
1044.1
 30
0.8
 40
12.0
  1
ＭＤ０３　－　　６
 50
0.0
 41
0.833333333
 51
0.0
  7
KANJI23
  0
TEXT
  8
0
  6
CONTINUOUS
 62
     2
 10
858.1
 20
1016.1
 30
0.8
 40
12.0
  1
ＭＤ０３　－　　７
 50
0.0
 41
0.833333333
 51
0.0
  7
KANJI23
  0
TEXT
  8
0
  6
CONTINUOUS
 62
     2
 10
1551.6
 20
200.75
 30
0.0
 40
17.5
  1
ＭＤ０３－
 50
0.0
 41
0.793650794
 51
0.0
  7
KANJI24
  0
TEXT
  8
0
  6
CONTINUOUS
 62
     2
 10
1647.2666945
 20
120.749995
 30
10.833333333
 40
25.0
  1
３００２３９９
 50
0.0
 41
0.8
 51
0.0
  7
KANJI25
  0
TEXT
  8
0
  6
CONTINUOUS
 62
     2
 10
147.0
 20
13.0
 30
0.0
 40
15.0
  1
ＦＤ　Ｎｏ．ＭＣ１８５
 50
0.0
 41
0.9
 51
0.0
  7
KANJI26
  0
LINE
  8
0
  6
CONTINUOUS
 62
     1
 10
1269.475
 20
1386.75
 30
0.0
 11
1269.475
 21
1286.65
 31
0.0
  0
LINE
  8
0
  6
CONTINUOUS
 62
     2
 10
1211.725
 20
1386.75
 30
0.0
 11
1211.725
 21
1286.65
 31
0.0
  0
LINE
  8
0
  6
CONTINUOUS
 62
     2
 10
1153.975
 20
1386.75
 30
0.0
 11
1153.975
 21
1286.65
 31
0.0
  0
LINE
  8
0
  6
CONTINUOUS
 62
     1
 10
1076.975
 20
1386.75
 30
0.0
 11
1076.975
 21
1286.65
 31
0.0
  0
LINE
  8
0
  6
CONTINUOUS
 62
     1
 10
1076.975
 20
1386.75
 30
0.0
 11
1269.475
 21
1386.75
 31
0.0
  0
LINE
  8
0
  6
CONTINUOUS
 62
     1
 10
1076.975
 20
1355.95
 30
0.0
 11
1269.475
 21
1355.95
 31
0.0
  0
LINE
  8
0
  6
CONTINUOUS
 62
     2
 10
1076.975
 20
1332.85
 30
0.0
 11
1269.475
 21
1332.85
 31
0.0
  0
LINE
  8
0
  6
CONTINUOUS
 62
     2
 10
1076.975
 20
1309.75
 30
0.0
 11
1269.475
 21
1309.75
 31
0.0
  0
LINE
  8
0
  6
CONTINUOUS
 62
     1
 10
1076.975
 20
1286.65
 30
0.0
 11
1269.475
 21
1286.65
 31
0.0
  0
TEXT
  8
0
  6
CONTINUOUS
 62
     2
 10
1219.425
 20
1373.275
 30
1.155
 40
11.55
  1
起動電流
 50
0.0
 41
0.9
 51
0.0
  7
KANJI27
  0
TEXT
  8
0
  6
CONTINUOUS
 62
     2
 10
1219.425
 20
1359.8
 30
1.155
 40
11.55
  1
　　　Ａ
 50
0.0
 41
0.9
 51
0.0
  7
KANJI27
  0
TEXT
  8
0
  6
CONTINUOUS
 62
     2
 10
1161.675
 20
1373.275
 30
1.155
 40
11.55
  1
定格電流
 50
0.0
 41
0.9
 51
0.0
  7
KANJI27
  0
TEXT
  8
0
  6
CONTINUOUS
 62
     2
 10
1161.675
 20
1359.8
 30
1.155
 40
11.55
  1
　　　Ａ
 50
0.0
 41
0.9
 51
0.0
  7
KANJI27
  0
TEXT
  8
0
  6
CONTINUOUS
 62
     2
 10
1083.52
 20
1315.525
 30
1.155
 40
11.55
  1
２００／６０
 50
0.0
 41
0.9
 51
0.0
  7
KANJI27
  0
TEXT
  8
0
  6
CONTINUOUS
 62
     2
 10
1083.52
 20
1373.275
 30
1.155
 40
11.55
  1
電圧／周波数
 50
0.0
 41
0.9
 51
0.0
  7
KANJI27
  0
TEXT
  8
0
  6
CONTINUOUS
 62
     2
 10
1083.52
 20
1359.8
 30
1.155
 40
11.55
  1
　Ｖ／Ｈｚ
 50
0.0
 41
0.9
 51
0.0
  7
KANJI27
  0
TEXT
  8
0
  6
CONTINUOUS
 62
     2
 10
1083.52
 20
1338.625
 30
1.155
 40
11.55
  1
２００／５０
 50
0.0
 41
0.9
 51
0.0
  7
KANJI27
  0
TEXT
  8
0
  6
CONTINUOUS
 62
     2
 10
1083.52
 20
1292.425
 30
1.155
 40
11.55
  1
２２０／６０
 50
0.0
 41
0.9
 51
0.0
  7
KANJI27
  0
LINE
  8
0
  6
CONTINUOUS
 62
     1
 10
1038.475
 20
1386.75
 30
0.0
 11
1038.475
 21
1286.65
 31
0.0
  0
LINE
  8
0
  6
CONTINUOUS
 62
     2
 10
980.725
 20
1386.75
 30
0.0
 11
980.725
 21
1286.65
 31
0.0
  0
LINE
  8
0
  6
CONTINUOUS
 62
     2
 10
922.975
 20
1386.75
 30
0.0
 11
922.975
 21
1286.65
 31
0.0
  0
LINE
  8
0
  6
CONTINUOUS
 62
     1
 10
845.975
 20
1386.75
 30
0.0
 11
845.975
 21
1286.65
 31
0.0
  0
LINE
  8
0
  6
CONTINUOUS
 62
     1
 10
845.975
 20
1386.75
 30
0.0
 11
1038.475
 21
1386.75
 31
0.0
  0
LINE
  8
0
  6
CONTINUOUS
 62
     1
 10
845.975
 20
1355.95
 30
0.0
 11
1038.475
 21
1355.95
 31
0.0
  0
LINE
  8
0
  6
CONTINUOUS
 62
     2
 10
845.975
 20
1332.85
 30
0.0
 11
1038.475
 21
1332.85
 31
0.0
  0
LINE
  8
0
  6
CONTINUOUS
 62
     2
 10
845.975
 20
1309.75
 30
0.0
 11
1038.475
 21
1309.75
 31
0.0
  0
LINE
  8
0
  6
CONTINUOUS
 62
     1
 10
845.975
 20
1286.65
 30
0.0
 11
1038.475
 21
1286.65
 31
0.0
  0
TEXT
  8
0
  6
CONTINUOUS
 62
     2
 10
988.425
 20
1373.275
 30
1.155
 40
11.55
  1
起動電流
 50
0.0
 41
0.9
 51
0.0
  7
KANJI27
  0
TEXT
  8
0
  6
CONTINUOUS
 62
     2
 10
988.425
 20
1359.8
 30
1.155
 40
11.55
  1
　　　Ａ
 50
0.0
 41
0.9
 51
0.0
  7
KANJI27
  0
TEXT
  8
0
  6
CONTINUOUS
 62
     2
 10
930.675
 20
1373.275
 30
1.155
 40
11.55
  1
定格電流
 50
0.0
 41
0.9
 51
0.0
  7
KANJI27
  0
TEXT
  8
0
  6
CONTINUOUS
 62
     2
 10
930.675
 20
1359.8
 30
1.155
 40
11.55
  1
　　　Ａ
 50
0.0
 41
0.9
 51
0.0
  7
KANJI27
  0
TEXT
  8
0
  6
CONTINUOUS
 62
     2
 10
852.52
 20
1373.275
 30
1.155
 40
11.55
  1
電圧／周波数
 50
0.0
 41
0.9
 51
0.0
  7
KANJI27
  0
TEXT
  8
0
  6
CONTINUOUS
 62
     2
 10
852.52
 20
1359.8
 30
1.155
 40
11.55
  1
　Ｖ／Ｈｚ
 50
0.0
 41
0.9
 51
0.0
  7
KANJI27
  0
TEXT
  8
0
  6
CONTINUOUS
 62
     2
 10
852.52
 20
1338.625
 30
1.155
 40
11.55
  1
４００／５０
 50
0.0
 41
0.9
 51
0.0
  7
KANJI27
  0
TEXT
  8
0
  6
CONTINUOUS
 62
     2
 10
852.52
 20
1315.525
 30
1.155
 40
11.55
  1
４００／６０
 50
0.0
 41
0.9
 51
0.0
  7
KANJI27
  0
TEXT
  8
0
  6
CONTINUOUS
 62
     2
 10
852.52
 20
1292.425
 30
1.155
 40
11.55
  1
４４０／６０
 50
0.0
 41
0.9
 51
0.0
  7
KANJI27
  0
TEXT
  8
0
  6
CONTINUOUS
 62
     2
 10
930.675
 20
1338.625
 30
1.155
 40
11.55
  1
　２．０
 50
0.0
 41
0.9
 51
0.0
  7
KANJI27
  0
TEXT
  8
0
  6
CONTINUOUS
 62
     2
 10
930.675
 20
1315.525
 30
1.155
 40
11.55
  1
　１．４
 50
0.0
 41
0.9
 51
0.0
  7
KANJI27
  0
TEXT
  8
0
  6
CONTINUOUS
 62
     2
 10
930.675
 20
1292.425
 30
1.155
 40
11.55
  1
　１．７
 50
0.0
 41
0.9
 51
0.0
  7
KANJI27
  0
TEXT
  8
0
  6
CONTINUOUS
 62
     2
 10
1161.675
 20
1338.625
 30
1.155
 40
11.55
  1
　４．０
 50
0.0
 41
0.9
 51
0.0
  7
KANJI27
  0
TEXT
  8
0
  6
CONTINUOUS
 62
     2
 10
1161.675
 20
1315.525
 30
1.155
 40
11.55
  1
　２．８
 50
0.0
 41
0.9
 51
0.0
  7
KANJI27
  0
TEXT
  8
0
  6
CONTINUOUS
 62
     2
 10
1161.675
 20
1292.425
 30
1.155
 40
11.55
  1
　３．３
 50
0.0
 41
0.9
 51
0.0
  7
KANJI27
  0
TEXT
  8
0
  6
CONTINUOUS
 62
     2
 10
1219.425
 20
1338.625
 30
1.155
 40
11.55
  1
　９．２
 50
0.0
 41
0.9
 51
0.0
  7
KANJI27
  0
TEXT
  8
0
  6
CONTINUOUS
 62
     2
 10
1219.425
 20
1315.525
 30
1.155
 40
11.55
  1
　８
 50
0.0
 41
0.9
 51
0.0
  7
KANJI27
  0
TEXT
  8
0
  6
CONTINUOUS
 62
     2
 10
1219.425
 20
1292.425
 30
1.155
 40
11.55
  1
　８．８
 50
0.0
 41
0.9
 51
0.0
  7
KANJI27
  0
TEXT
  8
0
  6
CONTINUOUS
 62
     2
 10
988.425
 20
1338.625
 30
1.155
 40
11.55
  1
　４．６
 50
0.0
 41
0.9
 51
0.0
  7
KANJI27
  0
TEXT
  8
0
  6
CONTINUOUS
 62
     2
 10
988.425
 20
1315.525
 30
1.155
 40
11.55
  1
　４
 50
0.0
 41
0.9
 51
0.0
  7
KANJI27
  0
TEXT
  8
0
  6
CONTINUOUS
 62
     2
 10
988.425
 20
1292.425
 30
1.155
 40
11.55
  1
　４．４
 50
0.0
 41
0.9
 51
0.0
  7
KANJI27
  0
TEXT
  8
0
  6
CONTINUOUS
 62
     2
 10
1489.1
 20
554.25
 30
10.0
 40
20.0
  1
特記事項
 50
0.0
 41
0.9
 51
0.0
  7
KANJI28
  0
TEXT
  8
0
  6
CONTINUOUS
 62
     2
 10
1419.1
 20
514.25
 30
5.142857143
 40
18.0
  1
１。運転時は必ずピストンロッドの回転防止を行って下さい。
 50
0.0
 41
0.857142857
 51
0.0
  7
KANJI29
  0
TEXT
  8
0
  6
CONTINUOUS
 62
     2
 10
1419.1
 20
480.25
 30
5.13
 40
18.0
  1
２。モートル：全閉自冷かご形３０分定格
 50
0.0
 41
0.857222222
 51
0.0
  7
KANJI30
  0
TEXT
  8
0
  6
CONTINUOUS
 62
     2
 10
1418.7665915
 20
446.250003
 30
5.13
 40
18.0
  1
３。呼称ストロークは、機械的ストロークです。
 50
0.0
 41
0.857222222
 51
0.0
  7
KANJI30
  0
TEXT
  8
0
  6
CONTINUOUS
 62
     2
 10
1418.7665915
 20
417.500003
 30
5.13
 40
18.0
  1
　　必ず、常用はストローク両端に余裕を取って下さい。
 50
0.0
 41
0.857222222
 51
0.0
  7
KANJI30
  0
LINE
  8
0
  6
CONTINUOUS
 62
     2
 10
1475.1
 20
548.75
 30
0.0
 11
1597.1
 21
548.75
 31
0.0
  0
ARC
  8
0
  6
CONTINUOUS
 62
     1
 10
1175.833333
 20
472.633317
 30
0.0
 40
6.0
 50
270.0
 51
0.0
  0
ARC
  8
0
  6
CONTINUOUS
 62
     1
 10
1067.833333
 20
472.633317
 30
0.0
 40
6.0
 50
180.0
 51
270.0
  0
LINE
  8
0
  6
CONTINUOUS
 62
     1
 10
1076.833333
 20
503.633317
 30
0.0
 11
1076.833333
 21
481.633317
 31
0.0
  0
LINE
  8
0
  6
CONTINUOUS
 62
     1
 10
1076.833333
 20
503.845833539
 30
0.0
 11
1061.833333
 21
506.633317
 31
0.0
  0
LINE
  8
0
  6
CONTINUOUS
 62
     1
 10
1166.833333
 20
503.633317
 30
0.0
 11
1166.833333
 21
481.633317
 31
0.0
  0
LINE
  8
0
  6
CONTINUOUS
 62
     1
 10
1166.833333
 20
503.845833539
 30
0.0
 11
1181.833333
 21
506.633317
 31
0.0
  0
ARC
  8
0
  6
CONTINUOUS
 62
     1
 10
1080.712012656
 20
567.754637344
 30
0.0
 40
7.0
 50
172.721057981
 51
180.0
  0
ARC
  8
0
  6
CONTINUOUS
 62
     1
 10
1080.712012656
 20
567.754637344
 30
0.0
 40
7.0
 50
105.275864075
 51
172.721057981
  0
CIRCLE
  8
0
  6
CONTINUOUS
 62
     1
 10
1160.833333
 20
565.633317
 30
0.0
 40
5.0
  0
ARC
  8
0
  6
CONTINUOUS
 62
     1
 10
1162.954653344
 20
567.754637344
 30
0.0
 40
7.0
 50
0.0
 51
7.278942019
  0
ARC
  8
0
  6
CONTINUOUS
 62
     1
 10
1162.954653344
 20
567.754637344
 30
0.0
 40
7.0
 50
7.278942019
 51
74.724135925
  0
LINE
  8
0
  6
CONTINUOUS
 62
     1
 10
1169.898240874
 20
568.641537679
 30
0.0
 11
1172.510879324
 21
548.187059279
 31
0.0
  0
ARC
  8
0
  6
CONTINUOUS
 62
     1
 10
1080.712012656
 20
485.511996656
 30
0.0
 40
7.0
 50
180.0
 51
187.278942019
  0
LINE
  8
0
  6
CONTINUOUS
 62
     1
 10
1073.768425126
 20
484.625096321
 30
0.0
 11
1071.155786676
 21
505.079574721
 31
0.0
  0
ARC
  8
0
  6
CONTINUOUS
 62
     1
 10
1162.954653344
 20
485.511996656
 30
0.0
 40
7.0
 50
352.721057981
 51
0.0
  0
LINE
  8
0
  6
CONTINUOUS
 62
     1
 10
1169.898240874
 20
484.625096321
 30
0.0
 11
1172.510879324
 21
505.079574721
 31
0.0
  0
LINE
  8
0
  6
CONTINUOUS
 62
     1
 10
1101.833333
 20
546.633317
 30
0.0
 11
1141.833333
 21
546.633317
 31
0.0
  0
LINE
  8
0
  6
CONTINUOUS
 62
     1
 10
1141.833333
 20
506.633317
 30
0.0
 11
1141.833333
 21
546.633317
 31
0.0
  0
LINE
  8
0
  6
CONTINUOUS
 62
     1
 10
1101.833333
 20
506.633317
 30
0.0
 11
1141.833333
 21
506.633317
 31
0.0
  0
LINE
  8
0
  6
CONTINUOUS
 62
     1
 10
1101.833333
 20
506.633317
 30
0.0
 11
1101.833333
 21
546.633317
 31
0.0
  0
LINE
  8
0
  6
CONTINUOUS
 62
     1
 10
1113.833333
 20
506.633317
 30
0.0
 11
1113.833333
 21
546.633317
 31
0.0
  0
LINE
  8
0
  6
CONTINUOUS
 62
     1
 10
1129.833333
 20
506.633317
 30
0.0
 11
1129.833333
 21
546.633317
 31
0.0
  0
LINE
  8
0
  6
CONTINUOUS
 62
     1
 10
1113.833333
 20
518.633317
 30
0.0
 11
1129.833333
 21
518.633317
 31
0.0
  0
LINE
  8
0
  6
CONTINUOUS
 62
     1
 10
1101.833333
 20
516.633317
 30
0.0
 11
1113.833333
 21
516.633317
 31
0.0
  0
LINE
  8
0
  6
CONTINUOUS
 62
     1
 10
1113.833333
 20
534.633317
 30
0.0
 11
1129.833333
 21
534.633317
 31
0.0
  0
LINE
  8
0
  6
CONTINUOUS
 62
     1
 10
1101.833333
 20
536.633317
 30
0.0
 11
1113.833333
 21
536.633317
 31
0.0
  0
LINE
  8
0
  6
CONTINUOUS
 62
     1
 10
1141.833333
 20
516.633317
 30
0.0
 11
1129.833333
 21
516.633317
 31
0.0
  0
LINE
  8
0
  6
CONTINUOUS
 62
     1
 10
1141.833333
 20
536.633317
 30
0.0
 11
1129.833333
 21
536.633317
 31
0.0
  0
ARC
  8
0
  6
CONTINUOUS
 62
     1
 10
1171.833333
 20
477.133317
 30
0.0
 40
3.0
 50
0.0
 51
90.0
  0
LINE
  8
0
  6
CONTINUOUS
 62
     1
 10
1171.833333
 20
481.633317
 30
0.0
 11
1171.833333
 21
480.133317
 31
0.0
  0
LINE
  8
0
  6
CONTINUOUS
 62
     1
 10
1068.833333
 20
437.133317
 30
0.0
 11
1174.833333
 21
437.133317
 31
0.0
  0
LINE
  8
0
  6
CONTINUOUS
 62
     1
 10
1068.833333
 20
435.633317
 30
0.0
 11
1174.833333
 21
435.633317
 31
0.0
  0
LINE
  8
0
  6
CONTINUOUS
 62
     1
 10
1174.833333
 20
466.633317
 30
0.0
 11
1175.833333
 21
466.633317
 31
0.0
  0
LINE
  8
0
  6
CONTINUOUS
 62
     1
 10
1067.833333
 20
466.633317
 30
0.0
 11
1068.833333
 21
466.633317
 31
0.0
  0
ARC
  8
0
  6
CONTINUOUS
 62
     1
 10
1162.954653344
 20
485.511996656
 30
0.0
 40
7.0
 50
326.35145266
 51
352.721057981
  0
ARC
  8
0
  6
CONTINUOUS
 62
     1
 10
1080.712012656
 20
485.511996656
 30
0.0
 40
7.0
 50
187.278942019
 51
213.64854734
  0
LINE
  8
0
  6
CONTINUOUS
 62
     1
 10
1065.833333
 20
575.633317
 30
0.0
 11
1177.833333
 21
575.633317
 31
0.0
  0
CIRCLE
  8
0
  6
CONTINUOUS
 62
     1
 10
1121.833333
 20
636.633317
 30
0.0
 40
15.5
  0
LINE
  8
0
  6
CONTINUOUS
 62
     1
 10
1126.786163189
 20
653.417817979
 30
0.0
 11
1151.163521679
 21
646.224460417
 31
0.0
  0
LINE
  8
0
  6
CONTINUOUS
 62
     1
 10
1126.786163189
 20
619.848816021
 30
0.0
 11
1151.163521679
 21
627.042173583
 31
0.0
  0
LINE
  8
0
  6
CONTINUOUS
 62
     1
 10
1136.504733751
 20
631.633317
 30
0.0
 11
1139.673078962
 21
631.633317
 31
0.0
  0
LINE
  8
0
  6
CONTINUOUS
 62
     1
 10
1136.504733751
 20
641.633317
 30
0.0
 11
1139.673078962
 21
641.633317
 31
0.0
  0
ARC
  8
0
  6
LTYPE2
 62
     2
 10
1121.833333
 20
636.633317
 30
0.0
 40
26.5
 50
345.963756532
 51
14.715071651
  0
LINE
  8
0
  6
CONTINUOUS
 62
     1
 10
1116.880502811
 20
653.417817979
 30
0.0
 11
1092.503144321
 21
646.224460417
 31
0.0
  0
LINE
  8
0
  6
CONTINUOUS
 62
     1
 10
1116.880502811
 20
619.848816021
 30
0.0
 11
1092.503144321
 21
627.042173583
 31
0.0
  0
ARC
  8
0
  6
CONTINUOUS
 62
     1
 10
1095.333333
 20
636.633317
 30
0.0
 40
10.0
 50
30.0
 51
180.0
  0
ARC
  8
0
  6
CONTINUOUS
 62
     1
 10
1095.333333
 20
636.633317
 30
0.0
 40
10.0
 50
180.0
 51
330.0
  0
LINE
  8
0
  6
CONTINUOUS
 62
     1
 10
1107.161932249
 20
631.633317
 30
0.0
 11
1103.993587038
 21
631.633317
 31
0.0
  0
LINE
  8
0
  6
CONTINUOUS
 62
     1
 10
1107.161932249
 20
641.633317
 30
0.0
 11
1103.993587038
 21
641.633317
 31
0.0
  0
ARC
  8
0
  6
LTYPE2
 62
     2
 10
1121.833333
 20
636.633317
 30
0.0
 40
26.5
 50
165.284928349
 51
194.036243468
  0
ARC
  8
0
  6
CONTINUOUS
 62
     1
 10
1121.833333
 20
636.633317
 30
0.0
 40
17.5
 50
16.601549599
 51
163.398450401
  0
ARC
  8
0
  6
CONTINUOUS
 62
     1
 10
1121.833333
 20
636.633317
 30
0.0
 40
17.5
 50
196.601549599
 51
343.398450401
  0
ARC
  8
0
  6
LTYPE2
 62
     2
 10
1121.833333
 20
636.633317
 30
0.0
 40
51.0
 50
34.902495616
 51
52.696051722
  0
LINE
  8
0
  6
LTYPE2
 62
     2
 10
1153.833333
 20
668.633317
 30
0.0
 11
1162.833333
 21
677.633317
 31
0.0
  0
ARC
  8
0
  6
LTYPE2
 62
     2
 10
1121.833333
 20
636.633317
 30
0.0
 40
25.0
 50
63.434948823
 51
114.623564786
  0
ARC
  8
0
  6
LTYPE2
 62
     2
 10
1121.833333
 20
636.633317
 30
0.0
 40
25.0
 50
245.376435214
 51
296.565051177
  0
ARC
  8
0
  6
LTYPE2
 62
     2
 10
1121.833333
 20
636.633317
 30
0.0
 40
51.0
 50
124.902495616
 51
142.696051722
  0
LINE
  8
0
  6
LTYPE2
 62
     2
 10
1089.833333
 20
668.633317
 30
0.0
 11
1080.833333
 21
677.633317
 31
0.0
  0
ARC
  8
0
  6
LTYPE2
 62
     2
 10
1121.833333
 20
636.633317
 30
0.0
 40
51.0
 50
307.303948278
 51
325.097504384
  0
LINE
  8
0
  6
LTYPE2
 62
     2
 10
1153.833333
 20
604.633317
 30
0.0
 11
1162.833333
 21
595.633317
 31
0.0
  0
ARC
  8
0
  6
LTYPE2
 62
     2
 10
1121.833333
 20
636.633317
 30
0.0
 40
51.0
 50
217.303948278
 51
235.097504384
  0
LINE
  8
0
  6
LTYPE2
 62
     2
 10
1089.833333
 20
604.633317
 30
0.0
 11
1080.833333
 21
595.633317
 31
0.0
  0
LINE
  8
0
  6
LTYPE2
 62
     2
 10
1163.833333
 20
687.633317
 30
0.0
 11
1180.833333
 21
687.633317
 31
0.0
  0
LINE
  8
0
  6
LTYPE2
 62
     2
 10
1172.833333
 20
695.633317
 30
0.0
 11
1172.833333
 21
679.133317
 31
0.0
  0
LINE
  8
0
  6
LTYPE2
 62
     2
 10
1079.833333
 20
687.633317
 30
0.0
 11
1062.833333
 21
687.633317
 31
0.0
  0
LINE
  8
0
  6
LTYPE2
 62
     2
 10
1070.833333
 20
695.633317
 30
0.0
 11
1070.833333
 21
679.133317
 31
0.0
  0
LINE
  8
0
  6
LTYPE2
 62
     2
 10
1163.833333
 20
585.633317
 30
0.0
 11
1180.833333
 21
585.633317
 31
0.0
  0
LINE
  8
0
  6
LTYPE2
 62
     2
 10
1172.833333
 20
577.633317
 30
0.0
 11
1172.833333
 21
594.133317
 31
0.0
  0
LINE
  8
0
  6
LTYPE2
 62
     2
 10
1079.833333
 20
585.633317
 30
0.0
 11
1062.833333
 21
585.633317
 31
0.0
  0
LINE
  8
0
  6
LTYPE2
 62
     2
 10
1070.833333
 20
577.633317
 30
0.0
 11
1070.833333
 21
594.133317
 31
0.0
  0
LINE
  8
0
  6
CONTINUOUS
 62
     1
 10
1151.833333
 20
706.633317
 30
0.0
 11
1151.833333
 21
709.633317
 31
0.0
  0
ARC
  8
0
  6
CONTINUOUS
 62
     1
 10
1147.833333
 20
703.633317
 30
0.0
 40
3.0
 50
90.0
 51
180.0
  0
LINE
  8
0
  6
CONTINUOUS
 62
     1
 10
1144.833333
 20
692.786936242
 30
0.0
 11
1144.833333
 21
703.633317
 31
0.0
  0
ARC
  8
0
  6
CONTINUOUS
 62
     1
 10
1140.833333
 20
692.786936242
 30
0.0
 40
4.0
 50
304.936144888
 51
0.0
  0
ARC
  8
0
  6
CONTINUOUS
 62
     1
 10
1095.833333
 20
703.633317
 30
0.0
 40
3.0
 50
0.0
 51
90.0
  0
LINE
  8
0
  6
CONTINUOUS
 62
     1
 10
1098.833333
 20
692.786936242
 30
0.0
 11
1098.833333
 21
703.633317
 31
0.0
  0
ARC
  8
0
  6
CONTINUOUS
 62
     1
 10
1102.833333
 20
692.786936242
 30
0.0
 40
4.0
 50
180.0
 51
235.063855112
  0
CIRCLE
  8
0
  6
CONTINUOUS
 62
     1
 10
1121.833333
 20
731.633317
 30
0.0
 40
17.0
  0
LINE
  8
0
  6
LTYPE2
 62
     2
 10
1098.833333
 20
731.633317
 30
0.0
 11
1144.833333
 21
731.633317
 31
0.0
  0
ARC
  8
0
  6
CONTINUOUS
 62
     1
 10
1079.833333
 20
753.653362888
 30
0.0
 40
2.0
 50
90.0
 51
180.0
  0
ARC
  8
0
  6
CONTINUOUS
 62
     1
 10
1087.833333
 20
759.633317
 30
0.0
 40
2.0
 50
90.0
 51
180.0
  0
LINE
  8
0
  6
CONTINUOUS
 62
     1
 10
1087.833333
 20
761.633317
 30
0.0
 11
1155.833333
 21
761.633317
 31
0.0
  0
ARC
  8
0
  6
CONTINUOUS
 62
     1
 10
1155.833333
 20
759.633317
 30
0.0
 40
2.0
 50
0.0
 51
90.0
  0
LINE
  8
0
  6
CONTINUOUS
 62
     1
 10
1163.833333
 20
755.653362888
 30
0.0
 11
1079.833333
 21
755.653362888
 31
0.0
  0
ARC
  8
0
  6
CONTINUOUS
 62
     1
 10
1163.833333
 20
753.653362888
 30
0.0
 40
2.0
 50
0.0
 51
90.0
  0
ARC
  8
0
  6
CONTINUOUS
 62
     1
 10
1079.833333
 20
757.653362888
 30
0.0
 40
2.0
 50
90.0
 51
180.0
  0
ARC
  8
0
  6
CONTINUOUS
 62
     1
 10
1087.833333
 20
750.633317
 30
0.0
 40
2.0
 50
90.0
 51
180.0
  0
LINE
  8
0
  6
CONTINUOUS
 62
     1
 10
1087.833333
 20
752.633317
 30
0.0
 11
1155.833333
 21
752.633317
 31
0.0
  0
ARC
  8
0
  6
CONTINUOUS
 62
     1
 10
1155.833333
 20
750.633317
 30
0.0
 40
2.0
 50
0.0
 51
90.0
  0
LINE
  8
0
  6
CONTINUOUS
 62
     1
 10
1163.833333
 20
759.653362888
 30
0.0
 11
1079.833333
 21
759.653362888
 31
0.0
  0
ARC
  8
0
  6
CONTINUOUS
 62
     1
 10
1163.833333
 20
757.653362888
 30
0.0
 40
2.0
 50
0.0
 51
90.0
  0
LINE
  8
0
  6
CONTINUOUS
 62
     1
 10
1091.833333
 20
706.633317
 30
0.0
 11
1151.833333
 21
706.633317
 31
0.0
  0
LINE
  8
0
  6
CONTINUOUS
 62
     1
 10
1091.833333
 20
706.633317
 30
0.0
 11
1091.833333
 21
709.633317
 31
0.0
  0
LINE
  8
0
  6
CONTINUOUS
 62
     1
 10
1157.833333
 20
711.633317
 30
0.0
 11
1163.833333
 21
711.633317
 31
0.0
  0
LINE
  8
0
  6
CONTINUOUS
 62
     1
 10
1165.833333
 20
713.633317
 30
0.0
 11
1165.833333
 21
757.653362888
 31
0.0
  0
ARC
  8
0
  6
CONTINUOUS
 62
     1
 10
1163.833333
 20
713.633317
 30
0.0
 40
2.0
 50
270.0
 51
0.0
  0
LINE
  8
0
  6
CONTINUOUS
 62
     1
 10
1157.833333
 20
711.633317
 30
0.0
 11
1157.833333
 21
750.633317
 31
0.0
  0
ARC
  8
0
  6
CONTINUOUS
 62
     1
 10
1155.833333
 20
711.633317
 30
0.0
 40
2.0
 50
270.0
 51
0.0
  0
LINE
  8
0
  6
CONTINUOUS
 62
     1
 10
1085.833333
 20
711.633317
 30
0.0
 11
1085.833333
 21
750.633317
 31
0.0
  0
LINE
  8
0
  6
CONTINUOUS
 62
     1
 10
1087.833333
 20
709.633317
 30
0.0
 11
1155.833333
 21
709.633317
 31
0.0
  0
ARC
  8
0
  6
CONTINUOUS
 62
     1
 10
1087.833333
 20
711.633317
 30
0.0
 40
2.0
 50
180.0
 51
270.0
  0
LINE
  8
0
  6
CONTINUOUS
 62
     1
 10
1085.833333
 20
711.633317
 30
0.0
 11
1079.833333
 21
711.633317
 31
0.0
  0
LINE
  8
0
  6
CONTINUOUS
 62
     1
 10
1077.833333
 20
713.633317
 30
0.0
 11
1077.833333
 21
757.653362888
 31
0.0
  0
ARC
  8
0
  6
CONTINUOUS
 62
     1
 10
1079.833333
 20
713.633317
 30
0.0
 40
2.0
 50
180.0
 51
270.0
  0
CIRCLE
  8
0
  6
CONTINUOUS
 62
     2
 10
1121.833333
 20
731.633317
 30
0.0
 40
15.0
  0
LINE
  8
0
  6
CONTINUOUS
 62
     1
 10
1181.833333
 20
472.633317
 30
0.0
 11
1181.833333
 21
577.633317
 31
0.0
  0
LINE
  8
0
  6
CONTINUOUS
 62
     1
 10
1163.841553679
 20
574.698224874
 30
0.0
 11
1156.52067019
 21
575.633317
 31
0.0
  0
LINE
  8
0
  6
CONTINUOUS
 62
     1
 10
1079.825112321
 20
574.698224874
 30
0.0
 11
1087.14599581
 21
575.633317
 31
0.0
  0
LINE
  8
0
  6
LTYPE2
 62
     2
 10
1152.748435543
 20
565.633317
 30
0.0
 11
1169.248435543
 21
565.633317
 31
0.0
  0
LINE
  8
0
  6
LTYPE2
 62
     2
 10
1160.833333
 20
573.306194017
 30
0.0
 11
1160.833333
 21
557.006194017
 31
0.0
  0
LINE
  8
0
  6
LTYPE2
 62
     2
 10
1090.918230457
 20
565.633317
 30
0.0
 11
1074.418230457
 21
565.633317
 31
0.0
  0
LINE
  8
0
  6
LTYPE2
 62
     2
 10
1082.833333
 20
573.306194017
 30
0.0
 11
1082.833333
 21
557.006194017
 31
0.0
  0
LINE
  8
0
  6
LTYPE1
 62
     2
 10
1159.833333
 20
518.633317
 30
0.0
 11
1159.833333
 21
534.633317
 31
0.0
  0
LINE
  8
0
  6
LTYPE1
 62
     2
 10
1159.833333
 20
518.633317
 30
0.0
 11
1181.833333
 21
518.633317
 31
0.0
  0
LINE
  8
0
  6
LTYPE1
 62
     2
 10
1159.833333
 20
534.633317
 30
0.0
 11
1181.833333
 21
534.633317
 31
0.0
  0
LINE
  8
0
  6
LTYPE1
 62
     2
 10
1083.833333
 20
518.633317
 30
0.0
 11
1083.833333
 21
534.633317
 31
0.0
  0
LINE
  8
0
  6
LTYPE1
 62
     2
 10
1083.833333
 20
518.633317
 30
0.0
 11
1061.833333
 21
518.633317
 31
0.0
  0
LINE
  8
0
  6
LTYPE1
 62
     2
 10
1083.833333
 20
534.633317
 30
0.0
 11
1061.833333
 21
534.633317
 31
0.0
  0
LINE
  8
0
  6
LTYPE3
 62
     2
 10
1049.833333
 20
636.633317
 30
0.0
 11
1189.351190143
 21
636.633317
 31
0.0
  0
LINE
  8
0
  6
LTYPE2
 62
     2
 10
1121.833333
 20
425.586888429
 30
0.0
 11
1121.833333
 21
769.586888429
 31
0.0
  0
LINE
  8
7
  6
CONTINUOUS
 62
     2
 10
1187.833333
 20
534.633317
 30
0.0
 11
1241.833333
 21
534.633317
 31
0.0
  0
LINE
  8
7
  6
CONTINUOUS
 62
     2
 10
1235.833333
 20
534.633317
 30
0.0
 11
1238.421523451
 21
544.292575263
 31
0.0
  0
LINE
  8
7
  6
CONTINUOUS
 62
     2
 10
1235.833333
 20
534.633317
 30
0.0
 11
1233.245142549
 21
544.292575263
 31
0.0
  0
LINE
  8
7
  6
CONTINUOUS
 62
     2
 10
1235.833333
 20
518.633317
 30
0.0
 11
1233.245142549
 21
508.974058737
 31
0.0
  0
LINE
  8
7
  6
CONTINUOUS
 62
     2
 10
1235.833333
 20
518.633317
 30
0.0
 11
1238.421523451
 21
508.974058737
 31
0.0
  0
LINE
  8
7
  6
CONTINUOUS
 62
     2
 10
1187.833333
 20
518.633317
 30
0.0
 11
1241.833333
 21
518.633317
 31
0.0
  0
LINE
  8
7
  6
CONTINUOUS
 62
     2
 10
1198.833333
 20
526.633317
 30
0.0
 11
1273.833333
 21
526.633317
 31
0.0
  0
LINE
  8
7
  6
CONTINUOUS
 62
     2
 10
1267.833333
 20
526.633317
 30
0.0
 11
1270.421523451
 21
536.292575263
 31
0.0
  0
LINE
  8
7
  6
CONTINUOUS
 62
     2
 10
1267.833333
 20
526.633317
 30
0.0
 11
1265.245142549
 21
536.292575263
 31
0.0
  0
LINE
  8
7
  6
CONTINUOUS
 62
     2
 10
1267.833333
 20
526.633317
 30
0.0
 11
1267.833333
 21
636.633317
 31
0.0
  0
LINE
  8
7
  6
CONTINUOUS
 62
     2
 10
1267.833333
 20
636.633317
 30
0.0
 11
1265.245142549
 21
626.974058737
 31
0.0
  0
LINE
  8
7
  6
CONTINUOUS
 62
     2
 10
1267.833333
 20
636.633317
 30
0.0
 11
1270.421523451
 21
626.974058737
 31
0.0
  0
LINE
  8
7
  6
CONTINUOUS
 62
     2
 10
1161.833333
 20
761.633317
 30
0.0
 11
1305.833333
 21
761.633317
 31
0.0
  0
LINE
  8
7
  6
CONTINUOUS
 62
     2
 10
1299.833333
 20
761.633317
 30
0.0
 11
1297.245142549
 21
751.974058737
 31
0.0
  0
LINE
  8
7
  6
CONTINUOUS
 62
     2
 10
1299.833333
 20
761.633317
 30
0.0
 11
1302.421523451
 21
751.974058737
 31
0.0
  0
LINE
  8
7
  6
CONTINUOUS
 62
     2
 10
1299.833333
 20
761.633317
 30
0.0
 11
1299.833333
 21
424.133707
 31
0.0
  0
LINE
  8
7
  6
CONTINUOUS
 62
     2
 10
1299.833333
 20
424.133707
 30
0.0
 11
1302.421523451
 21
433.792965263
 31
0.0
  0
LINE
  8
7
  6
CONTINUOUS
 62
     2
 10
1299.833333
 20
424.133707
 30
0.0
 11
1297.245142549
 21
433.792965263
 31
0.0
  0
LINE
  8
7
  6
CONTINUOUS
 62
     2
 10
1179.186235
 20
424.133707
 30
0.0
 11
1305.833333
 21
424.133707
 31
0.0
  0
LINE
  8
7
  6
CONTINUOUS
 62
     2
 10
1267.833333
 20
526.633317
 30
0.0
 11
1265.245142549
 21
516.974058737
 31
0.0
  0
LINE
  8
7
  6
CONTINUOUS
 62
     2
 10
1267.833333
 20
526.633317
 30
0.0
 11
1270.421523451
 21
516.974058737
 31
0.0
  0
LINE
  8
7
  6
CONTINUOUS
 62
     2
 10
1267.833333
 20
526.633317
 30
0.0
 11
1267.833333
 21
424.133707
 31
0.0
  0
LINE
  8
7
  6
CONTINUOUS
 62
     2
 10
1267.833333
 20
424.133707
 30
0.0
 11
1270.421523451
 21
433.792965263
 31
0.0
  0
LINE
  8
7
  6
CONTINUOUS
 62
     2
 10
1267.833333
 20
424.133707
 30
0.0
 11
1265.245142549
 21
433.792965263
 31
0.0
  0
LINE
  8
7
  6
CONTINUOUS
 62
     2
 10
1270.833333
 20
424.133707
 30
0.0
 11
1273.833333
 21
424.133707
 31
0.0
  0
LINE
  8
7
  6
CONTINUOUS
 62
     2
 10
1267.833333
 20
636.633317
 30
0.0
 11
1270.421523451
 21
646.292575263
 31
0.0
  0
LINE
  8
7
  6
CONTINUOUS
 62
     2
 10
1267.833333
 20
636.633317
 30
0.0
 11
1265.245142549
 21
646.292575263
 31
0.0
  0
LINE
  8
7
  6
CONTINUOUS
 62
     2
 10
1267.833333
 20
636.633317
 30
0.0
 11
1267.833333
 21
761.633317
 31
0.0
  0
LINE
  8
7
  6
CONTINUOUS
 62
     2
 10
1267.833333
 20
761.633317
 30
0.0
 11
1265.245142549
 21
751.974058737
 31
0.0
  0
LINE
  8
7
  6
CONTINUOUS
 62
     2
 10
1267.833333
 20
761.633317
 30
0.0
 11
1270.421523451
 21
751.974058737
 31
0.0
  0
LINE
  8
7
  6
CONTINUOUS
 62
     2
 10
1262.833333
 20
761.633317
 30
0.0
 11
1261.833333
 21
761.633317
 31
0.0
  0
LINE
  8
7
  6
CONTINUOUS
 62
     2
 10
1235.833333
 20
649.633317
 30
0.0
 11
1235.833333
 21
503.633317
 31
0.0
  0
LINE
  8
7
  6
CONTINUOUS
 62
     2
 10
1238.833333
 20
636.633317
 30
0.0
 11
1273.833333
 21
636.633317
 31
0.0
  0
LINE
  8
0
  6
CONTINUOUS
 62
     1
 10
1141.833333
 20
437.133317
 30
0.0
 11
1141.833333
 21
480.133317
 31
0.0
  0
LINE
  8
0
  6
CONTINUOUS
 62
     1
 10
1101.833333
 20
437.133317
 30
0.0
 11
1101.833333
 21
480.133317
 31
0.0
  0
LINE
  8
0
  6
LTYPE2
 62
     2
 10
1105.833333
 20
454.133317
 30
0.0
 11
1136.833333
 21
454.133317
 31
0.0
  0
CIRCLE
  8
0
  6
CONTINUOUS
 62
     2
 10
1121.833333
 20
454.133317
 30
0.0
 40
11.0
  0
CIRCLE
  8
0
  6
CONTINUOUS
 62
     2
 10
1121.833333
 20
454.133317
 30
0.0
 40
9.5
  0
LINE
  8
7
  6
CONTINUOUS
 62
     2
 10
1060.833333
 20
698.633332259
 30
0.0
 11
1060.833333
 21
792.633317
 31
0.0
  0
LINE
  8
7
  6
CONTINUOUS
 62
     2
 10
1060.833333
 20
786.633317
 30
0.0
 11
1070.492591263
 21
784.045126549
 31
0.0
  0
LINE
  8
7
  6
CONTINUOUS
 62
     2
 10
1060.833333
 20
786.633317
 30
0.0
 11
1070.492591263
 21
789.221507451
 31
0.0
  0
LINE
  8
7
  6
CONTINUOUS
 62
     2
 10
1060.833333
 20
786.633317
 30
0.0
 11
1182.833333
 21
786.633317
 31
0.0
  0
LINE
  8
7
  6
CONTINUOUS
 62
     2
 10
1182.833333
 20
786.633317
 30
0.0
 11
1173.174074737
 21
789.221507451
 31
0.0
  0
LINE
  8
7
  6
CONTINUOUS
 62
     2
 10
1182.833333
 20
786.633317
 30
0.0
 11
1173.174074737
 21
784.045126549
 31
0.0
  0
LINE
  8
7
  6
CONTINUOUS
 62
     2
 10
1182.833333
 20
698.633332259
 30
0.0
 11
1182.833333
 21
792.633317
 31
0.0
  0
LINE
  8
7
  6
CONTINUOUS
 62
     2
 10
1061.833333
 20
500.633317
 30
0.0
 11
1061.833333
 21
363.48382445
 31
0.0
  0
LINE
  8
0
  6
LTYPE3
 62
     2
 10
1035.50801509
 20
526.633317
 30
0.0
 11
1192.833333
 21
526.633317
 31
0.0
  0
LINE
  8
0
  6
CONTINUOUS
 62
     1
 10
1061.833333
 20
472.633317
 30
0.0
 11
1061.833333
 21
577.633317
 31
0.0
  0
CIRCLE
  8
0
  6
CONTINUOUS
 62
     1
 10
1121.833333
 20
526.633317
 30
0.0
 40
31.75
  0
LINE
  8
0
  6
CONTINUOUS
 62
     1
 10
1073.768425126
 20
568.641537679
 30
0.0
 11
1071.155786676
 21
548.187059279
 31
0.0
  0
LINE
  8
0
  6
CONTINUOUS
 62
     1
 10
1088.076768359
 20
676.695760841
 30
0.0
 11
1090.382649559
 21
672.695762841
 31
0.0
  0
LINE
  8
0
  6
CONTINUOUS
 62
     1
 10
1088.076768359
 20
668.695764841
 30
0.0
 11
1090.382649559
 21
672.695762841
 31
0.0
  0
LINE
  8
0
  6
CONTINUOUS
 62
     1
 10
1083.465005959
 20
668.695764841
 30
0.0
 11
1081.159124759
 21
672.695762841
 31
0.0
  0
LINE
  8
0
  6
CONTINUOUS
 62
     1
 10
1083.465005959
 20
668.695764841
 30
0.0
 11
1088.076768359
 21
668.695764841
 31
0.0
  0
CIRCLE
  8
0
  6
CONTINUOUS
 62
     1
 10
1121.833333
 20
661.633317
 30
0.0
 40
3.999998
  0
LINE
  8
0
  6
CONTINUOUS
 62
     1
 10
1125.833331
 20
663.9391982
 30
0.0
 11
1125.833331
 21
659.3274358
 31
0.0
  0
LINE
  8
0
  6
CONTINUOUS
 62
     1
 10
1125.833331
 20
659.3274358
 30
0.0
 11
1121.833333
 21
657.0215546
 31
0.0
  0
LINE
  8
0
  6
CONTINUOUS
 62
     1
 10
1117.833335
 20
663.9391982
 30
0.0
 11
1117.833335
 21
659.3274358
 31
0.0
  0
LINE
  8
0
  6
CONTINUOUS
 62
     1
 10
1117.833335
 20
659.3274358
 30
0.0
 11
1121.833333
 21
657.0215546
 31
0.0
  0
LINE
  8
0
  6
CONTINUOUS
 62
     1
 10
1125.833331
 20
663.9391982
 30
0.0
 11
1121.833333
 21
666.2450794
 31
0.0
  0
LINE
  8
0
  6
CONTINUOUS
 62
     1
 10
1117.833335
 20
663.9391982
 30
0.0
 11
1121.833333
 21
666.2450794
 31
0.0
  0
LINE
  8
0
  6
CONTINUOUS
 62
     1
 10
1098.840735885
 20
634.608317
 30
0.0
 11
1095.333333
 21
632.583317
 31
0.0
  0
LINE
  8
0
  6
CONTINUOUS
 62
     1
 10
1095.333333
 20
632.583317
 30
0.0
 11
1091.825930115
 21
634.608317
 31
0.0
  0
LINE
  8
0
  6
CONTINUOUS
 62
     1
 10
1098.840735885
 20
638.658317
 30
0.0
 11
1098.840735885
 21
634.608317
 31
0.0
  0
LINE
  8
0
  6
CONTINUOUS
 62
     1
 10
1091.825930115
 20
634.608317
 30
0.0
 11
1091.825930115
 21
638.658317
 31
0.0
  0
CIRCLE
  8
0
  6
CONTINUOUS
 62
     1
 10
1095.333333
 20
636.633317
 30
0.0
 40
3.5
  0
LINE
  8
0
  6
CONTINUOUS
 62
     1
 10
1091.825930115
 20
638.658317
 30
0.0
 11
1095.333333
 21
640.683317
 31
0.0
  0
LINE
  8
0
  6
CONTINUOUS
 62
     1
 10
1095.333333
 20
640.683317
 30
0.0
 11
1098.840735885
 21
638.658317
 31
0.0
  0
LINE
  8
0
  6
CONTINUOUS
 62
     1
 10
1083.465005959
 20
596.570873159
 30
0.0
 11
1088.076768359
 21
596.570873159
 31
0.0
  0
LINE
  8
0
  6
CONTINUOUS
 62
     1
 10
1088.076768359
 20
596.570873159
 30
0.0
 11
1090.382649559
 21
600.570871159
 31
0.0
  0
LINE
  8
0
  6
CONTINUOUS
 62
     1
 10
1088.076768359
 20
604.570869159
 30
0.0
 11
1090.382649559
 21
600.570871159
 31
0.0
  0
LINE
  8
0
  6
CONTINUOUS
 62
     1
 10
1083.465005959
 20
604.570869159
 30
0.0
 11
1088.076768359
 21
604.570869159
 31
0.0
  0
LINE
  8
0
  6
CONTINUOUS
 62
     1
 10
1083.465005959
 20
596.570873159
 30
0.0
 11
1081.159124759
 21
600.570871159
 31
0.0
  0
LINE
  8
0
  6
CONTINUOUS
 62
     1
 10
1083.465005959
 20
604.570869159
 30
0.0
 11
1081.159124759
 21
600.570871159
 31
0.0
  0
CIRCLE
  8
0
  6
CONTINUOUS
 62
     1
 10
1085.770887159
 20
600.570871159
 30
0.0
 40
3.999998
  0
ARC
  8
0
  6
CONTINUOUS
 62
     1
 10
1065.833333
 20
580.633317
 30
0.0
 40
5.0
 50
180.0
 51
270.0
  0
LINE
  8
0
  6
CONTINUOUS
 62
     1
 10
1077.333283
 20
581.886287
 30
0.0
 11
1077.333283
 21
589.380347
 31
0.0
  0
LINE
  8
0
  6
CONTINUOUS
 62
     1
 10
1077.333283
 20
589.380347
 30
0.0
 11
1070.833333
 21
593.127377
 31
0.0
  0
LINE
  8
0
  6
CONTINUOUS
 62
     1
 10
1064.333383
 20
581.886287
 30
0.0
 11
1070.833333
 21
578.139257
 31
0.0
  0
LINE
  8
0
  6
CONTINUOUS
 62
     1
 10
1077.333283
 20
581.886287
 30
0.0
 11
1070.833333
 21
578.139257
 31
0.0
  0
LINE
  8
0
  6
CONTINUOUS
 62
     1
 10
1064.333383
 20
589.380347
 30
0.0
 11
1070.833333
 21
593.127377
 31
0.0
  0
LINE
  8
0
  6
CONTINUOUS
 62
     1
 10
1064.333383
 20
581.886287
 30
0.0
 11
1064.333383
 21
589.380347
 31
0.0
  0
CIRCLE
  8
0
  6
CONTINUOUS
 62
     1
 10
1070.833333
 20
585.633317
 30
0.0
 40
6.49995
  0
ARC
  8
0
  6
CONTINUOUS
 62
     1
 10
1177.833333
 20
580.633317
 30
0.0
 40
5.0
 50
270.0
 51
0.0
  0
LINE
  8
0
  6
CONTINUOUS
 62
     1
 10
1153.895780841
 20
598.264989959
 30
0.0
 11
1153.895780841
 21
602.876752359
 31
0.0
  0
LINE
  8
0
  6
CONTINUOUS
 62
     1
 10
1161.895776841
 20
602.876752359
 30
0.0
 11
1157.895778841
 21
605.182633559
 31
0.0
  0
LINE
  8
0
  6
CONTINUOUS
 62
     1
 10
1153.895780841
 20
602.876752359
 30
0.0
 11
1157.895778841
 21
605.182633559
 31
0.0
  0
LINE
  8
0
  6
CONTINUOUS
 62
     1
 10
1161.895776841
 20
598.264989959
 30
0.0
 11
1157.895778841
 21
595.959108759
 31
0.0
  0
LINE
  8
0
  6
CONTINUOUS
 62
     1
 10
1153.895780841
 20
598.264989959
 30
0.0
 11
1157.895778841
 21
595.959108759
 31
0.0
  0
LINE
  8
0
  6
CONTINUOUS
 62
     1
 10
1161.895776841
 20
598.264989959
 30
0.0
 11
1161.895776841
 21
602.876752359
 31
0.0
  0
CIRCLE
  8
0
  6
CONTINUOUS
 62
     1
 10
1157.895778841
 20
600.570871159
 30
0.0
 40
3.999998
  0
LINE
  8
0
  6
CONTINUOUS
 62
     1
 10
1166.333383
 20
581.886287
 30
0.0
 11
1166.333383
 21
589.380347
 31
0.0
  0
LINE
  8
0
  6
CONTINUOUS
 62
     1
 10
1166.333383
 20
581.886287
 30
0.0
 11
1172.833333
 21
578.139257
 31
0.0
  0
LINE
  8
0
  6
CONTINUOUS
 62
     1
 10
1179.333283
 20
581.886287
 30
0.0
 11
1179.333283
 21
589.380347
 31
0.0
  0
LINE
  8
0
  6
CONTINUOUS
 62
     1
 10
1179.333283
 20
581.886287
 30
0.0
 11
1172.833333
 21
578.139257
 31
0.0
  0
LINE
  8
0
  6
CONTINUOUS
 62
     1
 10
1179.333283
 20
589.380347
 30
0.0
 11
1172.833333
 21
593.127377
 31
0.0
  0
LINE
  8
0
  6
CONTINUOUS
 62
     1
 10
1166.333383
 20
589.380347
 30
0.0
 11
1172.833333
 21
593.127377
 31
0.0
  0
CIRCLE
  8
0
  6
CONTINUOUS
 62
     1
 10
1172.833333
 20
585.633317
 30
0.0
 40
6.49995
  0
LINE
  8
0
  6
CONTINUOUS
 62
     1
 10
1161.895776841
 20
675.001644041
 30
0.0
 11
1157.895778841
 21
677.307525241
 31
0.0
  0
LINE
  8
0
  6
CONTINUOUS
 62
     1
 10
1153.895780841
 20
675.001644041
 30
0.0
 11
1157.895778841
 21
677.307525241
 31
0.0
  0
LINE
  8
0
  6
CONTINUOUS
 62
     1
 10
1161.895776841
 20
675.001644041
 30
0.0
 11
1161.895776841
 21
670.389881641
 31
0.0
  0
LINE
  8
0
  6
CONTINUOUS
 62
     1
 10
1161.895776841
 20
670.389881641
 30
0.0
 11
1157.895778841
 21
668.084000441
 31
0.0
  0
LINE
  8
0
  6
CONTINUOUS
 62
     1
 10
1153.895780841
 20
670.389881641
 30
0.0
 11
1157.895778841
 21
668.084000441
 31
0.0
  0
LINE
  8
0
  6
CONTINUOUS
 62
     1
 10
1153.895780841
 20
675.001644041
 30
0.0
 11
1153.895780841
 21
670.389881641
 31
0.0
  0
CIRCLE
  8
0
  6
CONTINUOUS
 62
     1
 10
1157.895778841
 20
672.695762841
 30
0.0
 40
3.999998
  0
CIRCLE
  8
0
  6
CONTINUOUS
 62
     1
 10
1121.833333
 20
636.633317
 30
0.0
 40
42.0
  0
ARC
  8
0
  6
CONTINUOUS
 62
     1
 10
1148.333333
 20
636.633317
 30
0.0
 40
10.0
 50
0.0
 51
150.0
  0
ARC
  8
0
  6
CONTINUOUS
 62
     1
 10
1148.333333
 20
636.633317
 30
0.0
 40
10.0
 50
210.0
 51
0.0
  0
CIRCLE
  8
0
  6
CONTINUOUS
 62
     1
 10
1148.333333
 20
636.633317
 30
0.0
 40
3.5
  0
LINE
  8
0
  6
CONTINUOUS
 62
     1
 10
1151.840735885
 20
638.658317
 30
0.0
 11
1148.333333
 21
640.683317
 31
0.0
  0
LINE
  8
0
  6
CONTINUOUS
 62
     1
 10
1148.333333
 20
640.683317
 30
0.0
 11
1144.825930115
 21
638.658317
 31
0.0
  0
LINE
  8
0
  6
CONTINUOUS
 62
     1
 10
1144.825930115
 20
638.658317
 30
0.0
 11
1144.825930115
 21
634.608317
 31
0.0
  0
LINE
  8
0
  6
CONTINUOUS
 62
     1
 10
1144.825930115
 20
634.608317
 30
0.0
 11
1148.333333
 21
632.583317
 31
0.0
  0
LINE
  8
0
  6
CONTINUOUS
 62
     1
 10
1148.333333
 20
632.583317
 30
0.0
 11
1151.840735885
 21
634.608317
 31
0.0
  0
LINE
  8
0
  6
CONTINUOUS
 62
     1
 10
1151.840735885
 20
634.608317
 30
0.0
 11
1151.840735885
 21
638.658317
 31
0.0
  0
CIRCLE
  8
0
  6
CONTINUOUS
 62
     1
 10
1121.833333
 20
636.633317
 30
0.0
 40
36.5
  0
CIRCLE
  8
0
  6
CONTINUOUS
 62
     1
 10
1121.833333
 20
611.633317
 30
0.0
 40
3.999998
  0
LINE
  8
0
  6
CONTINUOUS
 62
     1
 10
1125.833331
 20
609.3274358
 30
0.0
 11
1125.833331
 21
613.9391982
 31
0.0
  0
LINE
  8
0
  6
CONTINUOUS
 62
     1
 10
1125.833331
 20
613.9391982
 30
0.0
 11
1121.833333
 21
616.2450794
 31
0.0
  0
LINE
  8
0
  6
CONTINUOUS
 62
     1
 10
1117.833335
 20
609.3274358
 30
0.0
 11
1117.833335
 21
613.9391982
 31
0.0
  0
LINE
  8
0
  6
CONTINUOUS
 62
     1
 10
1117.833335
 20
613.9391982
 30
0.0
 11
1121.833333
 21
616.2450794
 31
0.0
  0
LINE
  8
0
  6
CONTINUOUS
 62
     1
 10
1125.833331
 20
609.3274358
 30
0.0
 11
1121.833333
 21
607.0215546
 31
0.0
  0
LINE
  8
0
  6
CONTINUOUS
 62
     1
 10
1117.833335
 20
609.3274358
 30
0.0
 11
1121.833333
 21
607.0215546
 31
0.0
  0
ARC
  8
0
  6
CONTINUOUS
 62
     1
 10
1177.833333
 20
692.633317
 30
0.0
 40
5.0
 50
0.0
 51
90.0
  0
LINE
  8
0
  6
CONTINUOUS
 62
     1
 10
1144.833333
 20
697.633317
 30
0.0
 11
1177.833333
 21
697.633317
 31
0.0
  0
LINE
  8
0
  6
CONTINUOUS
 62
     1
 10
1166.333383
 20
691.380347
 30
0.0
 11
1166.333383
 21
683.886287
 31
0.0
  0
LINE
  8
0
  6
CONTINUOUS
 62
     1
 10
1166.333383
 20
683.886287
 30
0.0
 11
1172.833333
 21
680.139257
 31
0.0
  0
LINE
  8
0
  6
CONTINUOUS
 62
     1
 10
1179.333283
 20
691.380347
 30
0.0
 11
1179.333283
 21
683.886287
 31
0.0
  0
LINE
  8
0
  6
CONTINUOUS
 62
     1
 10
1179.333283
 20
691.380347
 30
0.0
 11
1172.833333
 21
695.127377
 31
0.0
  0
LINE
  8
0
  6
CONTINUOUS
 62
     1
 10
1166.333383
 20
691.380347
 30
0.0
 11
1172.833333
 21
695.127377
 31
0.0
  0
LINE
  8
0
  6
CONTINUOUS
 62
     1
 10
1179.333283
 20
683.886287
 30
0.0
 11
1172.833333
 21
680.139257
 31
0.0
  0
CIRCLE
  8
0
  6
CONTINUOUS
 62
     1
 10
1172.833333
 20
687.633317
 30
0.0
 40
6.49995
  0
LINE
  8
0
  6
CONTINUOUS
 62
     1
 10
1182.833333
 20
580.633317
 30
0.0
 11
1182.833333
 21
692.633317
 31
0.0
  0
ARC
  8
0
  6
CONTINUOUS
 62
     1
 10
1065.833333
 20
692.633317
 30
0.0
 40
5.0
 50
90.0
 51
180.0
  0
LINE
  8
0
  6
CONTINUOUS
 62
     1
 10
1060.833333
 20
580.633317
 30
0.0
 11
1060.833333
 21
692.633317
 31
0.0
  0
LINE
  8
0
  6
CONTINUOUS
 62
     1
 10
1065.833333
 20
697.633317
 30
0.0
 11
1098.833333
 21
697.633317
 31
0.0
  0
LINE
  8
0
  6
CONTINUOUS
 62
     1
 10
1064.333383
 20
691.380347
 30
0.0
 11
1064.333383
 21
683.886287
 31
0.0
  0
LINE
  8
0
  6
CONTINUOUS
 62
     1
 10
1077.333283
 20
691.380347
 30
0.0
 11
1077.333283
 21
683.886287
 31
0.0
  0
LINE
  8
0
  6
CONTINUOUS
 62
     1
 10
1064.333383
 20
691.380347
 30
0.0
 11
1070.833333
 21
695.127377
 31
0.0
  0
LINE
  8
0
  6
CONTINUOUS
 62
     1
 10
1077.333283
 20
691.380347
 30
0.0
 11
1070.833333
 21
695.127377
 31
0.0
  0
LINE
  8
0
  6
CONTINUOUS
 62
     1
 10
1064.333383
 20
683.886287
 30
0.0
 11
1070.833333
 21
680.139257
 31
0.0
  0
CIRCLE
  8
0
  6
CONTINUOUS
 62
     1
 10
1070.833333
 20
687.633317
 30
0.0
 40
6.49995
  0
LINE
  8
0
  6
CONTINUOUS
 62
     1
 10
1077.333283
 20
683.886287
 30
0.0
 11
1070.833333
 21
680.139257
 31
0.0
  0
LINE
  8
0
  6
CONTINUOUS
 62
     1
 10
1083.465005959
 20
676.695760841
 30
0.0
 11
1088.076768359
 21
676.695760841
 31
0.0
  0
LINE
  8
0
  6
CONTINUOUS
 62
     1
 10
1083.465005959
 20
676.695760841
 30
0.0
 11
1081.159124759
 21
672.695762841
 31
0.0
  0
CIRCLE
  8
0
  6
CONTINUOUS
 62
     1
 10
1085.770887159
 20
672.695762841
 30
0.0
 40
3.999998
  0
CIRCLE
  8
0
  6
CONTINUOUS
 62
     1
 10
1121.833333
 20
636.633317
 30
0.0
 40
57.0
  0
LINE
  8
0
  6
CONTINUOUS
 62
     1
 10
1174.833333
 20
429.633317
 30
0.0
 11
1174.833333
 21
477.133317
 31
0.0
  0
LINE
  8
0
  6
CONTINUOUS
 62
     1
 10
1068.833333
 20
429.633317
 30
0.0
 11
1068.833333
 21
477.133317
 31
0.0
  0
LINE
  8
0
  6
CONTINUOUS
 62
     1
 10
1068.833333
 20
429.633317
 30
0.0
 11
1174.833333
 21
429.633317
 31
0.0
  0
LINE
  8
7
  6
CONTINUOUS
 62
     2
 10
1181.833333
 20
369.48382445
 30
0.0
 11
1172.174074737
 21
372.072014901
 31
0.0
  0
LINE
  8
7
  6
CONTINUOUS
 62
     2
 10
1181.833333
 20
369.48382445
 30
0.0
 11
1172.174074737
 21
366.895633999
 31
0.0
  0
LINE
  8
7
  6
CONTINUOUS
 62
     2
 10
1181.833333
 20
369.48382445
 30
0.0
 11
1061.833333
 21
369.48382445
 31
0.0
  0
LINE
  8
7
  6
CONTINUOUS
 62
     2
 10
1061.833333
 20
369.48382445
 30
0.0
 11
1071.492591263
 21
366.895633999
 31
0.0
  0
LINE
  8
7
  6
CONTINUOUS
 62
     2
 10
1061.833333
 20
369.48382445
 30
0.0
 11
1071.492591263
 21
372.072014901
 31
0.0
  0
LINE
  8
0
  6
CONTINUOUS
 62
     1
 10
1071.833333
 20
481.633317
 30
0.0
 11
1171.833333
 21
481.633317
 31
0.0
  0
LINE
  8
0
  6
CONTINUOUS
 62
     1
 10
1071.833333
 20
481.633317
 30
0.0
 11
1071.833333
 21
480.133317
 31
0.0
  0
ARC
  8
0
  6
CONTINUOUS
 62
     1
 10
1071.833333
 20
477.133317
 30
0.0
 40
3.0
 50
90.0
 51
180.0
  0
LINE
  8
0
  6
CONTINUOUS
 62
     1
 10
1071.833333
 20
480.133317
 30
0.0
 11
1171.833333
 21
480.133317
 31
0.0
  0
LINE
  8
7
  6
CONTINUOUS
 62
     2
 10
1181.833333
 20
472.633317
 30
0.0
 11
1181.833333
 21
363.48382445
 31
0.0
  0
TEXT
  8
7
  6
CONTINUOUS
 62
     2
 10
1104.433333
 20
790.633317
 30
0.0
 40
15.0
  1
１２２
 50
0.0
 41
0.9
 51
0.0
  7
KANJI26
  0
TEXT
  8
7
  6
CONTINUOUS
 62
     2
 10
1104.433333
 20
373.48382445
 30
0.0
 40
15.0
  1
１２０
 50
0.0
 41
0.9
 51
0.0
  7
KANJI26
  0
TEXT
  8
7
  6
CONTINUOUS
 62
     2
 10
1263.833333
 20
564.233317
 30
0.0
 40
15.0
  1
１１０
 50
90.0
 41
0.9
 51
0.0
  7
KANJI26
  0
TEXT
  8
7
  6
CONTINUOUS
 62
     2
 10
1295.833333
 20
575.483512
 30
0.0
 40
15.0
  1
３３８
 50
90.0
 41
0.9
 51
0.0
  7
KANJI26
  0
TEXT
  8
7
  6
CONTINUOUS
 62
     2
 10
1263.833333
 20
457.983512
 30
0.0
 40
15.0
  1
１０３
 50
90.0
 41
0.9
 51
0.0
  7
KANJI26
  0
TEXT
  8
7
  6
CONTINUOUS
 62
     2
 10
1263.833333
 20
681.733317
 30
0.0
 40
15.0
  1
１２５
 50
90.0
 41
0.9
 51
0.0
  7
KANJI26
  0
TEXT
  8
7
  6
CONTINUOUS
 62
     2
 10
1231.833333
 20
544.633317
 30
0.0
 40
15.0
  1
φ１６Ｈ１０深２２
 50
90.0
 41
0.9
 51
0.0
  7
KANJI26
  0
CIRCLE
  8
0
  6
CONTINUOUS
 62
     1
 10
1082.833333
 20
565.633317
 30
0.0
 40
5.0
  0
ARC
  8
0
  6
CONTINUOUS
 62
     1
 10
1121.833333
 20
526.633317
 30
0.0
 40
42.5
 50
334.723825759
 51
85.276174241
  0
ARC
  8
0
  6
CONTINUOUS
 62
     1
 10
1121.833333
 20
526.633317
 30
0.0
 40
42.5
 50
214.723825759
 51
325.276174241
  0
LINE
  8
0
  6
CONTINUOUS
 62
     1
 10
1157.791336449
 20
509.914405913
 30
0.0
 11
1154.291336449
 21
503.852228087
 31
0.0
  0
LINE
  8
0
  6
CONTINUOUS
 62
     1
 10
1154.291336449
 20
503.852228087
 30
0.0
 11
1156.764390782
 21
502.424409502
 31
0.0
  0
LINE
  8
0
  6
CONTINUOUS
 62
     1
 10
1157.791336449
 20
509.914405913
 30
0.0
 11
1160.264390782
 21
508.486587329
 31
0.0
  0
ARC
  8
0
  6
CONTINUOUS
 62
     1
 10
1121.833333
 20
526.633317
 30
0.0
 40
42.5
 50
94.723825759
 51
205.276174241
  0
LINE
  8
0
  6
CONTINUOUS
 62
     1
 10
1085.875329551
 20
509.914405913
 30
0.0
 11
1083.402275218
 21
508.486587329
 31
0.0
  0
LINE
  8
0
  6
CONTINUOUS
 62
     1
 10
1089.375329551
 20
503.852228087
 30
0.0
 11
1085.875329551
 21
509.914405913
 31
0.0
  0
LINE
  8
0
  6
CONTINUOUS
 62
     1
 10
1089.375329551
 20
503.852228087
 30
0.0
 11
1086.902275218
 21
502.424409502
 31
0.0
  0
LINE
  8
0
  6
CONTINUOUS
 62
     1
 10
1118.333333
 20
566.133317
 30
0.0
 11
1125.333333
 21
566.133317
 31
0.0
  0
LINE
  8
0
  6
CONTINUOUS
 62
     1
 10
1125.333333
 20
566.133317
 30
0.0
 11
1125.333333
 21
568.988954169
 31
0.0
  0
LINE
  8
0
  6
CONTINUOUS
 62
     1
 10
1118.333333
 20
566.133317
 30
0.0
 11
1118.333333
 21
568.988954169
 31
0.0
  0
ARC
  8
0
  6
CONTINUOUS
 62
     1
 10
1075.233333
 20
430.633317
 30
0.0
 40
5.0
 50
272.3
 51
348.5
  0
ARC
  8
0
  6
CONTINUOUS
 62
     1
 10
1074.433333
 20
430.633317
 30
0.0
 40
5.0
 50
191.5
 51
267.7
  0
LINE
  8
0
  6
CONTINUOUS
 62
     1
 10
1075.433333
 20
425.633317
 30
0.0
 11
1074.233333
 21
425.633317
 31
0.0
  0
LINE
  8
0
  6
LTYPE4
 62
     2
 10
1074.833333
 20
422.233317
 30
0.0
 11
1074.833333
 21
435.633317
 31
0.0
  0
ARC
  8
0
  6
CONTINUOUS
 62
     1
 10
1169.233333
 20
430.633317
 30
0.0
 40
5.0
 50
272.3
 51
348.5
  0
ARC
  8
0
  6
CONTINUOUS
 62
     1
 10
1168.433333
 20
430.633317
 30
0.0
 40
5.0
 50
191.5
 51
267.7
  0
LINE
  8
0
  6
CONTINUOUS
 62
     1
 10
1169.433333
 20
425.633317
 30
0.0
 11
1168.233333
 21
425.633317
 31
0.0
  0
LINE
  8
0
  6
LTYPE4
 62
     2
 10
1168.833333
 20
422.233317
 30
0.0
 11
1168.833333
 21
435.633317
 31
0.0
  0
LINE
  8
0
  6
CONTINUOUS
 62
     1
 10
1087.833333
 20
550.966650333
 30
0.0
 11
1061.833333
 21
546.633317
 31
0.0
  0
LINE
  8
0
  6
CONTINUOUS
 62
     1
 10
1155.833333
 20
550.966650333
 30
0.0
 11
1181.833333
 21
546.633317
 31
0.0
  0
LINE
  8
0
  6
CONTINUOUS
 62
     1
 10
1076.833333
 20
503.633317
 30
0.0
 11
1080.620762097
 21
518.633317
 31
0.0
  0
LINE
  8
0
  6
CONTINUOUS
 62
     1
 10
1166.833333
 20
503.633317
 30
0.0
 11
1163.298399176
 21
517.633317
 31
0.0
  0
LINE
  8
0
  6
CONTINUOUS
 62
     2
 10
974.933333
 20
567.583317
 30
0.0
 11
962.859260171
 21
570.818555064
 31
0.0
  0
LINE
  8
0
  6
CONTINUOUS
 62
     2
 10
974.933333
 20
567.583317
 30
0.0
 11
962.859260171
 21
564.348078936
 31
0.0
  0
LINE
  8
0
  6
CONTINUOUS
 62
     2
 10
974.933333
 20
567.583317
 30
0.0
 11
933.933333
 21
567.583317
 31
0.0
  0
TEXT
  8
0
  6
CONTINUOUS
 62
     3
 10
940.933333
 20
577.583317
 30
0.0
 40
20.0
  1
前進
 50
0.0
 41
0.925
 51
0.0
  7
KANJI31
  0
LINE
  8
0
  6
CONTINUOUS
 62
     1
 10
1098.833333
 20
534.633317
 30
0.0
 11
1090.833333
 21
534.633317
 31
0.0
  0
LINE
  8
0
  6
CONTINUOUS
 62
     1
 10
1098.833333
 20
511.633317
 30
0.0
 11
1098.833333
 21
541.633317
 31
0.0
  0
LINE
  8
0
  6
LTYPE1
 62
     2
 10
1113.833333
 20
534.633317
 30
0.0
 11
1098.833333
 21
534.633317
 31
0.0
  0
LINE
  8
0
  6
CONTINUOUS
 62
     1
 10
1101.833333
 20
541.633317
 30
0.0
 11
1098.833333
 21
541.633317
 31
0.0
  0
CIRCLE
  8
0
  6
CONTINUOUS
 62
     1
 10
1096.183333
 20
526.633317
 30
0.0
 40
2.0
  0
LINE
  8
0
  6
LTYPE2
 62
     2
 10
1096.183333
 20
522.233317
 30
0.0
 11
1096.183333
 21
530.633317
 31
0.0
  0
LINE
  8
0
  6
CONTINUOUS
 62
     1
 10
1090.833333
 20
534.633317
 30
0.0
 11
1090.833333
 21
518.633317
 31
0.0
  0
LINE
  8
0
  6
CONTINUOUS
 62
     1
 10
1098.833333
 20
518.633317
 30
0.0
 11
1090.833333
 21
518.633317
 31
0.0
  0
LINE
  8
0
  6
CONTINUOUS
 62
     1
 10
1101.833333
 20
511.633317
 30
0.0
 11
1098.833333
 21
511.633317
 31
0.0
  0
LINE
  8
0
  6
LTYPE1
 62
     2
 10
1098.833333
 20
518.633317
 30
0.0
 11
1113.833333
 21
518.633317
 31
0.0
  0
LINE
  8
0
  6
LTYPE2
 62
     2
 10
1147.483333
 20
522.233317
 30
0.0
 11
1147.483333
 21
530.633317
 31
0.0
  0
CIRCLE
  8
0
  6
CONTINUOUS
 62
     1
 10
1147.483333
 20
526.633317
 30
0.0
 40
2.0
  0
LINE
  8
0
  6
CONTINUOUS
 62
     1
 10
1152.833333
 20
518.633317
 30
0.0
 11
1144.833333
 21
518.633317
 31
0.0
  0
LINE
  8
0
  6
CONTINUOUS
 62
     1
 10
1152.833333
 20
518.633317
 30
0.0
 11
1144.833333
 21
518.633317
 31
0.0
  0
LINE
  8
0
  6
CONTINUOUS
 62
     1
 10
1144.833333
 20
511.633317
 30
0.0
 11
1144.833333
 21
541.633317
 31
0.0
  0
LINE
  8
0
  6
LTYPE1
 62
     2
 10
1144.833333
 20
518.633317
 30
0.0
 11
1129.833333
 21
518.633317
 31
0.0
  0
LINE
  8
0
  6
CONTINUOUS
 62
     1
 10
1141.833333
 20
511.633317
 30
0.0
 11
1144.833333
 21
511.633317
 31
0.0
  0
LINE
  8
0
  6
CONTINUOUS
 62
     1
 10
1144.833333
 20
534.633317
 30
0.0
 11
1152.833333
 21
534.633317
 31
0.0
  0
LINE
  8
0
  6
CONTINUOUS
 62
     1
 10
1144.833333
 20
534.633317
 30
0.0
 11
1152.833333
 21
534.633317
 31
0.0
  0
LINE
  8
0
  6
LTYPE1
 62
     2
 10
1129.833333
 20
534.633317
 30
0.0
 11
1144.833333
 21
534.633317
 31
0.0
  0
LINE
  8
0
  6
CONTINUOUS
 62
     1
 10
1141.833333
 20
541.633317
 30
0.0
 11
1144.833333
 21
541.633317
 31
0.0
  0
LINE
  8
0
  6
CONTINUOUS
 62
     1
 10
1152.833333
 20
534.633317
 30
0.0
 11
1152.833333
 21
518.633317
 31
0.0
  0
LINE
  8
0
  6
CONTINUOUS
 62
     1
 10
1152.833333
 20
534.633317
 30
0.0
 11
1152.833333
 21
518.633317
 31
0.0
  0
CIRCLE
  8
0
  6
CONTINUOUS
 62
     1
 10
837.833333
 20
526.633317
 30
0.0
 40
8.0
  0
LINE
  8
0
  6
LTYPE1
 62
     2
 10
812.833333
 20
506.633317
 30
0.0
 11
812.833333
 21
546.633317
 31
0.0
  0
LINE
  8
0
  6
CONTINUOUS
 62
     1
 10
845.833333
 20
546.633317
 30
0.0
 11
855.833333
 21
536.633317
 31
0.0
  0
LINE
  8
0
  6
CONTINUOUS
 62
     1
 10
855.833333
 20
516.633317
 30
0.0
 11
855.833333
 21
536.633317
 31
0.0
  0
LINE
  8
0
  6
CONTINUOUS
 62
     1
 10
845.833333
 20
506.633317
 30
0.0
 11
855.833333
 21
516.633317
 31
0.0
  0
LINE
  8
7
  6
CONTINUOUS
 62
     2
 10
851.833333
 20
546.633317
 30
0.0
 11
897.333333
 21
546.633317
 31
0.0
  0
LINE
  8
7
  6
CONTINUOUS
 62
     2
 10
891.333333
 20
546.633317
 30
0.0
 11
888.745142549
 21
536.974058737
 31
0.0
  0
LINE
  8
7
  6
CONTINUOUS
 62
     2
 10
891.333333
 20
546.633317
 30
0.0
 11
893.921523451
 21
536.974058737
 31
0.0
  0
LINE
  8
7
  6
CONTINUOUS
 62
     2
 10
891.333333
 20
546.633317
 30
0.0
 11
891.333333
 21
506.633317
 31
0.0
  0
LINE
  8
7
  6
CONTINUOUS
 62
     2
 10
891.333333
 20
506.633317
 30
0.0
 11
893.921523451
 21
516.292575263
 31
0.0
  0
LINE
  8
7
  6
CONTINUOUS
 62
     2
 10
891.333333
 20
506.633317
 30
0.0
 11
888.745142549
 21
516.292575263
 31
0.0
  0
LINE
  8
7
  6
CONTINUOUS
 62
     2
 10
851.833333
 20
506.633317
 30
0.0
 11
897.333333
 21
506.633317
 31
0.0
  0
LINE
  8
0
  6
LTYPE3
 62
     2
 10
564.833333
 20
526.633317
 30
0.0
 11
863.833333
 21
526.633317
 31
0.0
  0
LINE
  8
0
  6
CONTINUOUS
 62
     1
 10
580.183147745
 20
494.883317
 30
0.0
 11
767.833333
 21
494.883317
 31
0.0
  0
LINE
  8
0
  6
CONTINUOUS
 62
     1
 10
767.833333
 20
507.633317
 30
0.0
 11
802.833333
 21
507.633317
 31
0.0
  0
LINE
  8
7
  6
CONTINUOUS
 62
     2
 10
767.833333
 20
396.633317
 30
0.0
 11
758.174074737
 21
399.221507451
 31
0.0
  0
LINE
  8
7
  6
CONTINUOUS
 62
     2
 10
767.833333
 20
396.633317
 30
0.0
 11
758.174074737
 21
394.045126549
 31
0.0
  0
LINE
  8
7
  6
CONTINUOUS
 62
     2
 10
837.833333
 20
368.633317
 30
0.0
 11
828.174074737
 21
371.221507451
 31
0.0
  0
LINE
  8
7
  6
CONTINUOUS
 62
     2
 10
837.833333
 20
368.633317
 30
0.0
 11
828.174074737
 21
366.045126549
 31
0.0
  0
LINE
  8
7
  6
CONTINUOUS
 62
     2
 10
767.833333
 20
396.633317
 30
0.0
 11
777.492591263
 21
394.045126549
 31
0.0
  0
LINE
  8
7
  6
CONTINUOUS
 62
     2
 10
767.833333
 20
396.633317
 30
0.0
 11
777.492591263
 21
399.221507451
 31
0.0
  0
LINE
  8
7
  6
CONTINUOUS
 62
     2
 10
767.833333
 20
396.633317
 30
0.0
 11
802.833333
 21
396.633317
 31
0.0
  0
LINE
  8
7
  6
CONTINUOUS
 62
     2
 10
802.833333
 20
396.633317
 30
0.0
 11
793.174074737
 21
399.221507451
 31
0.0
  0
LINE
  8
7
  6
CONTINUOUS
 62
     2
 10
802.833333
 20
396.633317
 30
0.0
 11
793.174074737
 21
394.045126549
 31
0.0
  0
LINE
  8
7
  6
CONTINUOUS
 62
     2
 10
802.833333
 20
390.633317
 30
0.0
 11
802.833333
 21
390.633317
 31
0.0
  0
LINE
  8
7
  6
CONTINUOUS
 62
     2
 10
802.833333
 20
396.633317
 30
0.0
 11
812.492591263
 21
394.045126549
 31
0.0
  0
LINE
  8
7
  6
CONTINUOUS
 62
     2
 10
802.833333
 20
396.633317
 30
0.0
 11
812.492591263
 21
399.221507451
 31
0.0
  0
LINE
  8
7
  6
CONTINUOUS
 62
     2
 10
802.833333
 20
396.633317
 30
0.0
 11
837.833333
 21
396.633317
 31
0.0
  0
LINE
  8
7
  6
CONTINUOUS
 62
     2
 10
837.833333
 20
396.633317
 30
0.0
 11
828.174074737
 21
399.221507451
 31
0.0
  0
LINE
  8
7
  6
CONTINUOUS
 62
     2
 10
837.833333
 20
396.633317
 30
0.0
 11
828.174074737
 21
394.045126549
 31
0.0
  0
LINE
  8
7
  6
CONTINUOUS
 62
     2
 10
837.833333
 20
391.633317
 30
0.0
 11
837.833333
 21
390.633317
 31
0.0
  0
LINE
  8
7
  6
CONTINUOUS
 62
     2
 10
855.833333
 20
340.633317
 30
0.0
 11
865.492591263
 21
338.045126549
 31
0.0
  0
LINE
  8
7
  6
CONTINUOUS
 62
     2
 10
855.833333
 20
340.633317
 30
0.0
 11
865.492591263
 21
343.221507451
 31
0.0
  0
LINE
  8
7
  6
CONTINUOUS
 62
     2
 10
837.833333
 20
340.633317
 30
0.0
 11
893.633333
 21
340.633317
 31
0.0
  0
POINT
  8
7
  6
CONTINUOUS
 62
     2
 10
837.833333
 20
346.633317
 30
0.0
  0
LINE
  8
7
  6
CONTINUOUS
 62
     2
 10
837.833333
 20
340.633317
 30
0.0
 11
828.174074737
 21
343.221507451
 31
0.0
  0
LINE
  8
7
  6
CONTINUOUS
 62
     2
 10
837.833333
 20
340.633317
 30
0.0
 11
828.174074737
 21
338.045126549
 31
0.0
  0
LINE
  8
7
  6
CONTINUOUS
 62
     2
 10
429.833333
 20
396.633317
 30
0.0
 11
767.833333
 21
396.633317
 31
0.0
  0
LINE
  8
7
  6
CONTINUOUS
 62
     2
 10
429.833333
 20
368.633317
 30
0.0
 11
837.833333
 21
368.633317
 31
0.0
  0
LINE
  8
7
  6
CONTINUOUS
 62
     2
 10
837.833333
 20
340.633317
 30
0.0
 11
287.833333
 21
340.633317
 31
0.0
  0
LINE
  8
7
  6
CONTINUOUS
 62
     2
 10
767.833333
 20
494.883317
 30
0.0
 11
767.833333
 21
390.633317
 31
0.0
  0
LINE
  8
7
  6
CONTINUOUS
 62
     2
 10
802.833333
 20
506.633317
 30
0.0
 11
802.833333
 21
390.633317
 31
0.0
  0
LINE
  8
7
  6
CONTINUOUS
 62
     2
 10
837.833333
 20
506.633317
 30
0.0
 11
837.833333
 21
334.633317
 31
0.0
  0
LINE
  8
0
  6
CONTINUOUS
 62
     1
 10
767.833333
 20
494.883317
 30
0.0
 11
767.833333
 21
558.383317
 31
0.0
  0
LINE
  8
0
  6
CONTINUOUS
 62
     1
 10
580.183147745
 20
558.383317
 30
0.0
 11
767.833333
 21
558.383317
 31
0.0
  0
LINE
  8
0
  6
CONTINUOUS
 62
     1
 10
748.833333
 20
494.883317
 30
0.0
 11
748.833333
 21
558.383317
 31
0.0
  0
LINE
  8
0
  6
CONTINUOUS
 62
     1
 10
767.833333
 20
545.633317
 30
0.0
 11
802.833333
 21
545.633317
 31
0.0
  0
LINE
  8
0
  6
CONTINUOUS
 62
     1
 10
802.833333
 20
546.633317
 30
0.0
 11
845.833333
 21
546.633317
 31
0.0
  0
LINE
  8
0
  6
CONTINUOUS
 62
     1
 10
802.833333
 20
506.633317
 30
0.0
 11
845.833333
 21
506.633317
 31
0.0
  0
LINE
  8
0
  6
CONTINUOUS
 62
     1
 10
802.833333
 20
546.633317
 30
0.0
 11
802.833333
 21
506.633317
 31
0.0
  0
TEXT
  8
7
  6
CONTINUOUS
 62
     2
 10
779.933333
 20
400.633317
 30
0.0
 40
15.0
  1
Ｐ
 50
0.0
 41
0.9
 51
0.0
  7
KANJI26
  0
TEXT
  8
7
  6
CONTINUOUS
 62
     2
 10
808.933333
 20
400.633317
 30
0.0
 40
15.0
  1
３５
 50
0.0
 41
0.9
 51
0.0
  7
KANJI26
  0
TEXT
  8
7
  6
CONTINUOUS
 62
     2
 10
870.833333
 20
344.633317
 30
0.0
 40
15.0
  1
１８
 50
0.0
 41
0.9
 51
0.0
  7
KANJI26
  0
TEXT
  8
7
  6
CONTINUOUS
 62
     2
 10
887.333333
 20
515.233317
 30
0.0
 40
15.0
  1
４０
 50
90.0
 41
0.9
 51
0.0
  7
KANJI26
  0
LINE
  8
7
  6
CONTINUOUS
 62
     2
 10
855.833333
 20
512.0
 30
0.0
 11
855.833333
 21
334.633317
 31
0.0
  0
LINE
  8
0
  6
CONTINUOUS
 62
     2
 10
445.492591263
 20
280.221507451
 30
0.0
 11
859.492591263
 21
280.221507451
 31
0.0
  0
TEXT
  8
0
  6
CONTINUOUS
 62
     2
 10
447.492591263
 20
288.221507451
 30
0.0
 40
20.0
  1
推力リミッタの作動値は、約３６０ｋｇ（設計値）
 50
0.0
 41
0.925
 51
0.0
  7
KANJI31
  0
LINE
  8
0
  6
CONTINUOUS
 62
     1
 10
855.833333
 20
706.633317
 30
0.0
 11
855.833333
 21
718.633317
 31
0.0
  0
LINE
  8
0
  6
CONTINUOUS
 62
     1
 10
812.833333
 20
706.633317
 30
0.0
 11
855.833333
 21
706.633317
 31
0.0
  0
LINE
  8
0
  6
CONTINUOUS
 62
     1
 10
855.833333
 20
690.633317
 30
0.0
 11
855.833333
 21
678.633317
 31
0.0
  0
LINE
  8
0
  6
CONTINUOUS
 62
     1
 10
812.833333
 20
690.633317
 30
0.0
 11
855.833333
 21
690.633317
 31
0.0
  0
LINE
  8
0
  6
CONTINUOUS
 62
     1
 10
812.833333
 20
690.633317
 30
0.0
 11
812.833333
 21
706.633317
 31
0.0
  0
LINE
  8
0
  6
CONTINUOUS
 62
     1
 10
829.833333
 20
690.633317
 30
0.0
 11
829.833333
 21
706.633317
 31
0.0
  0
LINE
  8
0
  6
CONTINUOUS
 62
     1
 10
845.833333
 20
690.633317
 30
0.0
 11
845.833333
 21
706.633317
 31
0.0
  0
LINE
  8
7
  6
CONTINUOUS
 62
     2
 10
861.833333
 20
706.633317
 30
0.0
 11
897.333333
 21
706.633317
 31
0.0
  0
LINE
  8
7
  6
CONTINUOUS
 62
     2
 10
861.833333
 20
690.633317
 30
0.0
 11
897.333333
 21
690.633317
 31
0.0
  0
LINE
  8
7
  6
CONTINUOUS
 62
     2
 10
861.833333
 20
718.633317
 30
0.0
 11
943.333333
 21
718.633317
 31
0.0
  0
LINE
  8
7
  6
CONTINUOUS
 62
     2
 10
861.833333
 20
678.633317
 30
0.0
 11
943.333333
 21
678.633317
 31
0.0
  0
LINE
  8
7
  6
CONTINUOUS
 62
     2
 10
888.833333
 20
718.633317
 30
0.0
 11
891.421523451
 21
728.292575263
 31
0.0
  0
LINE
  8
7
  6
CONTINUOUS
 62
     2
 10
888.833333
 20
718.633317
 30
0.0
 11
886.245142549
 21
728.292575263
 31
0.0
  0
LINE
  8
7
  6
CONTINUOUS
 62
     2
 10
888.833333
 20
678.633317
 30
0.0
 11
886.245142549
 21
668.974058737
 31
0.0
  0
LINE
  8
7
  6
CONTINUOUS
 62
     2
 10
888.833333
 20
678.633317
 30
0.0
 11
891.421523451
 21
668.974058737
 31
0.0
  0
LINE
  8
7
  6
CONTINUOUS
 62
     2
 10
892.833333
 20
678.633317
 30
0.0
 11
894.833333
 21
678.633317
 31
0.0
  0
LINE
  8
7
  6
CONTINUOUS
 62
     2
 10
888.833333
 20
756.433317
 30
0.0
 11
888.833333
 21
690.633317
 31
0.0
  0
LINE
  8
7
  6
CONTINUOUS
 62
     2
 10
888.833333
 20
690.633317
 30
0.0
 11
888.833333
 21
640.833317
 31
0.0
  0
LINE
  8
7
  6
CONTINUOUS
 62
     2
 10
829.833333
 20
663.133317
 30
0.0
 11
829.833333
 21
607.633317
 31
0.0
  0
LINE
  8
7
  6
CONTINUOUS
 62
     2
 10
829.833333
 20
613.633317
 30
0.0
 11
820.174074737
 21
616.221507451
 31
0.0
  0
LINE
  8
7
  6
CONTINUOUS
 62
     2
 10
829.833333
 20
613.633317
 30
0.0
 11
820.174074737
 21
611.045126549
 31
0.0
  0
LINE
  8
7
  6
CONTINUOUS
 62
     2
 10
814.833333
 20
613.633317
 30
0.0
 11
916.513333
 21
613.633317
 31
0.0
  0
LINE
  8
7
  6
CONTINUOUS
 62
     2
 10
845.833333
 20
613.633317
 30
0.0
 11
855.492591263
 21
611.045126549
 31
0.0
  0
LINE
  8
7
  6
CONTINUOUS
 62
     2
 10
845.833333
 20
613.633317
 30
0.0
 11
855.492591263
 21
616.221507451
 31
0.0
  0
LINE
  8
7
  6
CONTINUOUS
 62
     2
 10
845.833333
 20
663.133317
 30
0.0
 11
845.833333
 21
607.633317
 31
0.0
  0
LINE
  8
0
  6
LTYPE2
 62
     2
 10
837.833333
 20
490.633317
 30
0.0
 11
837.833333
 21
735.633317
 31
0.0
  0
LINE
  8
7
  6
CONTINUOUS
 62
     2
 10
837.833333
 20
584.633317
 30
0.0
 11
837.833333
 21
586.633317
 31
0.0
  0
LINE
  8
7
  6
CONTINUOUS
 62
     2
 10
837.833333
 20
580.633317
 30
0.0
 11
828.174074737
 21
583.221507451
 31
0.0
  0
LINE
  8
7
  6
CONTINUOUS
 62
     2
 10
837.833333
 20
580.633317
 30
0.0
 11
828.174074737
 21
578.045126549
 31
0.0
  0
LINE
  8
7
  6
CONTINUOUS
 62
     2
 10
837.833333
 20
580.633317
 30
0.0
 11
812.833333
 21
580.633317
 31
0.0
  0
LINE
  8
7
  6
CONTINUOUS
 62
     2
 10
812.833333
 20
580.633317
 30
0.0
 11
822.492591263
 21
578.045126549
 31
0.0
  0
LINE
  8
7
  6
CONTINUOUS
 62
     2
 10
812.833333
 20
580.633317
 30
0.0
 11
822.492591263
 21
583.221507451
 31
0.0
  0
LINE
  8
7
  6
CONTINUOUS
 62
     2
 10
812.833333
 20
684.633317
 30
0.0
 11
812.833333
 21
574.633317
 31
0.0
  0
LINE
  8
0
  6
CONTINUOUS
 62
     1
 10
802.833333
 20
718.633317
 30
0.0
 11
855.833333
 21
718.633317
 31
0.0
  0
LINE
  8
0
  6
CONTINUOUS
 62
     1
 10
802.833333
 20
718.633317
 30
0.0
 11
802.833333
 21
678.633317
 31
0.0
  0
LINE
  8
0
  6
CONTINUOUS
 62
     1
 10
802.833333
 20
678.633317
 30
0.0
 11
855.833333
 21
678.633317
 31
0.0
  0
LINE
  8
0
  6
CONTINUOUS
 62
     1
 10
767.833333
 20
679.633317
 30
0.0
 11
802.833333
 21
679.633317
 31
0.0
  0
LINE
  8
0
  6
CONTINUOUS
 62
     1
 10
767.833333
 20
717.633317
 30
0.0
 11
802.833333
 21
717.633317
 31
0.0
  0
LINE
  8
0
  6
LTYPE2
 62
     2
 10
757.6
 20
698.633317
 30
0.0
 11
855.833333
 21
698.633317
 31
0.0
  0
TEXT
  8
7
  6
CONTINUOUS
 62
     2
 10
884.833333
 20
733.633317
 30
0.0
 40
15.0
  1
１２
 50
90.0
 41
0.9
 51
0.0
  7
KANJI26
  0
TEXT
  8
7
  6
CONTINUOUS
 62
     2
 10
933.333333
 20
687.233317
 30
0.0
 40
15.0
  1
４０
 50
90.0
 41
0.9
 51
0.0
  7
KANJI26
  0
TEXT
  8
7
  6
CONTINUOUS
 62
     2
 10
912.333333
 20
687.233317
 30
0.0
 40
15.0
  1
１６
 50
90.0
 41
0.9
 51
0.0
  7
KANJI26
  0
TEXT
  8
7
  6
CONTINUOUS
 62
     2
 10
884.833333
 20
640.833317
 30
0.0
 40
15.0
  1
１２
 50
90.0
 41
0.9
 51
0.0
  7
KANJI26
  0
TEXT
  8
0
  6
CONTINUOUS
 62
     3
 10
860.833333
 20
618.633317
 30
0.0
 40
15.0
  1
φ１６
 50
0.0
 41
0.9
 51
0.0
  7
KANJI26
  0
TEXT
  8
0
  6
CONTINUOUS
 62
     3
 10
901.333333
 20
618.633317
 30
0.0
 40
9.0
  1
ｄ９
 50
0.0
 41
0.9
 51
0.0
  7
KANJI32
  0
TEXT
  8
0
  6
CONTINUOUS
 62
     3
 10
901.333333
 20
627.633317
 30
0.0
 40
9.0
  1
Ｈ１０
 50
0.0
 41
0.9
 51
0.0
  7
KANJI32
  0
LINE
  8
0
  6
CONTINUOUS
 62
     1
 10
845.833333
 20
729.633317
 30
0.0
 11
829.833333
 21
729.633317
 31
0.0
  0
LINE
  8
0
  6
CONTINUOUS
 62
     1
 10
822.833333
 20
721.633317
 30
0.0
 11
852.833333
 21
721.633317
 31
0.0
  0
LINE
  8
0
  6
LTYPE2
 62
     2
 10
833.433333
 20
724.283317
 30
0.0
 11
841.833333
 21
724.283317
 31
0.0
  0
CIRCLE
  8
0
  6
CONTINUOUS
 62
     1
 10
837.833333
 20
724.283317
 30
0.0
 40
2.0
  0
LINE
  8
0
  6
CONTINUOUS
 62
     1
 10
822.833333
 20
718.633317
 30
0.0
 11
822.833333
 21
721.633317
 31
0.0
  0
LINE
  8
0
  6
LTYPE1
 62
     2
 10
829.833333
 20
721.633317
 30
0.0
 11
829.833333
 21
706.633317
 31
0.0
  0
LINE
  8
0
  6
CONTINUOUS
 62
     1
 10
829.833333
 20
721.633317
 30
0.0
 11
829.833333
 21
729.633317
 31
0.0
  0
LINE
  8
0
  6
CONTINUOUS
 62
     1
 10
852.833333
 20
718.633317
 30
0.0
 11
852.833333
 21
721.633317
 31
0.0
  0
LINE
  8
0
  6
CONTINUOUS
 62
     1
 10
845.833333
 20
721.633317
 30
0.0
 11
845.833333
 21
729.633317
 31
0.0
  0
LINE
  8
0
  6
LTYPE1
 62
     2
 10
845.833333
 20
706.633317
 30
0.0
 11
845.833333
 21
721.633317
 31
0.0
  0
LINE
  8
0
  6
CONTINUOUS
 62
     1
 10
822.833333
 20
675.633317
 30
0.0
 11
852.833333
 21
675.633317
 31
0.0
  0
LINE
  8
0
  6
CONTINUOUS
 62
     1
 10
822.833333
 20
678.633317
 30
0.0
 11
822.833333
 21
675.633317
 31
0.0
  0
LINE
  8
0
  6
CONTINUOUS
 62
     1
 10
829.833333
 20
667.633317
 30
0.0
 11
829.833333
 21
675.633317
 31
0.0
  0
LINE
  8
0
  6
CONTINUOUS
 62
     1
 10
829.833333
 20
667.633317
 30
0.0
 11
829.833333
 21
675.633317
 31
0.0
  0
LINE
  8
0
  6
LTYPE1
 62
     2
 10
829.833333
 20
675.633317
 30
0.0
 11
829.833333
 21
690.633317
 31
0.0
  0
LINE
  8
0
  6
CONTINUOUS
 62
     1
 10
845.833333
 20
667.633317
 30
0.0
 11
829.833333
 21
667.633317
 31
0.0
  0
LINE
  8
0
  6
CONTINUOUS
 62
     1
 10
845.833333
 20
667.633317
 30
0.0
 11
829.833333
 21
667.633317
 31
0.0
  0
LINE
  8
0
  6
LTYPE2
 62
     2
 10
833.433333
 20
672.983317
 30
0.0
 11
841.833333
 21
672.983317
 31
0.0
  0
CIRCLE
  8
0
  6
CONTINUOUS
 62
     1
 10
837.833333
 20
672.983317
 30
0.0
 40
2.0
  0
LINE
  8
0
  6
CONTINUOUS
 62
     1
 10
852.833333
 20
678.633317
 30
0.0
 11
852.833333
 21
675.633317
 31
0.0
  0
LINE
  8
0
  6
CONTINUOUS
 62
     1
 10
845.833333
 20
675.633317
 30
0.0
 11
845.833333
 21
667.633317
 31
0.0
  0
LINE
  8
0
  6
CONTINUOUS
 62
     1
 10
845.833333
 20
675.633317
 30
0.0
 11
845.833333
 21
667.633317
 31
0.0
  0
LINE
  8
0
  6
LTYPE1
 62
     2
 10
845.833333
 20
690.633317
 30
0.0
 11
845.833333
 21
675.633317
 31
0.0
  0
LINE
  8
7
  6
CONTINUOUS
 62
     2
 10
937.333333
 20
718.633317
 30
0.0
 11
934.745142549
 21
708.974058737
 31
0.0
  0
LINE
  8
7
  6
CONTINUOUS
 62
     2
 10
937.333333
 20
718.633317
 30
0.0
 11
939.921523451
 21
708.974058737
 31
0.0
  0
LINE
  8
7
  6
CONTINUOUS
 62
     2
 10
937.333333
 20
718.633317
 30
0.0
 11
937.333333
 21
678.633317
 31
0.0
  0
LINE
  8
7
  6
CONTINUOUS
 62
     2
 10
937.333333
 20
678.633317
 30
0.0
 11
939.921523451
 21
688.292575263
 31
0.0
  0
LINE
  8
7
  6
CONTINUOUS
 62
     2
 10
937.333333
 20
678.633317
 30
0.0
 11
934.745142549
 21
688.292575263
 31
0.0
  0
CIRCLE
  8
0
  6
CONTINUOUS
 62
     1
 10
837.833333
 20
526.633317
 30
0.0
 40
15.0
  0
CIRCLE
  8
0
  6
CONTINUOUS
 62
     1
 10
837.833317741
 20
537.633317
 30
0.0
 40
3.0
  0
LINE
  8
0
  6
CONTINUOUS
 62
     1
 10
833.633333
 20
514.333317
 30
0.0
 11
835.633333
 21
514.033317
 31
0.0
  0
LINE
  8
0
  6
CONTINUOUS
 62
     1
 10
835.897948385
 20
517.164086231
 30
0.0
 11
833.633333
 21
514.333317
 31
0.0
  0
LINE
  8
0
  6
CONTINUOUS
 62
     1
 10
837.833333
 20
516.733317
 30
0.0
 11
835.633333
 21
514.033317
 31
0.0
  0
LINE
  8
0
  6
CONTINUOUS
 62
     1
 10
836.133333
 20
518.733317
 30
0.0
 11
835.897948385
 21
517.164086231
 31
0.0
  0
LINE
  8
0
  6
CONTINUOUS
 62
     1
 10
842.033333
 20
514.333317
 30
0.0
 11
840.033333
 21
514.033317
 31
0.0
  0
LINE
  8
0
  6
CONTINUOUS
 62
     1
 10
839.768717615
 20
517.164086231
 30
0.0
 11
842.033333
 21
514.333317
 31
0.0
  0
LINE
  8
0
  6
CONTINUOUS
 62
     1
 10
837.833333
 20
516.733317
 30
0.0
 11
840.033333
 21
514.033317
 31
0.0
  0
LINE
  8
0
  6
CONTINUOUS
 62
     1
 10
839.533333
 20
518.733317
 30
0.0
 11
839.768717615
 21
517.164086231
 31
0.0
  0
LINE
  8
0
  6
CONTINUOUS
 62
     1
 10
322.833333
 20
696.633317
 30
0.0
 11
359.833333
 21
696.633317
 31
0.0
  0
LINE
  8
0
  6
CONTINUOUS
 62
     1
 10
322.833333
 20
677.633317
 30
0.0
 11
322.833333
 21
696.633317
 31
0.0
  0
ARC
  8
0
  6
CONTINUOUS
 62
     1
 10
316.833333
 20
677.633317
 30
0.0
 40
6.0
 50
270.0
 51
360.0
  0
ARC
  8
0
  6
CONTINUOUS
 62
     1
 10
344.833333
 20
674.633317
 30
0.0
 40
3.0
 50
270.0
 51
360.0
  0
ARC
  8
0
  6
CONTINUOUS
 62
     1
 10
344.833333
 20
621.633317
 30
0.0
 40
3.0
 50
270.0
 51
0.0
  0
LINE
  8
0
  6
CONTINUOUS
 62
     1
 10
347.833333
 20
675.585697952
 30
0.0
 11
351.833333
 21
696.633317
 31
0.0
  0
LINE
  8
0
  6
CONTINUOUS
 62
     1
 10
347.833333
 20
621.633317
 30
0.0
 11
347.833333
 21
675.585697952
 31
0.0
  0
CIRCLE
  8
0
  6
CONTINUOUS
 62
     1
 10
429.833333
 20
526.633317
 30
0.0
 40
20.0
  0
CIRCLE
  8
0
  6
CONTINUOUS
 62
     1
 10
429.833333
 20
526.633317
 30
0.0
 40
8.0
  0
ARC
  8
0
  6
CONTINUOUS
 62
     1
 10
365.833333
 20
475.633317
 30
0.0
 40
2.0
 50
270.0
 51
0.0
  0
LINE
  8
0
  6
CONTINUOUS
 62
     1
 10
370.833333
 20
563.633317
 30
0.0
 11
527.833333
 21
563.633317
 31
0.0
  0
LINE
  8
0
  6
CONTINUOUS
 62
     1
 10
370.833333
 20
489.633317
 30
0.0
 11
453.833333
 21
489.633317
 31
0.0
  0
ARC
  8
0
  6
CONTINUOUS
 62
     1
 10
370.833333
 20
486.633317
 30
0.0
 40
3.0
 50
87.047798252
 51
176.185925166
  0
ARC
  8
0
  6
CONTINUOUS
 62
     1
 10
370.633333
 20
566.633317
 30
0.0
 40
3.0
 50
177.893372153
 51
273.822553727
  0
LINE
  8
0
  6
CONTINUOUS
 62
     1
 10
535.833333
 20
566.633317
 30
0.0
 11
535.833333
 21
486.633317
 31
0.0
  0
LINE
  8
0
  6
CONTINUOUS
 62
     1
 10
527.833333
 20
566.633317
 30
0.0
 11
535.833333
 21
566.633317
 31
0.0
  0
LINE
  8
0
  6
CONTINUOUS
 62
     1
 10
527.833333
 20
486.633317
 30
0.0
 11
535.833333
 21
486.633317
 31
0.0
  0
LINE
  8
0
  6
CONTINUOUS
 62
     1
 10
527.833333
 20
528.133317
 30
0.0
 11
535.833333
 21
528.133317
 31
0.0
  0
LINE
  8
0
  6
CONTINUOUS
 62
     1
 10
527.833333
 20
525.133317
 30
0.0
 11
535.833333
 21
525.133317
 31
0.0
  0
LINE
  8
0
  6
CONTINUOUS
 62
     1
 10
453.833333
 20
503.633317
 30
0.0
 11
527.833333
 21
503.633317
 31
0.0
  0
LINE
  8
0
  6
CONTINUOUS
 62
     1
 10
359.833333
 20
473.633317
 30
0.0
 11
365.833333
 21
473.633317
 31
0.0
  0
LINE
  8
0
  6
CONTINUOUS
 62
     1
 10
359.833333
 20
628.433317
 30
0.0
 11
359.833333
 21
636.633317
 31
0.0
  0
LINE
  8
0
  6
CONTINUOUS
 62
     1
 10
359.833333
 20
628.433317
 30
0.0
 11
359.833333
 21
636.633317
 31
0.0
  0
LINE
  8
0
  6
LTYPE3
 62
     2
 10
354.233333
 20
636.633317
 30
0.0
 11
366.233333
 21
636.633317
 31
0.0
  0
LINE
  8
0
  6
LTYPE3
 62
     2
 10
354.233333
 20
636.633317
 30
0.0
 11
366.233333
 21
636.633317
 31
0.0
  0
LINE
  8
0
  6
CONTINUOUS
 62
     1
 10
299.833333
 20
671.633317
 30
0.0
 11
344.833333
 21
671.633317
 31
0.0
  0
CIRCLE
  8
0
  6
CONTINUOUS
 62
     1
 10
429.833333
 20
526.633317
 30
0.0
 40
26.0
  0
LINE
  8
0
  6
CONTINUOUS
 62
     1
 10
453.833333
 20
514.133317
 30
0.0
 11
453.833333
 21
481.633317
 31
0.0
  0
LINE
  8
0
  6
CONTINUOUS
 62
     1
 10
527.833333
 20
566.633317
 30
0.0
 11
527.833333
 21
481.633317
 31
0.0
  0
LINE
  8
0
  6
LTYPE3
 62
     2
 10
490.833333
 20
494.633317
 30
0.0
 11
490.833333
 21
470.633317
 31
0.0
  0
LINE
  8
0
  6
LTYPE3
 62
     2
 10
429.833333
 20
558.633317
 30
0.0
 11
429.833333
 21
494.633317
 31
0.0
  0
LINE
  8
0
  6
LTYPE3
 62
     2
 10
335.833333
 20
686.758317
 30
0.0
 11
335.833333
 21
740.933317
 31
0.0
  0
LINE
  8
0
  6
CONTINUOUS
 62
     1
 10
373.833333
 20
636.633317
 30
0.0
 11
373.833333
 21
693.633317
 31
0.0
  0
ARC
  8
0
  6
CONTINUOUS
 62
     1
 10
369.333333
 20
695.133317
 30
0.0
 40
1.5
 50
180.0
 51
270.0
  0
LINE
  8
0
  6
CONTINUOUS
 62
     1
 10
367.833333
 20
695.133317
 30
0.0
 11
367.833333
 21
696.133317
 31
0.0
  0
ARC
  8
0
  6
CONTINUOUS
 62
     1
 10
366.333333
 20
696.133317
 30
0.0
 40
1.5
 50
0.0
 51
90.0
  0
LINE
  8
0
  6
CONTINUOUS
 62
     1
 10
522.833333
 20
636.633317
 30
0.0
 11
522.833333
 21
693.633317
 31
0.0
  0
ARC
  8
0
  6
CONTINUOUS
 62
     1
 10
526.333333
 20
692.133317
 30
0.0
 40
1.5
 50
0.0
 51
90.0
  0
LINE
  8
0
  6
CONTINUOUS
 62
     1
 10
367.833333
 20
636.633317
 30
0.0
 11
367.833333
 21
695.733317
 31
0.0
  0
LINE
  8
0
  6
CONTINUOUS
 62
     1
 10
543.833333
 20
636.633317
 30
0.0
 11
543.833333
 21
672.062792845
 31
0.0
  0
ARC
  8
0
  6
CONTINUOUS
 62
     1
 10
542.333333
 20
672.062792845
 30
0.0
 40
1.5
 50
0.0
 51
71.029592192
  0
ARC
  8
0
  6
CONTINUOUS
 62
     1
 10
555.833333
 20
653.133317
 30
0.0
 40
1.0
 50
0.0
 51
90.0
  0
LINE
  8
0
  6
CONTINUOUS
 62
     1
 10
555.833333
 20
654.133317
 30
0.0
 11
543.833333
 21
654.133317
 31
0.0
  0
LINE
  8
0
  6
CONTINUOUS
 62
     1
 10
373.833333
 20
636.633317
 30
0.0
 11
373.833333
 21
579.633317
 31
0.0
  0
ARC
  8
0
  6
CONTINUOUS
 62
     1
 10
369.333333
 20
578.133317
 30
0.0
 40
1.5
 50
90.0
 51
180.0
  0
LINE
  8
0
  6
CONTINUOUS
 62
     1
 10
367.833333
 20
578.133317
 30
0.0
 11
367.833333
 21
577.133317
 31
0.0
  0
ARC
  8
0
  6
CONTINUOUS
 62
     1
 10
366.333333
 20
577.133317
 30
0.0
 40
1.5
 50
270.0
 51
0.0
  0
LINE
  8
0
  6
CONTINUOUS
 62
     1
 10
522.833333
 20
636.633317
 30
0.0
 11
522.833333
 21
579.633317
 31
0.0
  0
LINE
  8
0
  6
CONTINUOUS
 62
     1
 10
526.333333
 20
579.633317
 30
0.0
 11
369.333333
 21
579.633317
 31
0.0
  0
ARC
  8
0
  6
CONTINUOUS
 62
     1
 10
526.333333
 20
581.133317
 30
0.0
 40
1.5
 50
270.0
 51
0.0
  0
LINE
  8
0
  6
CONTINUOUS
 62
     1
 10
367.833333
 20
636.633317
 30
0.0
 11
367.833333
 21
577.533317
 31
0.0
  0
LINE
  8
0
  6
CONTINUOUS
 62
     1
 10
543.833333
 20
636.633317
 30
0.0
 11
543.833333
 21
601.203841155
 31
0.0
  0
ARC
  8
0
  6
CONTINUOUS
 62
     1
 10
542.333333
 20
601.203841155
 30
0.0
 40
1.5
 50
288.970407808
 51
0.0
  0
ARC
  8
0
  6
CONTINUOUS
 62
     1
 10
555.833333
 20
620.133317
 30
0.0
 40
1.0
 50
270.0
 51
0.0
  0
LINE
  8
0
  6
CONTINUOUS
 62
     1
 10
555.833333
 20
619.133317
 30
0.0
 11
543.833333
 21
619.133317
 31
0.0
  0
LINE
  8
0
  6
LTYPE2
 62
     2
 10
535.833333
 20
672.695762841
 30
0.0
 11
524.833333
 21
672.695762841
 31
0.0
  0
LINE
  8
0
  6
LTYPE2
 62
     2
 10
535.833333
 20
600.570871159
 30
0.0
 11
524.833333
 21
600.570871159
 31
0.0
  0
LINE
  8
0
  6
CONTINUOUS
 62
     1
 10
472.833333
 20
714.633317
 30
0.0
 11
472.833333
 21
748.633317
 31
0.0
  0
LINE
  8
0
  6
CONTINUOUS
 62
     1
 10
472.833333
 20
714.633317
 30
0.0
 11
446.833333
 21
714.633317
 31
0.0
  0
LINE
  8
0
  6
CONTINUOUS
 62
     1
 10
472.833333
 20
748.633317
 30
0.0
 11
446.833333
 21
748.633317
 31
0.0
  0
LINE
  8
0
  6
CONTINUOUS
 62
     1
 10
376.833333
 20
706.633317
 30
0.0
 11
376.833333
 21
709.633317
 31
0.0
  0
ARC
  8
0
  6
CONTINUOUS
 62
     1
 10
380.833333
 20
703.633317
 30
0.0
 40
3.0
 50
0.0
 51
90.0
  0
LINE
  8
0
  6
CONTINUOUS
 62
     1
 10
383.833333
 20
696.633317
 30
0.0
 11
383.833333
 21
703.633317
 31
0.0
  0
ARC
  8
0
  6
CONTINUOUS
 62
     1
 10
386.833333
 20
696.633317
 30
0.0
 40
3.0
 50
180.0
 51
270.0
  0
LINE
  8
0
  6
CONTINUOUS
 62
     1
 10
526.333333
 20
693.633317
 30
0.0
 11
369.333333
 21
693.633317
 31
0.0
  0
LINE
  8
0
  6
CONTINUOUS
 62
     1
 10
436.833333
 20
706.633317
 30
0.0
 11
436.833333
 21
709.633317
 31
0.0
  0
ARC
  8
0
  6
CONTINUOUS
 62
     1
 10
432.833333
 20
703.633317
 30
0.0
 40
3.0
 50
90.0
 51
180.0
  0
LINE
  8
0
  6
CONTINUOUS
 62
     1
 10
429.833333
 20
696.633317
 30
0.0
 11
429.833333
 21
703.633317
 31
0.0
  0
ARC
  8
0
  6
CONTINUOUS
 62
     1
 10
426.833333
 20
696.633317
 30
0.0
 40
3.0
 50
270.0
 51
0.0
  0
LINE
  8
0
  6
CONTINUOUS
 62
     1
 10
436.833333
 20
706.633317
 30
0.0
 11
376.833333
 21
706.633317
 31
0.0
  0
LINE
  8
0
  6
CONTINUOUS
 62
     1
 10
361.745420912
 20
711.633317
 30
0.0
 11
453.833333
 21
755.653362888
 31
0.0
  0
LINE
  8
0
  6
CONTINUOUS
 62
     1
 10
359.833333
 20
715.633317
 30
0.0
 11
361.745420912
 21
711.633317
 31
0.0
  0
LINE
  8
0
  6
CONTINUOUS
 62
     1
 10
359.833333
 20
715.633317
 30
0.0
 11
451.921245088
 21
759.653362888
 31
0.0
  0
LINE
  8
0
  6
CONTINUOUS
 62
     1
 10
451.921245088
 20
759.653362888
 30
0.0
 11
453.833333
 21
755.653362888
 31
0.0
  0
LINE
  8
0
  6
CONTINUOUS
 62
     1
 10
366.833333
 20
718.979470846
 30
0.0
 11
366.833333
 21
758.633317
 31
0.0
  0
ARC
  8
0
  6
CONTINUOUS
 62
     1
 10
369.833333
 20
758.633317
 30
0.0
 40
3.0
 50
90.0
 51
180.0
  0
LINE
  8
0
  6
CONTINUOUS
 62
     1
 10
366.833333
 20
712.633317
 30
0.0
 11
366.833333
 21
714.0654508
 31
0.0
  0
ARC
  8
0
  6
CONTINUOUS
 62
     1
 10
369.833333
 20
712.633317
 30
0.0
 40
3.0
 50
180.0
 51
270.0
  0
LINE
  8
0
  6
CONTINUOUS
 62
     1
 10
446.833333
 20
712.633317
 30
0.0
 11
446.833333
 21
752.307209042
 31
0.0
  0
LINE
  8
0
  6
CONTINUOUS
 62
     1
 10
443.833333
 20
709.633317
 30
0.0
 11
369.833333
 21
709.633317
 31
0.0
  0
ARC
  8
0
  6
CONTINUOUS
 62
     1
 10
443.833333
 20
712.633317
 30
0.0
 40
3.0
 50
270.0
 51
0.0
  0
LINE
  8
0
  6
CONTINUOUS
 62
     1
 10
446.833333
 20
757.221229088
 30
0.0
 11
446.833333
 21
758.633317
 31
0.0
  0
LINE
  8
0
  6
CONTINUOUS
 62
     1
 10
443.833333
 20
761.633317
 30
0.0
 11
369.833333
 21
761.633317
 31
0.0
  0
ARC
  8
0
  6
CONTINUOUS
 62
     1
 10
443.833333
 20
758.633317
 30
0.0
 40
3.0
 50
0.0
 51
90.0
  0
LINE
  8
0
  6
LTYPE2
 62
     2
 10
406.833333
 20
681.633317
 30
0.0
 11
406.833333
 21
769.5654508
 31
0.0
  0
LINE
  8
0
  6
CONTINUOUS
 62
     1
 10
571.333333
 20
652.133317
 30
0.0
 11
556.833333
 21
652.133317
 31
0.0
  0
ARC
  8
0
  6
CONTINUOUS
 62
     1
 10
571.333333
 20
650.633317
 30
0.0
 40
1.5
 50
0.0
 51
90.0
  0
LINE
  8
0
  6
CONTINUOUS
 62
     1
 10
571.333333
 20
621.133317
 30
0.0
 11
556.833333
 21
621.133317
 31
0.0
  0
LINE
  8
0
  6
CONTINUOUS
 62
     1
 10
572.833333
 20
622.633317
 30
0.0
 11
572.833333
 21
650.633317
 31
0.0
  0
ARC
  8
0
  6
CONTINUOUS
 62
     1
 10
571.333333
 20
622.633317
 30
0.0
 40
1.5
 50
270.0
 51
0.0
  0
LINE
  8
0
  6
CONTINUOUS
 62
     1
 10
367.833333
 20
575.633317
 30
0.0
 11
359.833333
 21
575.633317
 31
0.0
  0
LINE
  8
0
  6
CONTINUOUS
 62
     1
 10
367.833333
 20
575.633317
 30
0.0
 11
367.833333
 21
475.633317
 31
0.0
  0
LINE
  8
0
  6
LTYPE3
 62
     2
 10
310.833333
 20
716.633317
 30
0.0
 11
359.833333
 21
716.633317
 31
0.0
  0
LINE
  8
0
  6
LTYPE5
 62
     2
 10
574.183147745
 20
566.383317
 30
0.0
 11
574.183147745
 21
486.883317
 31
0.0
  0
LINE
  8
0
  6
LTYPE5
 62
     2
 10
580.183147745
 20
566.383317
 30
0.0
 11
580.183147745
 21
486.883317
 31
0.0
  0
LINE
  8
0
  6
CONTINUOUS
 62
     1
 10
535.833333
 20
558.383317
 30
0.0
 11
574.183147745
 21
558.383317
 31
0.0
  0
LINE
  8
0
  6
CONTINUOUS
 62
     1
 10
535.833333
 20
494.883317
 30
0.0
 11
574.183147745
 21
494.883317
 31
0.0
  0
LINE
  8
0
  6
CONTINUOUS
 62
     1
 10
366.333333
 20
697.633317
 30
0.0
 11
359.833333
 21
697.633317
 31
0.0
  0
LINE
  8
0
  6
CONTINUOUS
 62
     1
 10
359.833333
 20
466.633317
 30
0.0
 11
359.833333
 21
697.633317
 31
0.0
  0
LINE
  8
7
  6
CONTINUOUS
 62
     2
 10
472.833333
 20
731.633317
 30
0.0
 11
481.397723096
 21
736.795799183
 31
0.0
  0
LINE
  8
7
  6
CONTINUOUS
 62
     2
 10
472.833333
 20
731.633317
 30
0.0
 11
477.669071299
 21
740.386352765
 31
0.0
  0
LINE
  8
7
  6
CONTINUOUS
 62
     2
 10
472.833333
 20
731.633317
 30
0.0
 11
498.833333
 21
758.633317
 31
0.0
  0
LINE
  8
7
  6
CONTINUOUS
 62
     2
 10
498.833333
 20
758.633317
 30
0.0
 11
557.633333
 21
758.633317
 31
0.0
  0
LINE
  8
7
  6
CONTINUOUS
 62
     2
 10
559.833333
 20
494.883317
 30
0.0
 11
562.421523451
 21
504.542575263
 31
0.0
  0
LINE
  8
7
  6
CONTINUOUS
 62
     2
 10
559.833333
 20
494.883317
 30
0.0
 11
557.245142549
 21
504.542575263
 31
0.0
  0
LINE
  8
7
  6
CONTINUOUS
 62
     2
 10
559.833333
 20
494.883317
 30
0.0
 11
559.833333
 21
558.383317
 31
0.0
  0
LINE
  8
7
  6
CONTINUOUS
 62
     2
 10
559.833333
 20
558.383317
 30
0.0
 11
557.245142549
 21
548.724058737
 31
0.0
  0
LINE
  8
7
  6
CONTINUOUS
 62
     2
 10
559.833333
 20
558.383317
 30
0.0
 11
562.421523451
 21
548.724058737
 31
0.0
  0
LINE
  8
7
  6
CONTINUOUS
 62
     2
 10
492.833333
 20
693.633317
 30
0.0
 11
490.245142549
 21
683.974058737
 31
0.0
  0
LINE
  8
7
  6
CONTINUOUS
 62
     2
 10
492.833333
 20
693.633317
 30
0.0
 11
495.421523451
 21
683.974058737
 31
0.0
  0
LINE
  8
7
  6
CONTINUOUS
 62
     2
 10
492.833333
 20
579.633317
 30
0.0
 11
495.421523451
 21
589.292575263
 31
0.0
  0
LINE
  8
7
  6
CONTINUOUS
 62
     2
 10
492.833333
 20
579.633317
 30
0.0
 11
490.245142549
 21
589.292575263
 31
0.0
  0
LINE
  8
0
  6
LTYPE3
 62
     2
 10
496.833333
 20
636.633317
 30
0.0
 11
579.833333
 21
636.633317
 31
0.0
  0
LINE
  8
0
  6
CONTINUOUS
 62
     1
 10
299.833333
 20
466.633317
 30
0.0
 11
299.833333
 21
671.633317
 31
0.0
  0
LINE
  8
0
  6
CONTINUOUS
 62
     1
 10
527.833333
 20
481.633317
 30
0.0
 11
453.833333
 21
481.633317
 31
0.0
  0
LINE
  8
0
  6
CONTINUOUS
 62
     1
 10
578.833333
 20
437.133317
 30
0.0
 11
445.833333
 21
437.133317
 31
0.0
  0
LINE
  8
0
  6
CONTINUOUS
 62
     1
 10
535.833333
 20
480.133317
 30
0.0
 11
448.833333
 21
480.133317
 31
0.0
  0
ARC
  8
0
  6
CONTINUOUS
 62
     1
 10
448.833333
 20
477.133317
 30
0.0
 40
3.0
 50
90.0
 51
180.0
  0
LINE
  8
0
  6
CONTINUOUS
 62
     1
 10
578.833333
 20
437.133317
 30
0.0
 11
578.833333
 21
476.133317
 31
0.0
  0
LINE
  8
0
  6
CONTINUOUS
 62
     1
 10
575.833333
 20
479.133317
 30
0.0
 11
535.833333
 21
479.133317
 31
0.0
  0
ARC
  8
0
  6
CONTINUOUS
 62
     1
 10
575.833333
 20
476.133317
 30
0.0
 40
3.0
 50
0.0
 51
90.0
  0
LINE
  8
0
  6
CONTINUOUS
 62
     1
 10
573.833333
 20
435.633317
 30
0.0
 11
445.833333
 21
435.633317
 31
0.0
  0
LINE
  8
0
  6
CONTINUOUS
 62
     1
 10
453.833333
 20
480.133317
 30
0.0
 11
453.833333
 21
481.633317
 31
0.0
  0
LINE
  8
0
  6
CONTINUOUS
 62
     1
 10
527.833333
 20
480.133317
 30
0.0
 11
527.833333
 21
481.633317
 31
0.0
  0
LINE
  8
0
  6
CONTINUOUS
 62
     1
 10
535.833333
 20
479.133317
 30
0.0
 11
535.833333
 21
480.133317
 31
0.0
  0
LINE
  8
0
  6
CONTINUOUS
 62
     1
 10
287.833333
 20
618.633317
 30
0.0
 11
344.833333
 21
618.633317
 31
0.0
  0
LINE
  8
0
  6
CONTINUOUS
 62
     1
 10
287.833333
 20
466.633317
 30
0.0
 11
359.833333
 21
466.633317
 31
0.0
  0
LINE
  8
0
  6
CONTINUOUS
 62
     1
 10
287.833333
 20
476.633317
 30
0.0
 11
287.833333
 21
466.833317
 31
0.0
  0
LINE
  8
0
  6
CONTINUOUS
 62
     1
 10
287.833333
 20
466.833317
 30
0.0
 11
282.218973646
 21
466.833317
 31
0.0
  0
LINE
  8
0
  6
CONTINUOUS
 62
     1
 10
280.833333
 20
469.233317
 30
0.0
 11
282.218973646
 21
466.833317
 31
0.0
  0
LINE
  8
0
  6
CONTINUOUS
 62
     1
 10
280.833333
 20
476.633317
 30
0.0
 11
280.833333
 21
469.233317
 31
0.0
  0
LINE
  8
0
  6
CONTINUOUS
 62
     1
 10
287.833333
 20
471.733317
 30
0.0
 11
282.218973646
 21
471.733317
 31
0.0
  0
LINE
  8
0
  6
CONTINUOUS
 62
     1
 10
287.833333
 20
476.633317
 30
0.0
 11
287.833333
 21
486.433317
 31
0.0
  0
LINE
  8
0
  6
CONTINUOUS
 62
     1
 10
287.833333
 20
486.433317
 30
0.0
 11
282.218973646
 21
486.433317
 31
0.0
  0
LINE
  8
0
  6
CONTINUOUS
 62
     1
 10
280.833333
 20
484.033317
 30
0.0
 11
282.218973646
 21
486.433317
 31
0.0
  0
LINE
  8
0
  6
CONTINUOUS
 62
     1
 10
280.833333
 20
476.633317
 30
0.0
 11
280.833333
 21
484.033317
 31
0.0
  0
LINE
  8
0
  6
CONTINUOUS
 62
     1
 10
287.833333
 20
481.533317
 30
0.0
 11
282.218973646
 21
481.533317
 31
0.0
  0
ARC
  8
0
  6
CONTINUOUS
 62
     1
 10
290.1900158
 20
476.633317
 30
0.0
 40
9.3566828
 50
148.419912243
 51
211.580087757
  0
ARC
  8
0
  6
CONTINUOUS
 62
     1
 10
283.691216832
 20
469.283317
 30
0.0
 40
2.858321186
 50
121.002313915
 51
182.989498403
  0
LINE
  8
0
  6
CONTINUOUS
 62
     1
 10
280.833333
 20
484.033317
 30
0.0
 11
282.218973646
 21
486.433317
 31
0.0
  0
ARC
  8
0
  6
CONTINUOUS
 62
     1
 10
283.691216832
 20
483.983317
 30
0.0
 40
2.858321186
 50
177.010501597
 51
238.997686085
  0
LINE
  8
0
  6
LTYPE2
 62
     2
 10
275.833333
 20
476.633317
 30
0.0
 11
308.833333
 21
476.633317
 31
0.0
  0
LINE
  8
0
  6
LTYPE2
 62
     2
 10
275.833333
 20
576.633317
 30
0.0
 11
308.833333
 21
576.633317
 31
0.0
  0
LINE
  8
0
  6
LTYPE3
 62
     2
 10
280.833333
 20
526.633317
 30
0.0
 11
539.333333
 21
526.633317
 31
0.0
  0
LINE
  8
0
  6
CONTINUOUS
 62
     1
 10
295.833333
 20
622.633317
 30
0.0
 11
299.833333
 21
622.633317
 31
0.0
  0
LINE
  8
0
  6
CONTINUOUS
 62
     1
 10
295.833333
 20
650.633317
 30
0.0
 11
299.833333
 21
650.633317
 31
0.0
  0
LINE
  8
0
  6
CONTINUOUS
 62
     1
 10
295.833333
 20
622.633317
 30
0.0
 11
295.833333
 21
650.633317
 31
0.0
  0
LINE
  8
0
  6
CONTINUOUS
 62
     1
 10
294.833333
 20
622.633317
 30
0.0
 11
294.833333
 21
650.633317
 31
0.0
  0
LINE
  8
0
  6
CONTINUOUS
 62
     1
 10
266.833333
 20
650.633317
 30
0.0
 11
294.833333
 21
650.633317
 31
0.0
  0
LINE
  8
0
  6
CONTINUOUS
 62
     1
 10
264.833333
 20
648.633317
 30
0.0
 11
266.833333
 21
650.633317
 31
0.0
  0
LINE
  8
0
  6
CONTINUOUS
 62
     1
 10
266.833333
 20
622.633317
 30
0.0
 11
294.833333
 21
622.633317
 31
0.0
  0
LINE
  8
0
  6
CONTINUOUS
 62
     1
 10
266.833333
 20
622.633317
 30
0.0
 11
264.833333
 21
624.633317
 31
0.0
  0
LINE
  8
0
  6
LTYPE3
 62
     2
 10
251.833333
 20
636.633317
 30
0.0
 11
471.833333
 21
636.633317
 31
0.0
  0
LINE
  8
0
  6
LTYPE3
 62
     2
 10
275.633333
 20
588.633317
 30
0.0
 11
295.833333
 21
588.633317
 31
0.0
  0
LINE
  8
0
  6
CONTINUOUS
 62
     1
 10
588.333333
 20
514.133317
 30
0.0
 11
613.333333
 21
514.133317
 31
0.0
  0
LINE
  8
0
  6
CONTINUOUS
 62
     1
 10
613.333333
 20
539.133317
 30
0.0
 11
613.333333
 21
514.133317
 31
0.0
  0
LINE
  8
0
  6
CONTINUOUS
 62
     1
 10
588.333333
 20
539.133317
 30
0.0
 11
613.333333
 21
539.133317
 31
0.0
  0
LINE
  8
0
  6
CONTINUOUS
 62
     1
 10
588.333333
 20
539.133317
 30
0.0
 11
588.333333
 21
514.133317
 31
0.0
  0
CIRCLE
  8
0
  6
CONTINUOUS
 62
     1
 10
600.833333
 20
526.633317
 30
0.0
 40
12.5
  0
LINE
  8
0
  6
LTYPE3
 62
     2
 10
600.833333
 20
507.933317
 30
0.0
 11
600.833333
 21
547.633317
 31
0.0
  0
LINE
  8
7
  6
CONTINUOUS
 62
     2
 10
605.302757461
 20
536.133317
 30
0.0
 11
611.269333149
 21
544.158276474
 31
0.0
  0
LINE
  8
7
  6
CONTINUOUS
 62
     2
 10
605.302757461
 20
536.133317
 30
0.0
 11
606.457483843
 21
546.066423613
 31
0.0
  0
LINE
  8
7
  6
CONTINUOUS
 62
     2
 10
605.302757461
 20
536.133317
 30
0.0
 11
628.302757461
 21
594.133317
 31
0.0
  0
LINE
  8
7
  6
CONTINUOUS
 62
     2
 10
466.833333
 20
444.633317
 30
0.0
 11
544.102757461
 21
444.633317
 31
0.0
  0
LINE
  8
7
  6
CONTINUOUS
 62
     2
 10
628.302757461
 20
594.133317
 30
0.0
 11
663.102757461
 21
594.133317
 31
0.0
  0
TEXT
  8
7
  6
CONTINUOUS
 62
     2
 10
628.302757461
 20
598.133317
 30
1.2
 40
12.0
  1
給脂口
 50
0.0
 41
0.9
 51
0.0
  7
KANJI33
  0
LINE
  8
0
  6
LTYPE2
 62
     2
 10
562.833333
 20
454.133317
 30
0.0
 11
590.833333
 21
454.133317
 31
0.0
  0
LINE
  8
7
  6
CONTINUOUS
 62
     2
 10
572.833333
 20
783.633317
 30
0.0
 11
563.174074737
 21
786.221507451
 31
0.0
  0
LINE
  8
7
  6
CONTINUOUS
 62
     2
 10
572.833333
 20
783.633317
 30
0.0
 11
563.174074737
 21
781.045126549
 31
0.0
  0
LINE
  8
7
  6
CONTINUOUS
 62
     2
 10
572.833333
 20
783.633317
 30
0.0
 11
359.833333
 21
783.633317
 31
0.0
  0
LINE
  8
7
  6
CONTINUOUS
 62
     2
 10
359.833333
 20
783.633317
 30
0.0
 11
369.492591263
 21
781.045126549
 31
0.0
  0
LINE
  8
7
  6
CONTINUOUS
 62
     2
 10
359.833333
 20
783.633317
 30
0.0
 11
369.492591263
 21
786.221507451
 31
0.0
  0
LINE
  8
7
  6
CONTINUOUS
 62
     2
 10
359.833333
 20
777.633317
 30
0.0
 11
359.833333
 21
777.633317
 31
0.0
  0
LINE
  8
7
  6
CONTINUOUS
 62
     2
 10
359.833333
 20
783.633317
 30
0.0
 11
350.174074737
 21
786.221507451
 31
0.0
  0
LINE
  8
7
  6
CONTINUOUS
 62
     2
 10
359.833333
 20
783.633317
 30
0.0
 11
350.174074737
 21
781.045126549
 31
0.0
  0
LINE
  8
7
  6
CONTINUOUS
 62
     2
 10
359.833333
 20
783.633317
 30
0.0
 11
299.833333
 21
783.633317
 31
0.0
  0
LINE
  8
7
  6
CONTINUOUS
 62
     2
 10
299.833333
 20
783.633317
 30
0.0
 11
309.492591263
 21
781.045126549
 31
0.0
  0
LINE
  8
7
  6
CONTINUOUS
 62
     2
 10
299.833333
 20
783.633317
 30
0.0
 11
309.492591263
 21
786.221507451
 31
0.0
  0
LINE
  8
7
  6
CONTINUOUS
 62
     2
 10
572.833333
 20
656.63332779
 30
0.0
 11
572.833333
 21
789.633317
 31
0.0
  0
LINE
  8
7
  6
CONTINUOUS
 62
     2
 10
359.833333
 20
703.633317
 30
0.0
 11
359.833333
 21
789.633317
 31
0.0
  0
LINE
  8
7
  6
CONTINUOUS
 62
     2
 10
299.833333
 20
677.633317
 30
0.0
 11
299.833333
 21
789.633317
 31
0.0
  0
LINE
  8
0
  6
LTYPE2
 62
     2
 10
482.50801509
 20
731.633317
 30
0.0
 11
439.762808845
 21
731.633317
 31
0.0
  0
LINE
  8
7
  6
CONTINUOUS
 62
     2
 10
578.833333
 20
454.133317
 30
0.0
 11
583.833333
 21
445.473062962
 31
0.0
  0
LINE
  8
7
  6
CONTINUOUS
 62
     2
 10
578.833333
 20
454.133317
 30
0.0
 11
587.493587038
 21
449.133317
 31
0.0
  0
LINE
  8
7
  6
CONTINUOUS
 62
     2
 10
578.833333
 20
454.133317
 30
0.0
 11
614.833333
 21
418.133317
 31
0.0
  0
LINE
  8
7
  6
CONTINUOUS
 62
     2
 10
614.833333
 20
418.133317
 30
0.0
 11
673.633333
 21
418.133317
 31
0.0
  0
LINE
  8
0
  6
CONTINUOUS
 62
     1
 10
527.833333
 20
679.703841155
 30
0.0
 11
527.833333
 21
692.133317
 31
0.0
  0
ARC
  8
0
  6
CONTINUOUS
 62
     1
 10
529.333333
 20
679.703841155
 30
0.0
 40
1.5
 50
180.0
 51
251.029592192
  0
LINE
  8
0
  6
CONTINUOUS
 62
     1
 10
542.820952653
 20
673.481322744
 30
0.0
 11
528.845713347
 21
678.285311256
 31
0.0
  0
LINE
  8
0
  6
CONTINUOUS
 62
     1
 10
527.833333
 20
636.633317
 30
0.0
 11
527.833333
 21
679.703841155
 31
0.0
  0
LINE
  8
0
  6
CONTINUOUS
 62
     1
 10
529.133333
 20
672.695762841
 30
0.0
 11
529.133333
 21
668.083882841
 31
0.0
  0
LINE
  8
0
  6
CONTINUOUS
 62
     1
 10
529.133333
 20
672.695762841
 30
0.0
 11
529.133333
 21
677.307642841
 31
0.0
  0
LINE
  8
0
  6
CONTINUOUS
 62
     1
 10
532.633533
 20
669.213322841
 30
0.0
 11
531.981450512
 21
668.083882841
 31
0.0
  0
LINE
  8
0
  6
CONTINUOUS
 62
     1
 10
532.633533
 20
672.695762841
 30
0.0
 11
532.633533
 21
669.213322841
 31
0.0
  0
LINE
  8
0
  6
CONTINUOUS
 62
     1
 10
532.633533
 20
676.178202841
 30
0.0
 11
531.981450512
 21
677.307642841
 31
0.0
  0
LINE
  8
0
  6
CONTINUOUS
 62
     1
 10
532.633533
 20
672.695762841
 30
0.0
 11
532.633533
 21
676.178202841
 31
0.0
  0
ARC
  8
0
  6
CONTINUOUS
 62
     1
 10
528.230278074
 20
672.695762841
 30
0.0
 40
4.403254926
 50
328.419912243
 51
31.580087757
  0
ARC
  8
0
  6
CONTINUOUS
 62
     1
 10
531.288612868
 20
669.236852841
 30
0.0
 40
1.34512595
 50
357.010501597
 51
58.997686085
  0
LINE
  8
0
  6
CONTINUOUS
 62
     1
 10
532.633533
 20
676.178202841
 30
0.0
 11
531.981450512
 21
677.307642841
 31
0.0
  0
ARC
  8
0
  6
CONTINUOUS
 62
     1
 10
531.288612868
 20
676.154672841
 30
0.0
 40
1.34512595
 50
301.002313915
 51
2.989498403
  0
LINE
  8
0
  6
CONTINUOUS
 62
     1
 10
529.133333
 20
668.083882841
 30
0.0
 11
531.981450512
 21
668.083882841
 31
0.0
  0
LINE
  8
0
  6
CONTINUOUS
 62
     1
 10
529.133333
 20
670.389822841
 30
0.0
 11
531.981450512
 21
670.389822841
 31
0.0
  0
LINE
  8
0
  6
CONTINUOUS
 62
     1
 10
529.133333
 20
675.001702841
 30
0.0
 11
531.981450512
 21
675.001702841
 31
0.0
  0
LINE
  8
0
  6
CONTINUOUS
 62
     1
 10
529.133333
 20
677.307642841
 30
0.0
 11
531.981450512
 21
677.307642841
 31
0.0
  0
LINE
  8
0
  6
CONTINUOUS
 62
     1
 10
527.833333
 20
668.095762841
 30
0.0
 11
529.133333
 21
668.095762841
 31
0.0
  0
LINE
  8
0
  6
CONTINUOUS
 62
     1
 10
527.833333
 20
672.695762841
 30
0.0
 11
529.133332554
 21
671.395763287
 31
0.0
  0
LINE
  8
0
  6
CONTINUOUS
 62
     1
 10
529.133332554
 20
672.695762841
 30
0.0
 11
527.833333
 21
673.995762394
 31
0.0
  0
LINE
  8
0
  6
CONTINUOUS
 62
     1
 10
527.833333
 20
677.295762841
 30
0.0
 11
529.133333
 21
677.295762841
 31
0.0
  0
LINE
  8
0
  6
CONTINUOUS
 62
     1
 10
556.833333
 20
636.633317
 30
0.0
 11
556.833333
 21
653.133317
 31
0.0
  0
LINE
  8
0
  6
CONTINUOUS
 62
     1
 10
556.833333
 20
636.633317
 30
0.0
 11
556.833333
 21
620.133317
 31
0.0
  0
LINE
  8
0
  6
CONTINUOUS
 62
     1
 10
557.833333
 20
640.433317
 30
0.0
 11
556.833333
 21
640.433317
 31
0.0
  0
LINE
  8
0
  6
CONTINUOUS
 62
     1
 10
557.833333
 20
636.633317
 30
0.0
 11
556.833333
 21
637.633317
 31
0.0
  0
LINE
  8
0
  6
CONTINUOUS
 62
     1
 10
560.315790352
 20
640.683317
 30
0.0
 11
557.833333
 21
640.683317
 31
0.0
  0
LINE
  8
0
  6
CONTINUOUS
 62
     1
 10
560.633333
 20
640.133317
 30
0.0
 11
560.315790352
 21
640.683317
 31
0.0
  0
LINE
  8
0
  6
CONTINUOUS
 62
     1
 10
560.315790352
 20
638.658317
 30
0.0
 11
557.833333
 21
638.658317
 31
0.0
  0
ARC
  8
0
  6
CONTINUOUS
 62
     1
 10
558.860359212
 20
639.670817
 30
0.0
 40
1.772973788
 50
325.174816769
 51
34.825183231
  0
LINE
  8
0
  6
CONTINUOUS
 62
     1
 10
557.833333
 20
632.833317
 30
0.0
 11
556.833333
 21
632.833317
 31
0.0
  0
LINE
  8
0
  6
CONTINUOUS
 62
     1
 10
557.833333
 20
635.633317
 30
0.0
 11
556.833333
 21
636.633317
 31
0.0
  0
LINE
  8
0
  6
CONTINUOUS
 62
     1
 10
560.633333
 20
633.133317
 30
0.0
 11
560.315790352
 21
632.583317
 31
0.0
  0
LINE
  8
0
  6
CONTINUOUS
 62
     1
 10
560.315790352
 20
632.583317
 30
0.0
 11
557.833333
 21
632.583317
 31
0.0
  0
LINE
  8
0
  6
CONTINUOUS
 62
     1
 10
560.315790352
 20
634.608317
 30
0.0
 11
557.833333
 21
634.608317
 31
0.0
  0
ARC
  8
0
  6
CONTINUOUS
 62
     1
 10
558.860359212
 20
633.595817
 30
0.0
 40
1.772973788
 50
325.174816769
 51
34.825183231
  0
LINE
  8
0
  6
CONTINUOUS
 62
     1
 10
557.833333
 20
640.683317
 30
0.0
 11
557.833333
 21
632.583317
 31
0.0
  0
LINE
  8
0
  6
CONTINUOUS
 62
     1
 10
560.633333
 20
640.133317
 30
0.0
 11
560.633333
 21
633.133317
 31
0.0
  0
ARC
  8
0
  6
CONTINUOUS
 62
     1
 10
554.017751819
 20
636.633317
 30
0.0
 40
6.615581181
 50
342.175912681
 51
17.824087319
  0
LINE
  8
0
  6
CONTINUOUS
 62
     1
 10
527.833333
 20
593.562792845
 30
0.0
 11
527.833333
 21
581.133317
 31
0.0
  0
ARC
  8
0
  6
CONTINUOUS
 62
     1
 10
529.333333
 20
593.562792845
 30
0.0
 40
1.5
 50
108.970407808
 51
180.0
  0
LINE
  8
0
  6
CONTINUOUS
 62
     1
 10
542.820952653
 20
599.785311256
 30
0.0
 11
528.845713347
 21
594.981322744
 31
0.0
  0
LINE
  8
0
  6
CONTINUOUS
 62
     1
 10
527.833333
 20
636.633317
 30
0.0
 11
527.833333
 21
593.562792845
 31
0.0
  0
LINE
  8
0
  6
CONTINUOUS
 62
     1
 10
529.133333
 20
600.570871159
 30
0.0
 11
529.133333
 21
605.182751159
 31
0.0
  0
LINE
  8
0
  6
CONTINUOUS
 62
     1
 10
532.633533
 20
604.053311159
 30
0.0
 11
531.981450512
 21
605.182751159
 31
0.0
  0
LINE
  8
0
  6
CONTINUOUS
 62
     1
 10
532.633533
 20
600.570871159
 30
0.0
 11
532.633533
 21
604.053311159
 31
0.0
  0
ARC
  8
0
  6
CONTINUOUS
 62
     1
 10
531.288612868
 20
604.029781159
 30
0.0
 40
1.34512595
 50
301.002313915
 51
2.989498403
  0
LINE
  8
0
  6
CONTINUOUS
 62
     1
 10
529.133333
 20
605.182751159
 30
0.0
 11
531.981450512
 21
605.182751159
 31
0.0
  0
LINE
  8
0
  6
CONTINUOUS
 62
     1
 10
527.833333
 20
605.170871159
 30
0.0
 11
529.133333
 21
605.170871159
 31
0.0
  0
LINE
  8
0
  6
CONTINUOUS
 62
     1
 10
529.133333
 20
600.570871159
 30
0.0
 11
529.133333
 21
595.958991159
 31
0.0
  0
LINE
  8
0
  6
CONTINUOUS
 62
     1
 10
532.633533
 20
597.088431159
 30
0.0
 11
531.981450512
 21
595.958991159
 31
0.0
  0
LINE
  8
0
  6
CONTINUOUS
 62
     1
 10
532.633533
 20
600.570871159
 30
0.0
 11
532.633533
 21
597.088431159
 31
0.0
  0
ARC
  8
0
  6
CONTINUOUS
 62
     1
 10
528.230278074
 20
600.570871159
 30
0.0
 40
4.403254926
 50
328.419912243
 51
31.580087757
  0
LINE
  8
0
  6
CONTINUOUS
 62
     1
 10
532.633533
 20
597.088431159
 30
0.0
 11
531.981450512
 21
595.958991159
 31
0.0
  0
ARC
  8
0
  6
CONTINUOUS
 62
     1
 10
531.288612868
 20
597.111961159
 30
0.0
 40
1.34512595
 50
357.010501597
 51
58.997686085
  0
LINE
  8
0
  6
CONTINUOUS
 62
     1
 10
529.133333
 20
598.264931159
 30
0.0
 11
531.981450512
 21
598.264931159
 31
0.0
  0
LINE
  8
0
  6
CONTINUOUS
 62
     1
 10
529.133333
 20
595.958991159
 30
0.0
 11
531.981450512
 21
595.958991159
 31
0.0
  0
LINE
  8
0
  6
CONTINUOUS
 62
     1
 10
527.833333
 20
595.970871159
 30
0.0
 11
529.133333
 21
595.970871159
 31
0.0
  0
LINE
  8
0
  6
CONTINUOUS
 62
     1
 10
529.133333
 20
602.876811159
 30
0.0
 11
531.981450512
 21
602.876811159
 31
0.0
  0
LINE
  8
0
  6
CONTINUOUS
 62
     1
 10
527.833333
 20
600.570871159
 30
0.0
 11
529.133332554
 21
601.870870713
 31
0.0
  0
LINE
  8
0
  6
CONTINUOUS
 62
     1
 10
529.133332554
 20
600.570871159
 30
0.0
 11
527.833333
 21
599.270871606
 31
0.0
  0
CIRCLE
  8
0
  6
CONTINUOUS
 62
     1
 10
335.833333
 20
716.633317
 30
0.0
 40
12.5
  0
ARC
  8
0
  6
CONTINUOUS
 62
     1
 10
335.833333
 20
716.633317
 30
0.0
 40
20.5
 50
300.423432294
 51
0.0
  0
ARC
  8
0
  6
CONTINUOUS
 62
     1
 10
346.781317073
 20
697.906805336
 30
0.0
 40
1.2
 50
118.393405187
 51
188.554293104
  0
ARC
  8
0
  6
CONTINUOUS
 62
     1
 10
324.885348927
 20
697.906805336
 30
0.0
 40
1.2
 50
351.445706896
 51
61.606594813
  0
ARC
  8
0
  6
CONTINUOUS
 62
     1
 10
335.833333
 20
716.633317
 30
0.0
 40
20.5
 50
0.0
 51
239.707348078
  0
LINE
  8
0
  6
CONTINUOUS
 62
     1
 10
345.719047286
 20
696.633317
 30
0.0
 11
345.033333
 21
702.633317
 31
0.0
  0
LINE
  8
0
  6
CONTINUOUS
 62
     1
 10
335.833333
 20
704.133317
 30
0.0
 11
345.033333
 21
702.633317
 31
0.0
  0
LINE
  8
0
  6
CONTINUOUS
 62
     1
 10
335.833333
 20
704.133317
 30
0.0
 11
326.633333
 21
702.633317
 31
0.0
  0
LINE
  8
0
  6
CONTINUOUS
 62
     1
 10
325.947618714
 20
696.633317
 30
0.0
 11
326.633333
 21
702.633317
 31
0.0
  0
LINE
  8
0
  6
CONTINUOUS
 62
     1
 10
326.633333
 20
702.633317
 30
0.0
 11
345.033333
 21
702.633317
 31
0.0
  0
LINE
  8
0
  6
CONTINUOUS
 62
     1
 10
264.833333
 20
624.633317
 30
0.0
 11
264.833333
 21
648.633317
 31
0.0
  0
ARC
  8
0
  6
CONTINUOUS
 62
     1
 10
261.454308674
 20
638.833317
 30
0.0
 40
1.3
 50
90.0
 51
163.39844642
  0
ARC
  8
0
  6
CONTINUOUS
 62
     1
 10
268.833333
 20
636.633317
 30
0.0
 40
9.0
 50
163.398449826
 51
180.0
  0
LINE
  8
0
  6
CONTINUOUS
 62
     1
 10
262.433333
 20
640.133317
 30
0.0
 11
261.454308674
 21
640.133317
 31
0.0
  0
LINE
  8
0
  6
CONTINUOUS
 62
     1
 10
262.433333
 20
636.633317
 30
0.0
 11
262.433333
 21
640.433317
 31
0.0
  0
ARC
  8
0
  6
CONTINUOUS
 62
     1
 10
261.454308674
 20
634.433317
 30
0.0
 40
1.3
 50
196.60155358
 51
270.0
  0
ARC
  8
0
  6
CONTINUOUS
 62
     1
 10
268.833333
 20
636.633317
 30
0.0
 40
9.0
 50
180.0
 51
196.601550174
  0
LINE
  8
0
  6
CONTINUOUS
 62
     1
 10
262.433333
 20
633.133317
 30
0.0
 11
261.454308674
 21
633.133317
 31
0.0
  0
LINE
  8
0
  6
CONTINUOUS
 62
     1
 10
262.433333
 20
636.633317
 30
0.0
 11
262.433333
 21
632.833317
 31
0.0
  0
LINE
  8
0
  6
CONTINUOUS
 62
     1
 10
259.833333
 20
636.633317
 30
0.0
 11
261.333333
 21
635.033317
 31
0.0
  0
LINE
  8
0
  6
CONTINUOUS
 62
     1
 10
259.833333
 20
636.633317
 30
0.0
 11
261.333333
 21
638.233317
 31
0.0
  0
LINE
  8
0
  6
CONTINUOUS
 62
     1
 10
264.833333
 20
640.433317
 30
0.0
 11
262.433333
 21
640.433317
 31
0.0
  0
LINE
  8
0
  6
CONTINUOUS
 62
     1
 10
264.833333
 20
632.833317
 30
0.0
 11
262.433333
 21
632.833317
 31
0.0
  0
LINE
  8
0
  6
CONTINUOUS
 62
     1
 10
287.833333
 20
466.633317
 30
0.0
 11
287.833333
 21
618.633317
 31
0.0
  0
LINE
  8
0
  6
CONTINUOUS
 62
     1
 10
284.633333
 20
598.633317
 30
0.0
 11
287.833333
 21
598.633317
 31
0.0
  0
LINE
  8
0
  6
CONTINUOUS
 62
     1
 10
284.633333
 20
578.633317
 30
0.0
 11
287.833333
 21
578.633317
 31
0.0
  0
LINE
  8
0
  6
CONTINUOUS
 62
     1
 10
279.129451477
 20
584.280415
 30
0.0
 11
279.944526874
 21
582.868663
 31
0.0
  0
LINE
  8
0
  6
CONTINUOUS
 62
     1
 10
279.129451477
 20
588.633317
 30
0.0
 11
279.129451477
 21
584.280415
 31
0.0
  0
LINE
  8
0
  6
CONTINUOUS
 62
     1
 10
279.129451477
 20
592.986219
 30
0.0
 11
279.944526874
 21
594.397971
 31
0.0
  0
LINE
  8
0
  6
CONTINUOUS
 62
     1
 10
279.129451477
 20
588.633317
 30
0.0
 11
279.129451477
 21
592.986219
 31
0.0
  0
ARC
  8
0
  6
CONTINUOUS
 62
     1
 10
284.633333
 20
588.633317
 30
0.0
 40
5.503881523
 50
148.419912243
 51
211.580087757
  0
ARC
  8
0
  6
CONTINUOUS
 62
     1
 10
280.810544483
 20
584.3098265
 30
0.0
 40
1.681350271
 50
121.002313915
 51
182.989498403
  0
LINE
  8
0
  6
CONTINUOUS
 62
     1
 10
279.129451477
 20
592.986219
 30
0.0
 11
279.944526874
 21
594.397971
 31
0.0
  0
ARC
  8
0
  6
CONTINUOUS
 62
     1
 10
280.810544483
 20
592.9568075
 30
0.0
 40
1.681350271
 50
177.010501597
 51
238.997686085
  0
LINE
  8
0
  6
CONTINUOUS
 62
     1
 10
283.129061477
 20
585.75099
 30
0.0
 11
279.944526874
 21
585.75099
 31
0.0
  0
LINE
  8
0
  6
CONTINUOUS
 62
     1
 10
283.129061477
 20
582.868663
 30
0.0
 11
279.944526874
 21
582.868663
 31
0.0
  0
LINE
  8
0
  6
CONTINUOUS
 62
     1
 10
283.129061477
 20
591.515644
 30
0.0
 11
279.944526874
 21
591.515644
 31
0.0
  0
LINE
  8
0
  6
CONTINUOUS
 62
     1
 10
283.129061477
 20
594.397971
 30
0.0
 11
279.944526874
 21
594.397971
 31
0.0
  0
LINE
  8
0
  6
CONTINUOUS
 62
     1
 10
284.629061477
 20
588.633317
 30
0.0
 11
283.129061719
 21
587.133317243
 31
0.0
  0
LINE
  8
0
  6
CONTINUOUS
 62
     1
 10
283.129061719
 20
588.633317
 30
0.0
 11
284.629061477
 21
590.133316757
 31
0.0
  0
LINE
  8
0
  6
CONTINUOUS
 62
     1
 10
284.629061477
 20
582.533317
 30
0.0
 11
283.129061477
 21
582.533317
 31
0.0
  0
LINE
  8
0
  6
CONTINUOUS
 62
     1
 10
283.129061477
 20
588.633317
 30
0.0
 11
283.129061477
 21
582.533317
 31
0.0
  0
LINE
  8
0
  6
CONTINUOUS
 62
     1
 10
283.129061477
 20
588.633317
 30
0.0
 11
283.129061477
 21
594.733317
 31
0.0
  0
LINE
  8
0
  6
CONTINUOUS
 62
     1
 10
284.629061477
 20
594.733317
 30
0.0
 11
283.129061477
 21
594.733317
 31
0.0
  0
LINE
  8
0
  6
CONTINUOUS
 62
     1
 10
284.633333
 20
578.633317
 30
0.0
 11
284.633333
 21
598.633317
 31
0.0
  0
LINE
  8
0
  6
CONTINUOUS
 62
     1
 10
445.833333
 20
429.633317
 30
0.0
 11
445.833333
 21
477.133317
 31
0.0
  0
LINE
  8
0
  6
CONTINUOUS
 62
     1
 10
573.833333
 20
429.633317
 30
0.0
 11
573.833333
 21
479.133317
 31
0.0
  0
LINE
  8
0
  6
CONTINUOUS
 62
     1
 10
573.833333
 20
429.633317
 30
0.0
 11
445.833333
 21
429.633317
 31
0.0
  0
LINE
  8
7
  6
CONTINUOUS
 62
     2
 10
429.833333
 20
396.633317
 30
0.0
 11
439.492591263
 21
394.045126549
 31
0.0
  0
LINE
  8
7
  6
CONTINUOUS
 62
     2
 10
429.833333
 20
396.633317
 30
0.0
 11
439.492591263
 21
399.221507451
 31
0.0
  0
LINE
  8
7
  6
CONTINUOUS
 62
     2
 10
429.833333
 20
368.633317
 30
0.0
 11
439.492591263
 21
366.045126549
 31
0.0
  0
LINE
  8
7
  6
CONTINUOUS
 62
     2
 10
429.833333
 20
368.633317
 30
0.0
 11
439.492591263
 21
371.221507451
 31
0.0
  0
LINE
  8
7
  6
CONTINUOUS
 62
     2
 10
429.833333
 20
362.633317
 30
0.0
 11
429.833333
 21
362.633317
 31
0.0
  0
LINE
  8
7
  6
CONTINUOUS
 62
     2
 10
429.833333
 20
362.633317
 30
0.0
 11
429.833333
 21
362.633317
 31
0.0
  0
LINE
  8
7
  6
CONTINUOUS
 62
     2
 10
429.833333
 20
368.633317
 30
0.0
 11
420.174074737
 21
371.221507451
 31
0.0
  0
LINE
  8
7
  6
CONTINUOUS
 62
     2
 10
429.833333
 20
368.633317
 30
0.0
 11
420.174074737
 21
366.045126549
 31
0.0
  0
LINE
  8
7
  6
CONTINUOUS
 62
     2
 10
429.833333
 20
368.633317
 30
0.0
 11
359.833333
 21
368.633317
 31
0.0
  0
LINE
  8
7
  6
CONTINUOUS
 62
     2
 10
359.833333
 20
368.633317
 30
0.0
 11
369.492591263
 21
366.045126549
 31
0.0
  0
LINE
  8
7
  6
CONTINUOUS
 62
     2
 10
359.833333
 20
368.633317
 30
0.0
 11
369.492591263
 21
371.221507451
 31
0.0
  0
LINE
  8
7
  6
CONTINUOUS
 62
     2
 10
359.833333
 20
362.633317
 30
0.0
 11
359.833333
 21
362.633317
 31
0.0
  0
LINE
  8
7
  6
CONTINUOUS
 62
     2
 10
359.833333
 20
368.633317
 30
0.0
 11
350.174074737
 21
371.221507451
 31
0.0
  0
LINE
  8
7
  6
CONTINUOUS
 62
     2
 10
359.833333
 20
368.633317
 30
0.0
 11
350.174074737
 21
366.045126549
 31
0.0
  0
LINE
  8
7
  6
CONTINUOUS
 62
     2
 10
359.833333
 20
368.633317
 30
0.0
 11
287.833333
 21
368.633317
 31
0.0
  0
LINE
  8
7
  6
CONTINUOUS
 62
     2
 10
287.833333
 20
368.633317
 30
0.0
 11
297.492591263
 21
366.045126549
 31
0.0
  0
LINE
  8
7
  6
CONTINUOUS
 62
     2
 10
287.833333
 20
368.633317
 30
0.0
 11
297.492591263
 21
371.221507451
 31
0.0
  0
LINE
  8
7
  6
CONTINUOUS
 62
     2
 10
287.833333
 20
340.633317
 30
0.0
 11
297.492591263
 21
338.045126549
 31
0.0
  0
LINE
  8
7
  6
CONTINUOUS
 62
     2
 10
287.833333
 20
340.633317
 30
0.0
 11
297.492591263
 21
343.221507451
 31
0.0
  0
LINE
  8
7
  6
CONTINUOUS
 62
     2
 10
287.833333
 20
340.633317
 30
0.0
 11
278.174074737
 21
343.221507451
 31
0.0
  0
LINE
  8
7
  6
CONTINUOUS
 62
     2
 10
287.833333
 20
340.633317
 30
0.0
 11
278.174074737
 21
338.045126549
 31
0.0
  0
LINE
  8
7
  6
CONTINUOUS
 62
     2
 10
287.833333
 20
340.633317
 30
0.0
 11
259.833333
 21
340.633317
 31
0.0
  0
LINE
  8
7
  6
CONTINUOUS
 62
     2
 10
259.833333
 20
340.633317
 30
0.0
 11
269.492591263
 21
338.045126549
 31
0.0
  0
LINE
  8
7
  6
CONTINUOUS
 62
     2
 10
259.833333
 20
340.633317
 30
0.0
 11
269.492591263
 21
343.221507451
 31
0.0
  0
LINE
  8
7
  6
CONTINUOUS
 62
     2
 10
259.833333
 20
636.633317
 30
0.0
 11
259.833333
 21
334.633317
 31
0.0
  0
LINE
  8
7
  6
CONTINUOUS
 62
     2
 10
287.833333
 20
466.633317
 30
0.0
 11
287.833333
 21
334.633317
 31
0.0
  0
LINE
  8
7
  6
CONTINUOUS
 62
     2
 10
359.833333
 20
466.633317
 30
0.0
 11
359.833333
 21
362.633317
 31
0.0
  0
LINE
  8
7
  6
CONTINUOUS
 62
     2
 10
429.833333
 20
489.633317
 30
0.0
 11
429.833333
 21
362.633317
 31
0.0
  0
TEXT
  8
7
  6
CONTINUOUS
 62
     2
 10
488.833333
 20
613.233317
 30
0.0
 40
15.0
  1
φ１１４
 50
90.0
 41
0.9
 51
0.0
  7
KANJI26
  0
TEXT
  8
7
  6
CONTINUOUS
 62
     2
 10
498.833333
 20
762.633317
 30
0.0
 40
15.0
  1
ＰＦ３／４
 50
0.0
 41
0.9
 51
0.0
  7
KANJI26
  0
TEXT
  8
7
  6
CONTINUOUS
 62
     2
 10
448.933333
 20
787.633317
 30
0.0
 40
15.0
  1
２１３
 50
0.0
 41
0.9
 51
0.0
  7
KANJI26
  0
TEXT
  8
7
  6
CONTINUOUS
 62
     2
 10
318.433333
 20
787.633317
 30
0.0
 40
15.0
  1
６０
 50
0.0
 41
0.9
 51
0.0
  7
KANJI26
  0
TEXT
  8
7
  6
CONTINUOUS
 62
     2
 10
555.833333
 20
509.233317
 30
0.0
 40
15.0
  1
φ６４
 50
90.0
 41
0.9
 51
0.0
  7
KANJI26
  0
TEXT
  8
7
  6
CONTINUOUS
 62
     2
 10
473.302757461
 20
448.633317
 30
0.0
 40
15.0
  1
推力リミッタ
 50
0.0
 41
0.9
 51
0.0
  7
KANJI26
  0
TEXT
  8
7
  6
CONTINUOUS
 62
     2
 10
614.833333
 20
422.133317
 30
0.0
 40
15.0
  1
ＰＦ１／２
 50
0.0
 41
0.9
 51
0.0
  7
KANJI26
  0
TEXT
  8
7
  6
CONTINUOUS
 62
     2
 10
543.433333
 20
400.633317
 30
0.0
 40
15.0
  1
Ｃ
 50
0.0
 41
0.9
 51
0.0
  7
KANJI26
  0
TEXT
  8
7
  6
CONTINUOUS
 62
     2
 10
554.433333
 20
372.633317
 30
0.0
 40
15.0
  1
ｍｉｎ．Ｌ
 50
0.0
 41
0.9
 51
0.0
  7
KANJI26
  0
TEXT
  8
7
  6
CONTINUOUS
 62
     2
 10
383.433333
 20
372.633317
 30
0.0
 40
15.0
  1
７０
 50
0.0
 41
0.9
 51
0.0
  7
KANJI26
  0
TEXT
  8
7
  6
CONTINUOUS
 62
     2
 10
312.433333
 20
372.633317
 30
0.0
 40
15.0
  1
７２
 50
0.0
 41
0.9
 51
0.0
  7
KANJI26
  0
TEXT
  8
7
  6
CONTINUOUS
 62
     2
 10
477.433333
 20
344.633317
 30
0.0
 40
15.0
  1
ｍｉｎ．ＡＬ
 50
0.0
 41
0.9
 51
0.0
  7
KANJI26
  0
TEXT
  8
7
  6
CONTINUOUS
 62
     2
 10
262.433333
 20
344.633317
 30
0.0
 40
15.0
  1
２８
 50
0.0
 41
0.9
 51
0.0
  7
KANJI26
  0
LINE
  8
7
  6
CONTINUOUS
 62
     2
 10
492.833333
 20
591.0
 30
0.0
 11
492.833333
 21
579.633317
 31
0.0
  0
LINE
  8
7
  6
CONTINUOUS
 62
     2
 10
492.833333
 20
693.633317
 30
0.0
 11
492.833333
 21
608.0
 31
0.0
  0
ARC
  8
0
  6
CONTINUOUS
 62
     1
 10
452.233333
 20
430.633317
 30
0.0
 40
5.0
 50
272.3
 51
348.5
  0
ARC
  8
0
  6
CONTINUOUS
 62
     1
 10
451.433333
 20
430.633317
 30
0.0
 40
5.0
 50
191.5
 51
267.7
  0
LINE
  8
0
  6
CONTINUOUS
 62
     1
 10
452.433333
 20
425.633317
 30
0.0
 11
451.233333
 21
425.633317
 31
0.0
  0
LINE
  8
0
  6
LTYPE4
 62
     2
 10
451.833333
 20
422.233317
 30
0.0
 11
451.833333
 21
435.633317
 31
0.0
  0
ARC
  8
0
  6
CONTINUOUS
 62
     1
 10
568.233333
 20
430.633317
 30
0.0
 40
5.0
 50
272.3
 51
348.5
  0
ARC
  8
0
  6
CONTINUOUS
 62
     1
 10
567.433333
 20
430.633317
 30
0.0
 40
5.0
 50
191.5
 51
267.7
  0
LINE
  8
0
  6
CONTINUOUS
 62
     1
 10
568.433333
 20
425.633317
 30
0.0
 11
567.233333
 21
425.633317
 31
0.0
  0
LINE
  8
0
  6
LTYPE4
 62
     2
 10
567.833333
 20
422.233317
 30
0.0
 11
567.833333
 21
435.633317
 31
0.0
  0
LINE
  8
0
  6
LTYPE2
 62
     6
 10
126.241666
 20
919.766634
 30
0.0
 11
126.241666
 21
903.365777936
 31
0.0
  0
LINE
  8
0
  6
LTYPE2
 62
     6
 10
256.638595694
 20
919.766634
 30
0.0
 11
126.241666
 21
919.766634
 31
0.0
  0
TEXT
  8
0
  6
CONTINUOUS
 62
     6
 10
108.706923591
 20
906.281485681
 30
1.093390404
 40
10.933904043
  1
Ｕ
 50
0.0
 41
0.9
 51
0.0
  7
KANJI34
  0
CIRCLE
  8
0
  6
CONTINUOUS
 62
     6
 10
126.241666
 20
900.085606723
 30
0.0
 40
4.373561617
  0
LINE
  8
0
  6
CONTINUOUS
 62
     6
 10
121.21688231
 20
895.060823033
 30
0.0
 11
131.421859417
 21
905.26580014
 31
0.0
  0
TEXT
  8
0
  6
CONTINUOUS
 62
     6
 10
136.487139047
 20
928.432765352
 30
1.518597784
 40
15.185977837
  1
エコノストップモータ
 50
0.0
 41
0.66671875
 51
0.0
  7
KANJI35
  0
CIRCLE
  8
0
  6
CONTINUOUS
 62
     6
 10
171.070672575
 20
874.573163957
 30
0.0
 40
18.223173404
  0
TEXT
  8
0
  6
CONTINUOUS
 62
     6
 10
163.416939745
 20
865.826040723
 30
1.82231734
 40
18.223173404
  1
Ｍ
 50
0.0
 41
0.9
 51
0.0
  7
KANJI36
  0
LINE
  8
0
  6
CONTINUOUS
 62
     6
 10
147.016083681
 20
849.060721191
 30
0.0
 11
158.314451192
 21
862.181406042
 31
0.0
  0
LINE
  8
0
  6
CONTINUOUS
 62
     6
 10
147.016083681
 20
900.085606723
 30
0.0
 11
158.314451192
 21
886.964921872
 31
0.0
  0
LINE
  8
0
  6
CONTINUOUS
 62
     6
 10
147.016083681
 20
900.085606723
 30
0.0
 11
130.615227617
 21
900.085606723
 31
0.0
  0
LINE
  8
0
  6
CONTINUOUS
 62
     6
 10
153.211962639
 20
874.573163957
 30
0.0
 11
130.615227617
 21
874.573163957
 31
0.0
  0
LINE
  8
0
  6
CONTINUOUS
 62
     6
 10
147.016083681
 20
849.060721191
 30
0.0
 11
130.615227617
 21
849.060721191
 31
0.0
  0
TEXT
  8
0
  6
CONTINUOUS
 62
     6
 10
109.800313995
 20
880.404579446
 30
1.093390404
 40
10.933904043
  1
Ｖ
 50
0.0
 41
0.9
 51
0.0
  7
KANJI34
  0
TEXT
  8
0
  6
CONTINUOUS
 62
     6
 10
110.893704399
 20
854.527673212
 30
1.093390404
 40
10.933904043
  1
Ｗ
 50
0.0
 41
0.9
 51
0.0
  7
KANJI34
  0
CIRCLE
  8
0
  6
CONTINUOUS
 62
     6
 10
126.241666
 20
874.573163957
 30
0.0
 40
4.373561617
  0
LINE
  8
0
  6
CONTINUOUS
 62
     6
 10
121.21688231
 20
869.548380267
 30
0.0
 11
131.421859417
 21
879.753357374
 31
0.0
  0
LINE
  8
0
  6
LTYPE2
 62
     6
 10
126.241666
 20
896.076508574
 30
0.0
 11
126.241666
 21
877.85333517
 31
0.0
  0
CIRCLE
  8
0
  6
CONTINUOUS
 62
     6
 10
126.241666
 20
849.060721191
 30
0.0
 40
4.373561617
  0
LINE
  8
0
  6
CONTINUOUS
 62
     6
 10
121.21688231
 20
844.035937501
 30
0.0
 11
131.421859417
 21
854.240914607
 31
0.0
  0
LINE
  8
0
  6
LTYPE2
 62
     6
 10
126.241666
 20
870.564065808
 30
0.0
 11
126.241666
 21
853.434282808
 31
0.0
  0
LINE
  8
0
  6
LTYPE2
 62
     6
 10
256.638595694
 20
824.354901891
 30
0.0
 11
126.241666
 21
824.354901891
 31
0.0
  0
LINE
  8
0
  6
LTYPE2
 62
     6
 10
126.241666
 20
844.687159574
 30
0.0
 11
126.241666
 21
824.354901891
 31
0.0
  0
TEXT
  8
0
  6
CONTINUOUS
 62
     2
 10
131.337059364
 20
799.145538811
 30
0.0
 40
15.6
  1
モーター結線図
 50
0.0
 41
0.925
 51
0.0
  7
KANJI37
  0
TEXT
  8
0
  6
CONTINUOUS
 62
     6
 10
197.312042277
 20
866.318066405
 30
1.457853872
 40
14.578538724
  1
Ｂ
 50
0.0
 41
0.9
 51
0.0
  7
KANJI38
  0
CIRCLE
  8
0
  6
CONTINUOUS
 62
     6
 10
203.872384703
 20
874.573163957
 30
0.0
 40
14.578538724
  0
LINE
  8
0
  6
LTYPE2
 62
     6
 10
256.638595694
 20
824.354901891
 30
0.0
 11
256.638595694
 21
919.766634
 31
0.0
  0
LINE
  8
0
  6
CONTINUOUS
 62
     2
 10
277.5
 20
650.0
 30
0.0
 11
229.5
 21
741.0
 31
0.0
  0
LINE
  8
0
  6
CONTINUOUS
 62
     2
 10
229.5
 20
741.0
 30
0.0
 11
118.5
 21
741.0
 31
0.0
  0
TEXT
  8
0
  6
CONTINUOUS
 62
     3
 10
118.5
 20
746.0
 30
1.5
 40
15.0
  1
手動軸カバー
 50
0.0
 41
0.9
 51
0.0
  7
KANJI39
  0
TEXT
  8
0
  6
CONTINUOUS
 62
     3
 10
118.5
 20
716.0
 30
1.5
 40
15.0
  1
手動軸□８
 50
0.0
 41
0.9
 51
0.0
  7
KANJI39
  0
LINE
  8
0
  6
CONTINUOUS
 62
     2
 10
277.5
 20
650.0
 30
0.0
 11
275.282742397
 21
659.751090643
 31
0.0
  0
LINE
  8
0
  6
CONTINUOUS
 62
     2
 10
277.5
 20
650.0
 30
0.0
 11
270.704253268
 21
657.33606341
 31
0.0
  0
ARC
  8
0
  6
CONTINUOUS
 62
     2
 10
201.833333
 20
639.133317
 30
0.0
 40
20.0
 50
231.952957468
 51
156.801409486
  0
LINE
  8
0
  6
CONTINUOUS
 62
     2
 10
183.4504324
 20
647.011702972
 30
0.0
 11
185.74512511
 21
656.849141749
 31
0.0
  0
TEXT
  8
0
  6
CONTINUOUS
 62
     2
 10
121.4504324
 20
630.011702972
 30
0.0
 40
15.0
  1
前進方向
 50
0.0
 41
0.9
 51
0.0
  7
KANJI26
  0
LINE
  8
0
  6
CONTINUOUS
 62
     2
 10
183.4504324
 20
647.011702972
 30
0.0
 11
191.718593778
 21
651.919039507
 31
0.0
  0
LINE
  8
0
  6
CONTINUOUS
 62
     1
 10
352.333333
 20
601.633317
 30
0.0
 11
309.333333
 21
601.633317
 31
0.0
  0
TEXT
  8
0
  6
CONTINUOUS
 62
     2
 10
314.333333
 20
590.633317
 30
5.0
 40
20.0
  1
銘板
 50
270.0
 41
0.925
 51
0.0
  7
KANJI40
  0
LINE
  8
0
  6
CONTINUOUS
 62
     1
 10
352.333333
 20
601.633317
 30
0.0
 11
352.333333
 21
531.633317
 31
0.0
  0
LINE
  8
0
  6
CONTINUOUS
 62
     1
 10
309.333333
 20
601.633317
 30
0.0
 11
309.333333
 21
531.633317
 31
0.0
  0
LINE
  8
0
  6
CONTINUOUS
 62
     1
 10
352.333333
 20
531.633317
 30
0.0
 11
309.333333
 21
531.633317
 31
0.0
  0
TEXT
  8
0
  6
CONTINUOUS
 62
     2
 10
378.733333
 20
591.633317
 30
0.0
 40
15.0
  1
エコノストップモータ
 50
0.0
 41
0.9
 51
0.0
  7
KANJI26
  0
TEXT
  8
0
  6
CONTINUOUS
 62
     2
 10
381.633333
 20
608.633317
 30
0.0
 40
15.0
  1
日本電産
 50
0.0
 41
0.9
 51
0.0
  7
KANJI26
  0
TEXT
  8
0
  6
CONTINUOUS
 62
     2
 10
451.559258263
 20
855.288190451
 30
0.0
 40
20.0
  1
ブレーキ解放装置はありません。
 50
0.0
 41
0.925
 51
0.0
  7
KANJI31
  0
TEXT
  8
0
  6
CONTINUOUS
 62
     2
 10
452.559258263
 20
830.288190451
 30
0.0
 40
20.0
  1
そのまま手動操作をして下さい．
 50
0.0
 41
0.925
 51
0.0
  7
KANJI31
  0
LINE
  8
0
  6
CONTINUOUS
 62
     6
 10
342.809425053
 20
1341.497759827
 30
0.0
 11
110.764646507
 21
1341.497759827
 31
0.0
  0
LINE
  8
0
  6
CONTINUOUS
 62
     3
 10
342.809425053
 20
1314.035259827
 30
0.0
 11
110.764646507
 21
1314.035259827
 31
0.0
  0
LINE
  8
0
  6
CONTINUOUS
 62
     6
 10
342.809425053
 20
1314.035259827
 30
0.0
 11
110.764646507
 21
1314.035259827
 31
0.0
  0
TEXT
  8
0
  6
CONTINUOUS
 62
     6
 10
368.392228
 20
1338.950410728
 30
1.232517
 40
13.182
  1
電気定格　　　
 50
0.0
 41
0.85
 51
0.0
  7
KANJI41
  0
TEXT
  8
0
  6
CONTINUOUS
 62
     6
 10
114.673517202
 20
1344.69592676
 30
1.0647
 40
11.661
  1
ＬＳ０１　　　：推力リミッタ（前進時過負荷用）
 50
0.0
 41
0.822608696
 51
0.0
  7
KANJI42
  0
TEXT
  8
0
  6
CONTINUOUS
 62
     6
 10
114.673517202
 20
1317.23342676
 30
1.0647
 40
11.661
  1
ＬＳ０２　　　：推力リミッタ（後進時過負荷用）
 50
0.0
 41
0.822608696
 51
0.0
  7
KANJI42
  0
TEXT
  8
0
  6
CONTINUOUS
 62
     6
 10
381.193715102
 20
1308.376958599
 30
0.0
 40
11.8638
  1
ＤＣ１２５Ｖ　０．６Ａ　，ＤＣ２５０Ｖ　０．３Ａ　
 50
0.0
 41
0.726495726
 51
0.0
  7
KANJI43
  0
LINE
  8
0
  6
LTYPE2
 62
     6
 10
641.2
 20
1368.95
 30
0.0
 11
92.8
 21
1368.95
 31
0.0
  0
TEXT
  8
0
  6
CONTINUOUS
 62
     6
 10
375.937132178
 20
1356.711726126
 30
0.0
 40
45.0
  1
｝
 50
0.0
 41
0.538166667
 51
0.0
  7
KANJI44
  0
TEXT
  8
0
  6
CONTINUOUS
 62
     6
 10
305.812791539
 20
1127.97382165
 30
0.0
 40
17.740702234
  1
端子台　接続図
 50
0.0
 41
0.880962996
 51
0.0
  7
KANJI45
  0
LINE
  8
0
  6
LTYPE2
 62
     6
 10
641.2
 20
1109.95
 30
0.0
 11
641.2
 21
1368.95
 31
0.0
  0
LINE
  8
0
  6
LTYPE2
 62
     6
 10
92.8
 20
1109.95
 30
0.0
 11
641.2
 21
1109.95
 31
0.0
  0
LINE
  8
0
  6
LTYPE2
 62
     6
 10
92.8
 20
1368.95
 30
0.0
 11
92.8
 21
1109.95
 31
0.0
  0
LINE
  8
0
  6
CONTINUOUS
 62
     2
 10
340.777373465
 20
1178.978121884
 30
0.0
 11
340.777373465
 21
1156.199155128
 31
0.0
  0
LINE
  8
0
  6
CONTINUOUS
 62
     2
 10
367.35283468
 20
1178.978121884
 30
0.0
 11
367.35283468
 21
1156.199155128
 31
0.0
  0
LINE
  8
0
  6
CONTINUOUS
 62
     2
 10
393.928295894
 20
1178.978121884
 30
0.0
 11
393.928295894
 21
1156.199155128
 31
0.0
  0
LINE
  8
0
  6
CONTINUOUS
 62
     2
 10
420.503757109
 20
1178.978121884
 30
0.0
 11
420.503757109
 21
1156.199155128
 31
0.0
  0
CIRCLE
  8
0
  6
CONTINUOUS
 62
     6
 10
412.584269667
 20
1202.457921517
 30
0.0
 40
4.100214016
  0
LINE
  8
0
  6
CONTINUOUS
 62
     6
 10
408.484055651
 20
1202.457921517
 30
0.0
 11
407.216026502
 21
1202.457921517
 31
0.0
  0
LINE
  8
0
  6
CONTINUOUS
 62
     6
 10
433.538027433
 20
1216.144562742
 30
0.0
 11
429.623558096
 21
1193.809507138
 31
0.0
  0
LINE
  8
0
  6
CONTINUOUS
 62
     6
 10
428.811699663
 20
1216.932284037
 30
0.0
 11
424.896922494
 21
1194.597279739
 31
0.0
  0
LINE
  8
0
  6
CONTINUOUS
 62
     6
 10
429.623558096
 20
1193.809507138
 30
0.0
 11
424.896922494
 21
1194.597279739
 31
0.0
  0
CIRCLE
  8
0
  6
CONTINUOUS
 62
     6
 10
433.791487717
 20
1192.989464335
 30
0.0
 40
4.100214016
  0
LINE
  8
0
  6
CONTINUOUS
 62
     6
 10
433.791487717
 20
1188.889250319
 30
0.0
 11
433.791487717
 21
1178.978121884
 31
0.0
  0
LINE
  8
0
  6
CONTINUOUS
 62
     6
 10
407.216026502
 20
1202.457921517
 30
0.0
 11
407.216026502
 21
1178.978121884
 31
0.0
  0
LINE
  8
0
  6
CONTINUOUS
 62
     6
 10
380.640565287
 20
1178.978121884
 30
0.0
 11
380.640565287
 21
1232.683332504
 31
0.0
  0
LINE
  8
0
  6
CONTINUOUS
 62
     6
 10
301.167641926
 20
1216.144562742
 30
0.0
 11
305.082111263
 21
1193.809507138
 31
0.0
  0
LINE
  8
0
  6
CONTINUOUS
 62
     6
 10
305.893969696
 20
1216.932284037
 30
0.0
 11
309.808746865
 21
1194.597279739
 31
0.0
  0
LINE
  8
0
  6
CONTINUOUS
 62
     6
 10
305.082111263
 20
1193.809507138
 30
0.0
 11
309.808746865
 21
1194.597279739
 31
0.0
  0
CIRCLE
  8
0
  6
CONTINUOUS
 62
     6
 10
300.914181642
 20
1192.989464335
 30
0.0
 40
4.100214016
  0
CIRCLE
  8
0
  6
CONTINUOUS
 62
     6
 10
322.121399692
 20
1202.457921517
 30
0.0
 40
4.100214016
  0
LINE
  8
0
  6
CONTINUOUS
 62
     6
 10
326.221613708
 20
1202.457921517
 30
0.0
 11
327.489642857
 21
1202.457921517
 31
0.0
  0
LINE
  8
0
  6
CONTINUOUS
 62
     6
 10
300.914181642
 20
1188.889250319
 30
0.0
 11
300.914181642
 21
1178.978121884
 31
0.0
  0
LINE
  8
0
  6
CONTINUOUS
 62
     6
 10
327.489642857
 20
1202.457921517
 30
0.0
 11
327.489642857
 21
1178.978121884
 31
0.0
  0
LINE
  8
0
  6
CONTINUOUS
 62
     6
 10
354.065104072
 20
1178.978121884
 30
0.0
 11
354.065104072
 21
1232.683332504
 31
0.0
  0
LINE
  8
0
  6
CONTINUOUS
 62
     2
 10
447.079218324
 20
1178.978121884
 30
0.0
 11
447.079218324
 21
1156.199155128
 31
0.0
  0
LINE
  8
0
  6
CONTINUOUS
 62
     2
 10
287.626451035
 20
1178.978121884
 30
0.0
 11
287.626451035
 21
1156.199155128
 31
0.0
  0
LINE
  8
0
  6
CONTINUOUS
 62
     2
 10
314.20191225
 20
1178.978121884
 30
0.0
 11
314.20191225
 21
1156.199155128
 31
0.0
  0
LINE
  8
0
  6
CONTINUOUS
 62
     6
 10
433.791487717
 20
1232.683332504
 30
0.0
 11
380.640565287
 21
1232.683332504
 31
0.0
  0
CIRCLE
  8
0
  6
CONTINUOUS
 62
     6
 10
433.791487717
 20
1220.33941042
 30
0.0
 40
4.100214016
  0
LINE
  8
0
  6
CONTINUOUS
 62
     6
 10
433.538027433
 20
1216.144562742
 30
0.0
 11
428.811699663
 21
1216.932284037
 31
0.0
  0
LINE
  8
0
  6
CONTINUOUS
 62
     6
 10
433.791487717
 20
1224.439624436
 30
0.0
 11
433.791487717
 21
1232.683332504
 31
0.0
  0
CIRCLE
  8
0
  6
CONTINUOUS
 62
     6
 10
300.914181642
 20
1220.33941042
 30
0.0
 40
4.100214016
  0
LINE
  8
0
  6
CONTINUOUS
 62
     6
 10
301.167641926
 20
1216.144562742
 30
0.0
 11
305.893969696
 21
1216.932284037
 31
0.0
  0
LINE
  8
0
  6
CONTINUOUS
 62
     6
 10
300.914181642
 20
1224.439624436
 30
0.0
 11
300.914181642
 21
1232.683332504
 31
0.0
  0
LINE
  8
0
  6
CONTINUOUS
 62
     6
 10
354.065104072
 20
1232.683332504
 30
0.0
 11
300.914181642
 21
1232.683332504
 31
0.0
  0
TEXT
  8
0
  6
CONTINUOUS
 62
     6
 10
305.6772152
 20
1237.202473273
 30
0.819
 40
11.7
  1
ＬＳ０１
 50
0.0
 41
0.8
 51
0.0
  7
KANJI46
  0
TEXT
  8
0
  6
CONTINUOUS
 62
     6
 10
388.297398844
 20
1237.202473273
 30
0.819
 40
11.7
  1
ＬＳ０２
 50
0.0
 41
0.8
 51
0.0
  7
KANJI46
  0
TEXT
  8
0
  6
CONTINUOUS
 62
     3
 10
133.488775989
 20
1159.995649587
 30
0.0
 40
15.0
  1
　　　　　　　　　　　　　　　　　　１　　２　　　３　　　４　　　５　　　６
 50
0.0
 41
0.911
 51
0.0
  7
KANJI47
  0
LINE
  8
0
  6
CONTINUOUS
 62
     2
 10
287.626451035
 20
1178.978121884
 30
0.0
 11
447.079218324
 21
1178.978121884
 31
0.0
  0
LINE
  8
0
  6
CONTINUOUS
 62
     2
 10
287.626451035
 20
1156.199155128
 30
0.0
 11
447.079218324
 21
1156.199155128
 31
0.0
  0
TEXT
  8
0
  6
CONTINUOUS
 62
     6
 10
279.312791539
 20
1266.97382165
 30
0.0
 40
17.740702234
  1
推力リミッタ端子台配列
 50
0.0
 41
0.880962996
 51
0.0
  7
KANJI45
  0
TEXT
  8
0
  6
CONTINUOUS
 62
     2
 10
879.2775
 20
1269.325
 30
1.3475
 40
13.475
  1
注意：サーマルリレー等の選定は、上記の値で選定して下さい。
 50
0.0
 41
0.9
 51
0.0
  7
KANJI48
  0
LINE
  8
0
  6
CONTINUOUS
 62
     2
 10
871.5775
 20
1265.475
 30
0.0
 11
1256.1
 21
1265.475
 31
0.0
  0
TEXT
  8
0
  6
CONTINUOUS
 62
     2
 10
1419.5265915
 20
384.460003
 30
5.13
 40
18.0
  1
　　前後の推奨余裕寸法は、各々１０ｍｍです。
 50
0.0
 41
0.857222222
 51
0.0
  7
KANJI30
  0
TEXT
  8
0
  6
CONTINUOUS
 62
     6
 10
381.193715102
 20
1324.121931782
 30
0.0
 40
11.8638
  1
ＡＣ１００Ｖ　１２５Ｖ　２５０Ｖ　－１０Ａ
 50
0.0
 41
0.726495726
 51
0.0
  7
KANJI43
  0
LINE
  8
0
  6
CONTINUOUS
 62
     2
 10
480.183333
 20
192.883315
 30
0.0
 11
487.91073961
 21
190.812762639
 31
0.0
  0
LINE
  8
0
  6
CONTINUOUS
 62
     2
 10
480.183333
 20
192.883315
 30
0.0
 11
487.91073961
 21
194.953867361
 31
0.0
  0
LINE
  8
0
  6
CONTINUOUS
 62
     2
 10
480.183333
 20
192.883315
 30
0.0
 11
617.783333
 21
192.883315
 31
0.0
  0
LINE
  8
0
  6
CONTINUOUS
 62
     2
 10
617.783333
 20
192.883315
 30
0.0
 11
610.05592639
 21
194.953867361
 31
0.0
  0
LINE
  8
0
  6
CONTINUOUS
 62
     2
 10
617.783333
 20
192.883315
 30
0.0
 11
610.05592639
 21
190.812762639
 31
0.0
  0
LINE
  8
0
  6
CONTINUOUS
 62
     2
 10
617.783333
 20
191.683315
 30
0.0
 11
617.783333
 21
188.883315
 31
0.0
  0
LINE
  8
0
  6
CONTINUOUS
 62
     2
 10
617.783333
 20
192.883315
 30
0.0
 11
625.51073961
 21
190.812762639
 31
0.0
  0
LINE
  8
0
  6
CONTINUOUS
 62
     2
 10
617.783333
 20
192.883315
 30
0.0
 11
625.51073961
 21
194.953867361
 31
0.0
  0
LINE
  8
0
  6
CONTINUOUS
 62
     2
 10
617.783333
 20
192.883315
 30
0.0
 11
820.183333
 21
192.883315
 31
0.0
  0
LINE
  8
0
  6
CONTINUOUS
 62
     2
 10
820.183333
 20
192.883315
 30
0.0
 11
812.45592639
 21
194.953867361
 31
0.0
  0
LINE
  8
0
  6
CONTINUOUS
 62
     2
 10
820.183333
 20
192.883315
 30
0.0
 11
812.45592639
 21
190.812762639
 31
0.0
  0
LINE
  8
0
  6
CONTINUOUS
 62
     2
 10
617.783333
 20
166.553867361
 30
0.0
 11
610.05592639
 21
168.624419722
 31
0.0
  0
LINE
  8
0
  6
CONTINUOUS
 62
     2
 10
617.783333
 20
166.553867361
 30
0.0
 11
610.05592639
 21
164.483315
 31
0.0
  0
LINE
  8
0
  6
CONTINUOUS
 62
     2
 10
605.783333
 20
166.553867361
 30
0.0
 11
617.783333
 21
166.553867361
 31
0.0
  0
LINE
  8
0
  6
CONTINUOUS
 62
     2
 10
617.783333
 20
166.553867361
 30
0.0
 11
638.583333
 21
166.553867361
 31
0.0
  0
LINE
  8
0
  6
CONTINUOUS
 62
     2
 10
638.583333
 20
166.553867361
 30
0.0
 11
646.31073961
 21
164.483315
 31
0.0
  0
LINE
  8
0
  6
CONTINUOUS
 62
     2
 10
638.583333
 20
166.553867361
 30
0.0
 11
646.31073961
 21
168.624419722
 31
0.0
  0
LINE
  8
0
  6
CONTINUOUS
 62
     2
 10
480.183333
 20
141.283315
 30
0.0
 11
480.183333
 21
135.283315
 31
0.0
  0
LINE
  8
0
  6
CONTINUOUS
 62
     2
 10
480.183333
 20
139.283315
 30
0.0
 11
487.91073961
 21
137.212762639
 31
0.0
  0
LINE
  8
0
  6
CONTINUOUS
 62
     2
 10
480.183333
 20
139.283315
 30
0.0
 11
487.91073961
 21
141.353867361
 31
0.0
  0
LINE
  8
0
  6
CONTINUOUS
 62
     2
 10
480.183333
 20
139.283315
 30
0.0
 11
638.583333
 21
139.283315
 31
0.0
  0
LINE
  8
0
  6
CONTINUOUS
 62
     2
 10
638.583333
 20
139.283315
 30
0.0
 11
630.85592639
 21
141.353867361
 31
0.0
  0
LINE
  8
0
  6
CONTINUOUS
 62
     2
 10
638.583333
 20
139.283315
 30
0.0
 11
630.85592639
 21
137.212762639
 31
0.0
  0
LINE
  8
0
  6
CONTINUOUS
 62
     2
 10
638.583333
 20
140.483315
 30
0.0
 11
638.583333
 21
135.283315
 31
0.0
  0
LINE
  8
0
  6
CONTINUOUS
 62
     2
 10
638.583333
 20
139.283315
 30
0.0
 11
646.31073961
 21
137.212762639
 31
0.0
  0
LINE
  8
0
  6
CONTINUOUS
 62
     2
 10
638.583333
 20
139.283315
 30
0.0
 11
646.31073961
 21
141.353867361
 31
0.0
  0
LINE
  8
0
  6
CONTINUOUS
 62
     2
 10
820.183333
 20
135.683315
 30
0.0
 11
820.183333
 21
135.283315
 31
0.0
  0
LINE
  8
0
  6
CONTINUOUS
 62
     2
 10
480.183333
 20
110.083315
 30
0.0
 11
487.91073961
 21
108.012762639
 31
0.0
  0
LINE
  8
0
  6
CONTINUOUS
 62
     2
 10
480.183333
 20
110.083315
 30
0.0
 11
487.91073961
 21
112.153867361
 31
0.0
  0
LINE
  8
0
  6
CONTINUOUS
 62
     2
 10
480.183333
 20
110.083315
 30
0.0
 11
797.783333
 21
110.083315
 31
0.0
  0
LINE
  8
0
  6
CONTINUOUS
 62
     2
 10
797.783333
 20
110.083315
 30
0.0
 11
790.05592639
 21
112.153867361
 31
0.0
  0
LINE
  8
0
  6
CONTINUOUS
 62
     2
 10
797.783333
 20
110.083315
 30
0.0
 11
790.05592639
 21
108.012762639
 31
0.0
  0
LINE
  8
0
  6
CONTINUOUS
 62
     2
 10
797.783333
 20
110.883315
 30
0.0
 11
797.783333
 21
106.083315
 31
0.0
  0
LINE
  8
0
  6
CONTINUOUS
 62
     2
 10
797.783333
 20
110.083315
 30
0.0
 11
790.05592639
 21
112.153867361
 31
0.0
  0
LINE
  8
0
  6
CONTINUOUS
 62
     2
 10
797.783333
 20
110.083315
 30
0.0
 11
790.05592639
 21
108.012762639
 31
0.0
  0
LINE
  8
0
  6
CONTINUOUS
 62
     2
 10
785.783333
 20
110.083315
 30
0.0
 11
797.783333
 21
110.083315
 31
0.0
  0
LINE
  8
0
  6
CONTINUOUS
 62
     2
 10
797.783333
 20
110.083315
 30
0.0
 11
820.183333
 21
110.083315
 31
0.0
  0
LINE
  8
0
  6
CONTINUOUS
 62
     2
 10
820.183333
 20
110.083315
 30
0.0
 11
827.91073961
 21
108.012762639
 31
0.0
  0
LINE
  8
0
  6
CONTINUOUS
 62
     2
 10
820.183333
 20
110.083315
 30
0.0
 11
827.91073961
 21
112.153867361
 31
0.0
  0
LINE
  8
0
  6
CONTINUOUS
 62
     2
 10
480.183333
 20
203.683315
 30
0.0
 11
480.183333
 21
188.883315
 31
0.0
  0
LINE
  8
0
  6
CONTINUOUS
 62
     2
 10
820.183333
 20
203.683315
 30
0.0
 11
820.183333
 21
188.883315
 31
0.0
  0
LINE
  8
0
  6
CONTINUOUS
 62
     2
 10
617.783333
 20
192.483315
 30
0.0
 11
617.783333
 21
203.683315
 31
0.0
  0
LINE
  8
0
  6
CONTINUOUS
 62
     2
 10
638.583333
 20
179.353867361
 30
0.0
 11
638.583333
 21
162.553867361
 31
0.0
  0
LINE
  8
0
  6
CONTINUOUS
 62
     2
 10
480.183333
 20
188.883315
 30
0.0
 11
480.183333
 21
96.883315
 31
0.0
  0
LINE
  8
0
  6
CONTINUOUS
 62
     2
 10
820.183333
 20
192.883315
 30
0.0
 11
820.183333
 21
98.083315
 31
0.0
  0
LINE
  8
0
  6
CONTINUOUS
 62
     2
 10
638.583333
 20
166.553867361
 30
0.0
 11
638.583333
 21
130.083315
 31
0.0
  0
LINE
  8
0
  6
CONTINUOUS
 62
     2
 10
617.783333
 20
192.883315
 30
0.0
 11
617.783333
 21
157.283315
 31
0.0
  0
TEXT
  8
0
  6
CONTINUOUS
 62
     3
 10
521.983333
 20
194.883315
 30
0.0
 40
15.0
  1
ｍｉｎ．Ｌ
 50
0.0
 41
0.9
 51
0.0
  7
KANJI26
  0
TEXT
  8
0
  6
CONTINUOUS
 62
     3
 10
675.783333
 20
194.883315
 30
0.0
 40
15.0
  1
機械的ストローク
 50
0.0
 41
0.9
 51
0.0
  7
KANJI26
  0
TEXT
  8
0
  6
CONTINUOUS
 62
     3
 10
650.583333
 20
168.553867361
 30
0.0
 40
15.0
  1
余裕
 50
0.0
 41
0.9
 51
0.0
  7
KANJI26
  0
TEXT
  8
0
  6
CONTINUOUS
 62
     3
 10
532.383333
 20
141.283315
 30
0.0
 40
15.0
  1
常用ｍｉｎ
 50
0.0
 41
0.9
 51
0.0
  7
KANJI26
  0
TEXT
  8
0
  6
CONTINUOUS
 62
     3
 10
611.983333
 20
112.083315
 30
0.0
 40
15.0
  1
常用ｍａｘ
 50
0.0
 41
0.9
 51
0.0
  7
KANJI26
  0
TEXT
  8
0
  6
CONTINUOUS
 62
     3
 10
832.183333
 20
112.083315
 30
0.0
 40
15.0
  1
余裕
 50
0.0
 41
0.9
 51
0.0
  7
KANJI26
  0
LINE
  8
0
  6
CONTINUOUS
 62
     2
 10
638.583333
 20
166.553867361
 30
0.0
 11
678.683333
 21
166.553867361
 31
0.0
  0
LINE
  8
0
  6
CONTINUOUS
 62
     2
 10
820.183333
 20
110.083315
 30
0.0
 11
862.683333
 21
110.083315
 31
0.0
  0
LINE
  8
0
  6
CONTINUOUS
 62
     1
 10
845.1
 20
981.7
 30
0.0
 11
1493.1
 21
981.7
 31
0.0
  0
LINE
  8
0
  6
CONTINUOUS
 62
     1
 10
845.1
 20
1233.7
 30
0.0
 11
845.1
 21
981.7
 31
0.0
  0
LINE
  8
0
  6
CONTINUOUS
 62
     1
 10
1013.1
 20
1233.7
 30
0.0
 11
1013.1
 21
981.7
 31
0.0
  0
LINE
  8
0
  6
CONTINUOUS
 62
     2
 10
1093.1
 20
1233.7
 30
0.0
 11
1093.1
 21
981.7
 31
0.0
  0
LINE
  8
0
  6
CONTINUOUS
 62
     2
 10
1173.1
 20
1233.7
 30
0.0
 11
1173.1
 21
981.7
 31
0.0
  0
LINE
  8
0
  6
CONTINUOUS
 62
     2
 10
1253.1
 20
1233.7
 30
0.0
 11
1253.1
 21
981.7
 31
0.0
  0
LINE
  8
0
  6
CONTINUOUS
 62
     2
 10
1333.1
 20
1233.7
 30
0.0
 11
1333.1
 21
981.7
 31
0.0
  0
LINE
  8
0
  6
CONTINUOUS
 62
     2
 10
1413.1
 20
1233.7
 30
0.0
 11
1413.1
 21
981.7
 31
0.0
  0
LINE
  8
0
  6
CONTINUOUS
 62
     1
 10
1493.1
 20
1233.7
 30
0.0
 11
1493.1
 21
981.7
 31
0.0
  0
TEXT
  8
0
  6
CONTINUOUS
 62
     2
 10
858.1
 20
988.1
 30
0.8
 40
12.0
  1
ＭＤ０３　－　　
 50
0.0
 41
0.833333333
 51
0.0
  7
KANJI23
  0
LINE
  8
0
  6
CONTINUOUS
 62
     2
 10
797.783333
 20
154.083315
 30
0.0
 11
797.783333
 21
97.283315
 31
0.0
  0
LINE
  8
0
  6
CONTINUOUS
 62
     2
 10
638.583333
 20
139.283315
 30
0.0
 11
797.783333
 21
139.283315
 31
0.0
  0
LINE
  8
0
  6
CONTINUOUS
 62
     2
 10
797.783333
 20
139.283315
 30
0.0
 11
790.05592639
 21
141.353867361
 31
0.0
  0
LINE
  8
0
  6
CONTINUOUS
 62
     2
 10
797.783333
 20
139.283315
 30
0.0
 11
790.05592639
 21
137.212762639
 31
0.0
  0
TEXT
  8
0
  6
CONTINUOUS
 62
     3
 10
680.583333
 20
141.283315
 30
0.0
 40
15.0
  1
常用ストローク
 50
0.0
 41
0.9
 51
0.0
  7
KANJI26
  0
LINE
  8
7
  6
CONTINUOUS
 62
     2
 10
1195.351190143
 20
636.633317
 30
0.0
 11
1211.0
 21
636.633317
 31
0.0
  0
TEXT
  8
0
  6
CONTINUOUS
 62
     2
 10
1373.7666945
 20
96.749995
 30
1.5
 40
17.5
  1
０７．０９．２７
 50
0.0
 41
0.571428571
 51
0.0
  7
KANJI49
  0
LINE
  8
0
  6
CONTINUOUS
 62
     1
 10
1561.6
 20
1348.25
 30
0.0
 11
1999.1
 21
1348.25
 31
0.0
  0
TEXT
  8
0
  6
CONTINUOUS
 62
     2
 10
1624.1
 20
1311.75
 30
14.2497
 40
22.5
  1
マイティシリンダ仕様
 50
0.0
 41
0.9
 51
0.0
  7
KANJI50
  0
LINE
  8
0
  6
CONTINUOUS
 62
     2
 10
1561.6
 20
738.25
 30
0.0
 11
1999.1
 21
738.25
 31
0.0
  0
LINE
  8
0
  6
CONTINUOUS
 62
     2
 10
1561.6
 20
703.25
 30
0.0
 11
1999.1
 21
703.25
 31
0.0
  0
LINE
  8
0
  6
CONTINUOUS
 62
     2
 10
1601.6
 20
773.25
 30
0.0
 11
1999.1
 21
773.25
 31
0.0
  0
LINE
  8
0
  6
CONTINUOUS
 62
     2
 10
1601.6
 20
1018.25
 30
0.0
 11
1601.6
 21
738.25
 31
0.0
  0
LINE
  8
0
  6
CONTINUOUS
 62
     2
 10
1601.6
 20
878.25
 30
0.0
 11
1999.1
 21
878.25
 31
0.0
  0
LINE
  8
0
  6
CONTINUOUS
 62
     2
 10
1601.6
 20
913.25
 30
0.0
 11
1999.1
 21
913.25
 31
0.0
  0
LINE
  8
0
  6
CONTINUOUS
 62
     2
 10
1561.6
 20
1088.25
 30
0.0
 11
1999.1
 21
1088.25
 31
0.0
  0
LINE
  8
0
  6
CONTINUOUS
 62
     2
 10
1561.6
 20
1053.25
 30
0.0
 11
1999.1
 21
1053.25
 31
0.0
  0
LINE
  8
0
  6
CONTINUOUS
 62
     2
 10
1561.6
 20
1018.25
 30
0.0
 11
1999.1
 21
1018.25
 31
0.0
  0
LINE
  8
0
  6
CONTINUOUS
 62
     2
 10
1601.6
 20
948.25
 30
0.0
 11
1999.1
 21
948.25
 31
0.0
  0
LINE
  8
0
  6
CONTINUOUS
 62
     2
 10
1601.6
 20
983.25
 30
0.0
 11
1999.1
 21
983.25
 31
0.0
  0
LINE
  8
0
  6
CONTINUOUS
 62
     2
 10
1561.6
 20
1263.25
 30
0.0
 11
1999.1
 21
1263.25
 31
0.0
  0
LINE
  8
0
  6
CONTINUOUS
 62
     2
 10
1561.6
 20
1228.25
 30
0.0
 11
1999.1
 21
1228.25
 31
0.0
  0
LINE
  8
0
  6
CONTINUOUS
 62
     2
 10
1561.6
 20
1193.25
 30
0.0
 11
1999.1
 21
1193.25
 31
0.0
  0
LINE
  8
0
  6
CONTINUOUS
 62
     2
 10
1561.6
 20
1158.25
 30
0.0
 11
1999.1
 21
1158.25
 31
0.0
  0
LINE
  8
0
  6
CONTINUOUS
 62
     2
 10
1561.6
 20
1123.25
 30
0.0
 11
1999.1
 21
1123.25
 31
0.0
  0
LINE
  8
0
  6
CONTINUOUS
 62
     2
 10
1561.6
 20
1298.25
 30
0.0
 11
1999.1
 21
1298.25
 31
0.0
  0
TEXT
  8
0
  6
CONTINUOUS
 62
     2
 10
1624.1
 20
957.25
 30
27.866485714
 40
19.0
  1
電源電圧
 50
0.0
 41
0.9
 51
0.0
  7
KANJI51
  0
TEXT
  8
0
  6
CONTINUOUS
 62
     2
 10
1624.1
 20
922.25
 30
50.35
 40
19.0
  1
周波数
 50
0.0
 41
0.9
 51
0.0
  7
KANJI52
  0
TEXT
  8
0
  6
CONTINUOUS
 62
     2
 10
1624.1
 20
887.25
 30
117.8
 40
19.0
  1
電流
 50
0.0
 41
0.9
 51
0.0
  7
KANJI53
  0
TEXT
  8
0
  6
CONTINUOUS
 62
     2
 10
1624.1
 20
852.25
 30
50.35
 40
19.0
  1
絶縁級
 50
0.0
 41
0.9
 51
0.0
  7
KANJI52
  0
TEXT
  8
0
  6
CONTINUOUS
 62
     2
 10
1589.1
 20
1272.25
 30
150.371428571
 40
19.0
  1
形式
 50
0.0
 41
0.9
 51
0.0
  7
KANJI54
  0
TEXT
  8
0
  6
CONTINUOUS
 62
     2
 10
1589.1
 20
1237.25
 30
150.371428571
 40
19.0
  1
推力
 50
0.0
 41
0.9
 51
0.0
  7
KANJI54
  0
TEXT
  8
0
  6
CONTINUOUS
 62
     2
 10
1589.1
 20
1202.25
 30
24.767857143
 40
19.0
  1
ストローク
 50
0.0
 41
0.9
 51
0.0
  7
KANJI55
  0
TEXT
  8
0
  6
CONTINUOUS
 62
     2
 10
1589.1
 20
1097.25
 30
150.371428571
 40
19.0
  1
構造
 50
0.0
 41
0.9
 51
0.0
  7
KANJI54
  0
TEXT
  8
0
  6
CONTINUOUS
 62
     2
 10
1589.1
 20
1062.25
 30
10.811542857
 40
19.0
  1
過負荷安全装置
 50
0.0
 41
0.9
 51
0.0
  7
KANJI56
  0
TEXT
  8
0
  6
CONTINUOUS
 62
     2
 10
1589.1
 20
1027.25
 30
66.635714286
 40
19.0
  1
塗装色
 50
0.0
 41
0.9
 51
0.0
  7
KANJI57
  0
TEXT
  8
0
  6
CONTINUOUS
 62
     2
 10
1569.1
 20
1132.25
 30
1.628571429
 40
19.0
  1
ピストンロッド回転トルク
 50
0.0
 41
0.9
 51
0.0
  7
KANJI58
  0
TEXT
  8
0
  6
CONTINUOUS
 62
     2
 10
1589.1
 20
712.25
 30
66.635714286
 40
19.0
  1
付属品
 50
0.0
 41
0.9
 51
0.0
  7
KANJI57
  0
TEXT
  8
0
  6
CONTINUOUS
 62
     2
 10
1589.1
 20
677.25
 30
150.371428571
 40
19.0
  1
台数
 50
0.0
 41
0.9
 51
0.0
  7
KANJI54
  0
LINE
  8
0
  6
CONTINUOUS
 62
     2
 10
1561.6
 20
843.25
 30
0.0
 11
1999.1
 21
843.25
 31
0.0
  0
LINE
  8
0
  6
CONTINUOUS
 62
     2
 10
1601.6
 20
808.25
 30
0.0
 11
1999.1
 21
808.25
 31
0.0
  0
TEXT
  8
0
  6
CONTINUOUS
 62
     2
 10
1581.975
 20
1013.25
 30
11.0
 40
17.5
  1
モ　トル仕様
 50
0.0
 41
0.9
 51
0.0
  7
KANJI59
  0
TEXT
  8
0
  6
CONTINUOUS
 62
     2
 10
1581.975
 20
828.25
 30
1.0
 40
17.5
  1
ブレ　キ
 50
0.0
 41
0.9
 51
0.0
  7
KANJI60
  0
LINE
  8
0
  6
CONTINUOUS
 62
     2
 10
1580.6
 20
786.75
 30
0.0
 11
1580.6
 21
776.25
 31
0.0
  0
TEXT
  8
0
  6
CONTINUOUS
 62
     2
 10
1840.35
 20
1063.25
 30
7.5
 40
17.5
  1
推力リミッタ
 50
0.0
 41
0.9
 51
0.0
  7
KANJI61
  0
TEXT
  8
0
  6
CONTINUOUS
 62
     2
 10
1887.85
 20
853.25
 30
1.5
 40
15.0
  1
Ｅ
 50
0.0
 41
0.9
 51
0.0
  7
KANJI62
  0
TEXT
  8
0
  6
CONTINUOUS
 62
     2
 10
1851.6
 20
782.25
 30
10.0
 40
17.5
  1
同時切り
 50
0.0
 41
0.9
 51
0.0
  7
KANJI63
  0
TEXT
  8
0
  6
CONTINUOUS
 62
     2
 10
1624.1
 20
817.25
 30
117.8
 40
19.0
  1
形式
 50
0.0
 41
0.9
 51
0.0
  7
KANJI53
  0
TEXT
  8
0
  6
CONTINUOUS
 62
     2
 10
1624.1
 20
782.25
 30
27.866485714
 40
19.0
  1
操作方式
 50
0.0
 41
0.9
 51
0.0
  7
KANJI51
  0
LINE
  8
0
  6
CONTINUOUS
 62
     2
 10
1580.6
 20
982.75
 30
0.0
 11
1580.6
 21
971.25
 31
0.0
  0
TEXT
  8
0
  6
CONTINUOUS
 62
     2
 10
1624.1
 20
992.25
 30
2.5
 40
19.0
  1
出力　相数　極数
 50
0.0
 41
0.9
 51
0.0
  7
KANJI64
  0
TEXT
  8
0
  6
CONTINUOUS
 62
     2
 10
1589.1
 20
1167.25
 30
10.0
 40
19.0
  1
公称速度
 50
0.0
 41
0.9
 51
0.0
  7
KANJI65
  0
TEXT
  8
0
  6
CONTINUOUS
 62
     2
 10
1692.35
 20
1166.25
 30
0.0
 40
17.5
  1
（５０／６０Ｈｚ）
 50
0.0
 41
0.628571429
 51
0.0
  7
KANJI66
  0
TEXT
  8
0
  6
CONTINUOUS
 62
     2
 10
1792.85
 20
817.625
 30
2.75
 40
17.0
  1
スプリング制動式電磁ブレーキ
 50
0.0
 41
0.705882353
 51
0.0
  7
KANJI67
  0
TEXT
  8
0
  6
CONTINUOUS
 62
     2
 10
1975.35
 20
957.25
 30
0.18
 40
15.0
  1
Ｖ
 50
0.0
 41
0.8
 51
0.0
  7
KANJI68
  0
TEXT
  8
0
  6
CONTINUOUS
 62
     2
 10
1966.35
 20
922.25
 30
0.18
 40
15.0
  1
Ｈｚ
 50
0.0
 41
0.8
 51
0.0
  7
KANJI68
  0
TEXT
  8
0
  6
CONTINUOUS
 62
     2
 10
1975.35
 20
887.25
 30
0.18
 40
15.0
  1
Ａ
 50
0.0
 41
0.8
 51
0.0
  7
KANJI68
  0
TEXT
  8
0
  6
CONTINUOUS
 62
     2
 10
1909.6
 20
993.25
 30
1.5
 40
15.0
  1
３φ
 50
0.0
 41
0.9
 51
0.0
  7
KANJI62
  0
TEXT
  8
0
  6
CONTINUOUS
 62
     2
 10
1959.6
 20
993.25
 30
1.5
 40
15.0
  1
４Ｐ
 50
0.0
 41
0.9
 51
0.0
  7
KANJI62
  0
TEXT
  8
0
  6
CONTINUOUS
 62
     2
 10
1791.6
 20
1028.25
 30
1.0
 40
16.0
  1
マンセル　７．５ＧＹ　５／４．５
 50
0.0
 41
0.71875
 51
0.0
  7
KANJI69
  0
TEXT
  8
0
  6
CONTINUOUS
 62
     2
 10
1791.6
 20
958.25
 30
1.5
 40
15.0
  1
　　　　　　　／　　　
 50
0.0
 41
0.9
 51
0.0
  7
KANJI62
  0
TEXT
  8
0
  6
CONTINUOUS
 62
     2
 10
1791.6
 20
923.25
 30
1.5
 40
15.0
  1
　　　　５０／　６０
 50
0.0
 41
0.9
 51
0.0
  7
KANJI62
  0
TEXT
  8
0
  6
CONTINUOUS
 62
     2
 10
1791.6
 20
888.25
 30
1.5
 40
15.0
  1
　　　　　　　／　　　
 50
0.0
 41
0.9
 51
0.0
  7
KANJI62
  0
TEXT
  8
0
  6
CONTINUOUS
 62
     2
 10
1962.1
 20
1204.25
 30
0.128
 40
16.0
  1
ｍｍ
 50
0.0
 41
0.8
 51
0.0
  7
KANJI70
  0
TEXT
  8
0
  6
CONTINUOUS
 62
     2
 10
1789.1
 20
1168.25
 30
1.5
 40
15.0
  1
　９．７／１１．６
 50
0.0
 41
0.9
 51
0.0
  7
KANJI62
  0
TEXT
  8
0
  6
CONTINUOUS
 62
     2
 10
1796.6
 20
993.25
 30
1.5
 40
15.0
  1
　０．３ＫＷ
 50
0.0
 41
0.9
 51
0.0
  7
KANJI62
  0
TEXT
  8
0
  6
CONTINUOUS
 62
     2
 10
1840.35
 20
1098.25
 30
7.5
 40
17.5
  1
全閉屋内形
 50
0.0
 41
0.9
 51
0.0
  7
KANJI61
  0
TEXT
  8
0
  6
CONTINUOUS
 62
     2
 10
1802.85
 20
1271.5
 30
1.0
 40
15.0
  1
ＭＤ０３－　
 50
0.0
 41
0.833333333
 51
0.0
  7
KANJI71
  0
TEXT
  8
0
  6
CONTINUOUS
 62
     2
 10
1816.1
 20
1238.25
 30
1.5
 40
15.0
  1
２９４０Ｎ（３００ｋｇ）
 50
0.0
 41
0.9
 51
0.0
  7
KANJI62
  0
LINE
  8
0
  6
CONTINUOUS
 62
     1
 10
1561.6
 20
633.25
 30
0.0
 11
1999.1
 21
633.25
 31
0.0
  0
TEXT
  8
0
  6
CONTINUOUS
 62
     2
 10
1588.1
 20
642.25
 30
5.0
 40
17.5
  1
概算重量（１台当り）
 50
0.0
 41
0.857142857
 51
0.0
  7
KANJI22
  0
TEXT
  8
0
  6
CONTINUOUS
 62
     2
 10
1953.1
 20
643.4
 30
0.0
 40
17.5
  1
ｋｇ
 50
0.0
 41
0.9
 51
0.0
  7
KANJI72
  0
LINE
  8
0
  6
CONTINUOUS
 62
     2
 10
1561.6
 20
668.25
 30
0.0
 11
1999.1
 21
668.25
 31
0.0
  0
TEXT
  8
0
  6
CONTINUOUS
 62
     2
 10
1808.725
 20
1132.125
 30
0.0
 40
15.0
  1
８．３Ｎ・ｍ（０．８５ｋｇ・ｍ）
 50
0.0
 41
0.766666667
 51
0.0
  7
KANJI73
  0
LINE
  8
0
  6
CONTINUOUS
 62
     1
 10
1561.6
 20
1348.25
 30
0.0
 11
1561.6
 21
633.25
 31
0.0
  0
LINE
  8
0
  6
CONTINUOUS
 62
     2
 10
1791.6
 20
1298.25
 30
0.0
 11
1791.6
 21
633.25
 31
0.0
  0
LINE
  8
0
  6
CONTINUOUS
 62
     1
 10
1999.1
 20
1348.25
 30
0.0
 11
1999.1
 21
633.25
 31
0.0
  0
TEXT
  8
0
  6
CONTINUOUS
 62
     2
 10
1930.6
 20
1167.75
 30
0.0
 40
17.5
  1
ｍｍ／ｓｅｃ
 50
0.0
 41
0.571428571
 51
0.0
  7
KANJI74
  0
TEXT
  8
7
  6
CONTINUOUS
 62
     2
 10
811.933333
 20
584.633317
 30
0.0
 40
15.0
  1
２５
 50
0.0
 41
0.9
 51
0.0
  7
KANJI26
  0
TEXT
  8
7
  6
CONTINUOUS
 62
     2
 10
768.933333
 20
415.633317
 30
-2.5
 40
15.0
  1
ｍｉｎ
 50
0.0
 41
0.9
 51
0.0
  7
KANJI75
  0
ENDSEC
  0
EOF
