  0
SECTION
  2
HEADER
  9
$ACADVER
  1
AC1009
  9
$DWGCODEPAGE
  3
dos932
  9
$EXTMIN
 10
0.0
 20
0.0
 30
0.0
  9
$EXTMAX
 10
2100.0
 20
1485.0
 30
0.0
  9
$LIMMIN
 10
0.0
 20
0.0
  9
$LIMMAX
 10
2100.0
 20
1485.0
  9
$LTSCALE
 40
1.0
  9
$PDMODE
 70
     0
  0
ENDSEC
  0
SECTION
  2
TABLES
  0
TABLE
  2
VPORT
 70
     1
  0
VPORT
  2
*ACTIVE
 70
     0
 10
0.0
 20
0.0
 11
1.0
 21
1.0
 12
1050.0
 22
742.5
 13
0.0
 23
0.0
 14
10.0
 24
10.0
 15
10.0
 25
10.0
 16
0.0
 26
0.0
 36
1.0
 17
0.0
 27
0.0
 37
0.0
 40
2100.0
 41
1.414141414
 42
50.0
 43
0.0
 44
0.0
 50
0.0
 51
0.0
 71
     0
 72
  1000
 73
     1
 74
     3
 75
     0
 76
     0
 77
     0
 78
     0
  0
ENDTAB
  0
TABLE
  2
LTYPE
 70
     6
  0
LTYPE
  2
CONTINUOUS
 70
    64
  3
Solid line
 72
    65
 73
     0
 40
0.0
  0
LTYPE
  2
LTYPE1
 70
    64
  3
HIDDEN
 72
    65
 73
     2
 40
15.0
 49
9.0
 49
-6.0
  0
LTYPE
  2
LTYPE2
 70
    64
  3
CENTER
 72
    65
 73
     4
 40
75.0
 49
52.5
 49
-7.5
 49
7.5
 49
-7.5
  0
LTYPE
  2
LTYPE3
 70
    64
  3
CENTER
 72
    65
 73
     4
 40
50.0
 49
35.0
 49
-5.0
 49
5.0
 49
-5.0
  0
LTYPE
  2
LTYPE4
 70
    64
  3
CENTER
 72
    65
 73
     4
 40
45.0
 49
31.5
 49
-4.5
 49
4.5
 49
-4.5
  0
LTYPE
  2
LTYPE5
 70
    64
  3
PHANTOM
 72
    65
 73
     6
 40
50.0
 49
37.5
 49
-2.5
 49
2.5
 49
-2.5
 49
2.5
 49
-2.5
  0
ENDTAB
  0
TABLE
  2
LAYER
 70
   128
  0
LAYER
  2
0
 70
     0
 62
     7
  6
CONTINUOUS
  0
LAYER
  2
2
 70
     0
 62
     7
  6
CONTINUOUS
  0
LAYER
  2
3
 70
     0
 62
     7
  6
CONTINUOUS
  0
LAYER
  2
4
 70
     0
 62
     7
  6
CONTINUOUS
  0
LAYER
  2
5
 70
     0
 62
     7
  6
CONTINUOUS
  0
LAYER
  2
6
 70
     0
 62
     7
  6
CONTINUOUS
  0
LAYER
  2
7
 70
     0
 62
     7
  6
CONTINUOUS
  0
LAYER
  2
8
 70
     0
 62
     7
  6
CONTINUOUS
  0
LAYER
  2
9
 70
     0
 62
     7
  6
CONTINUOUS
  0
LAYER
  2
10
 70
     0
 62
     7
  6
CONTINUOUS
  0
LAYER
  2
11
 70
     0
 62
     7
  6
CONTINUOUS
  0
LAYER
  2
12
 70
     0
 62
     7
  6
CONTINUOUS
  0
LAYER
  2
13
 70
     0
 62
     7
  6
CONTINUOUS
  0
LAYER
  2
14
 70
     0
 62
     7
  6
CONTINUOUS
  0
LAYER
  2
15
 70
     0
 62
     7
  6
CONTINUOUS
  0
LAYER
  2
16
 70
     0
 62
     7
  6
CONTINUOUS
  0
LAYER
  2
17
 70
     0
 62
     7
  6
CONTINUOUS
  0
LAYER
  2
18
 70
     0
 62
     7
  6
CONTINUOUS
  0
LAYER
  2
19
 70
     0
 62
     7
  6
CONTINUOUS
  0
LAYER
  2
20
 70
     0
 62
     7
  6
CONTINUOUS
  0
LAYER
  2
21
 70
     0
 62
     7
  6
CONTINUOUS
  0
LAYER
  2
22
 70
     0
 62
     7
  6
CONTINUOUS
  0
LAYER
  2
23
 70
     0
 62
     7
  6
CONTINUOUS
  0
LAYER
  2
24
 70
     0
 62
     7
  6
CONTINUOUS
  0
LAYER
  2
25
 70
     0
 62
     7
  6
CONTINUOUS
  0
LAYER
  2
26
 70
     0
 62
     7
  6
CONTINUOUS
  0
LAYER
  2
27
 70
     0
 62
     7
  6
CONTINUOUS
  0
LAYER
  2
28
 70
     0
 62
     7
  6
CONTINUOUS
  0
LAYER
  2
29
 70
     0
 62
     7
  6
CONTINUOUS
  0
LAYER
  2
30
 70
     0
 62
     7
  6
CONTINUOUS
  0
LAYER
  2
31
 70
     0
 62
     7
  6
CONTINUOUS
  0
LAYER
  2
32
 70
     0
 62
     7
  6
CONTINUOUS
  0
LAYER
  2
33
 70
     0
 62
     7
  6
CONTINUOUS
  0
LAYER
  2
34
 70
     0
 62
     7
  6
CONTINUOUS
  0
LAYER
  2
35
 70
     0
 62
     7
  6
CONTINUOUS
  0
LAYER
  2
36
 70
     0
 62
     7
  6
CONTINUOUS
  0
LAYER
  2
37
 70
     0
 62
     7
  6
CONTINUOUS
  0
LAYER
  2
38
 70
     0
 62
     7
  6
CONTINUOUS
  0
LAYER
  2
39
 70
     0
 62
     7
  6
CONTINUOUS
  0
LAYER
  2
40
 70
     0
 62
     7
  6
CONTINUOUS
  0
LAYER
  2
41
 70
     0
 62
     7
  6
CONTINUOUS
  0
LAYER
  2
42
 70
     0
 62
     7
  6
CONTINUOUS
  0
LAYER
  2
43
 70
     0
 62
     7
  6
CONTINUOUS
  0
LAYER
  2
44
 70
     0
 62
     7
  6
CONTINUOUS
  0
LAYER
  2
45
 70
     0
 62
     7
  6
CONTINUOUS
  0
LAYER
  2
46
 70
     0
 62
     7
  6
CONTINUOUS
  0
LAYER
  2
47
 70
     0
 62
     7
  6
CONTINUOUS
  0
LAYER
  2
48
 70
     0
 62
     7
  6
CONTINUOUS
  0
LAYER
  2
49
 70
     0
 62
     7
  6
CONTINUOUS
  0
LAYER
  2
50
 70
     0
 62
     7
  6
CONTINUOUS
  0
LAYER
  2
51
 70
     0
 62
     7
  6
CONTINUOUS
  0
LAYER
  2
52
 70
     0
 62
     7
  6
CONTINUOUS
  0
LAYER
  2
53
 70
     0
 62
     7
  6
CONTINUOUS
  0
LAYER
  2
54
 70
     0
 62
     7
  6
CONTINUOUS
  0
LAYER
  2
55
 70
     0
 62
     7
  6
CONTINUOUS
  0
LAYER
  2
56
 70
     0
 62
     7
  6
CONTINUOUS
  0
LAYER
  2
57
 70
     0
 62
     7
  6
CONTINUOUS
  0
LAYER
  2
58
 70
     0
 62
     7
  6
CONTINUOUS
  0
LAYER
  2
59
 70
     0
 62
     7
  6
CONTINUOUS
  0
LAYER
  2
60
 70
     0
 62
     7
  6
CONTINUOUS
  0
LAYER
  2
61
 70
     0
 62
     7
  6
CONTINUOUS
  0
LAYER
  2
62
 70
     0
 62
     7
  6
CONTINUOUS
  0
LAYER
  2
63
 70
     0
 62
     7
  6
CONTINUOUS
  0
LAYER
  2
64
 70
     0
 62
     7
  6
CONTINUOUS
  0
LAYER
  2
65
 70
     0
 62
     7
  6
CONTINUOUS
  0
LAYER
  2
66
 70
     0
 62
     7
  6
CONTINUOUS
  0
LAYER
  2
67
 70
     0
 62
     7
  6
CONTINUOUS
  0
LAYER
  2
68
 70
     0
 62
     7
  6
CONTINUOUS
  0
LAYER
  2
69
 70
     0
 62
     7
  6
CONTINUOUS
  0
LAYER
  2
70
 70
     0
 62
     7
  6
CONTINUOUS
  0
LAYER
  2
71
 70
     0
 62
     7
  6
CONTINUOUS
  0
LAYER
  2
72
 70
     0
 62
     7
  6
CONTINUOUS
  0
LAYER
  2
73
 70
     0
 62
     7
  6
CONTINUOUS
  0
LAYER
  2
74
 70
     0
 62
     7
  6
CONTINUOUS
  0
LAYER
  2
75
 70
     0
 62
     7
  6
CONTINUOUS
  0
LAYER
  2
76
 70
     0
 62
     7
  6
CONTINUOUS
  0
LAYER
  2
77
 70
     0
 62
     7
  6
CONTINUOUS
  0
LAYER
  2
78
 70
     0
 62
     7
  6
CONTINUOUS
  0
LAYER
  2
79
 70
     0
 62
     7
  6
CONTINUOUS
  0
LAYER
  2
80
 70
     0
 62
     7
  6
CONTINUOUS
  0
LAYER
  2
81
 70
     0
 62
     7
  6
CONTINUOUS
  0
LAYER
  2
82
 70
     0
 62
     7
  6
CONTINUOUS
  0
LAYER
  2
83
 70
     0
 62
     7
  6
CONTINUOUS
  0
LAYER
  2
84
 70
     0
 62
     7
  6
CONTINUOUS
  0
LAYER
  2
85
 70
     0
 62
     7
  6
CONTINUOUS
  0
LAYER
  2
86
 70
     0
 62
     7
  6
CONTINUOUS
  0
LAYER
  2
87
 70
     0
 62
     7
  6
CONTINUOUS
  0
LAYER
  2
88
 70
     0
 62
     7
  6
CONTINUOUS
  0
LAYER
  2
89
 70
     0
 62
     7
  6
CONTINUOUS
  0
LAYER
  2
90
 70
     0
 62
     7
  6
CONTINUOUS
  0
LAYER
  2
91
 70
     0
 62
     7
  6
CONTINUOUS
  0
LAYER
  2
92
 70
     0
 62
     7
  6
CONTINUOUS
  0
LAYER
  2
93
 70
     0
 62
     7
  6
CONTINUOUS
  0
LAYER
  2
94
 70
     0
 62
     7
  6
CONTINUOUS
  0
LAYER
  2
95
 70
     0
 62
     7
  6
CONTINUOUS
  0
LAYER
  2
96
 70
     0
 62
     7
  6
CONTINUOUS
  0
LAYER
  2
97
 70
     0
 62
     7
  6
CONTINUOUS
  0
LAYER
  2
98
 70
     0
 62
     7
  6
CONTINUOUS
  0
LAYER
  2
99
 70
     0
 62
     7
  6
CONTINUOUS
  0
LAYER
  2
100
 70
     0
 62
     7
  6
CONTINUOUS
  0
LAYER
  2
101
 70
     0
 62
     7
  6
CONTINUOUS
  0
LAYER
  2
102
 70
     0
 62
     7
  6
CONTINUOUS
  0
LAYER
  2
103
 70
     0
 62
     7
  6
CONTINUOUS
  0
LAYER
  2
104
 70
     0
 62
     7
  6
CONTINUOUS
  0
LAYER
  2
105
 70
     0
 62
     7
  6
CONTINUOUS
  0
LAYER
  2
106
 70
     0
 62
     7
  6
CONTINUOUS
  0
LAYER
  2
107
 70
     0
 62
     7
  6
CONTINUOUS
  0
LAYER
  2
108
 70
     0
 62
     7
  6
CONTINUOUS
  0
LAYER
  2
109
 70
     0
 62
     7
  6
CONTINUOUS
  0
LAYER
  2
110
 70
     0
 62
     7
  6
CONTINUOUS
  0
LAYER
  2
111
 70
     0
 62
     7
  6
CONTINUOUS
  0
LAYER
  2
112
 70
     0
 62
     7
  6
CONTINUOUS
  0
LAYER
  2
113
 70
     0
 62
     7
  6
CONTINUOUS
  0
LAYER
  2
114
 70
     0
 62
     7
  6
CONTINUOUS
  0
LAYER
  2
115
 70
     0
 62
     7
  6
CONTINUOUS
  0
LAYER
  2
116
 70
     0
 62
     7
  6
CONTINUOUS
  0
LAYER
  2
117
 70
     0
 62
     7
  6
CONTINUOUS
  0
LAYER
  2
118
 70
     0
 62
     7
  6
CONTINUOUS
  0
LAYER
  2
119
 70
     0
 62
     7
  6
CONTINUOUS
  0
LAYER
  2
120
 70
     0
 62
     7
  6
CONTINUOUS
  0
LAYER
  2
121
 70
     0
 62
     7
  6
CONTINUOUS
  0
LAYER
  2
122
 70
     0
 62
     7
  6
CONTINUOUS
  0
LAYER
  2
123
 70
     0
 62
     7
  6
CONTINUOUS
  0
LAYER
  2
124
 70
     0
 62
     7
  6
CONTINUOUS
  0
LAYER
  2
125
 70
     0
 62
     7
  6
CONTINUOUS
  0
LAYER
  2
126
 70
     0
 62
     7
  6
CONTINUOUS
  0
LAYER
  2
127
 70
     0
 62
     7
  6
CONTINUOUS
  0
LAYER
  2
128
 70
     0
 62
     7
  6
CONTINUOUS
  0
ENDTAB
  0
TABLE
  2
STYLE
 70
    77
  0
STYLE
  2
STANDARD
 70
     0
 40
0.0
 41
1.0
 50
0.0
 71
     0
 42
0.2
  3
txt.shx
  4
extfont.shx
  0
STYLE
  2
KANJI0
 70
     0
 40
9.999997897
 41
0.6
 50
0.0
 71
     0
 42
9.999997897
  3
txt.shx
  4
extfont.shx
  0
STYLE
  2
KANJI1
 70
     0
 40
11.999997477
 41
0.9
 50
0.0
 71
     0
 42
11.999997477
  3
txt.shx
  4
extfont.shx
  0
STYLE
  2
KANJI2
 70
     0
 40
14.999996846
 41
0.9
 50
0.0
 71
     0
 42
14.999996846
  3
txt.shx
  4
extfont.shx
  0
STYLE
  2
KANJI3
 70
     0
 40
8.666666
 41
0.6
 50
0.0
 71
     0
 42
8.666666
  3
txt.shx
  4
extfont.shx
  0
STYLE
  2
KANJI4
 70
     0
 40
10.3999992
 41
0.6
 50
0.0
 71
     0
 42
10.3999992
  3
txt.shx
  4
extfont.shx
  0
STYLE
  2
KANJI5
 70
     0
 40
18.0
 41
1.111111111
 50
0.0
 71
     0
 42
18.0
  3
txt.shx
  4
extfont.shx
  0
STYLE
  2
KANJI6
 70
     0
 40
8.666666
 41
0.8
 50
0.0
 71
     0
 42
8.666666
  3
txt.shx
  4
extfont.shx
  0
STYLE
  2
KANJI7
 70
     0
 40
10.3999992
 41
0.8
 50
0.0
 71
     0
 42
10.3999992
  3
txt.shx
  4
extfont.shx
  0
STYLE
  2
KANJI8
 70
     0
 40
15.1666655
 41
0.42031746
 50
0.0
 71
     0
 42
15.1666655
  3
txt.shx
  4
extfont.shx
  0
STYLE
  2
KANJI9
 70
     0
 40
25.999998
 41
0.9
 50
0.0
 71
     0
 42
25.999998
  3
txt.shx
  4
extfont.shx
  0
STYLE
  2
KANJI10
 70
     0
 40
25.0
 41
1.0
 50
0.0
 71
     0
 42
25.0
  3
txt.shx
  4
extfont.shx
  0
STYLE
  2
KANJI11
 70
     0
 40
25.0
 41
1.0
 50
0.0
 71
     0
 42
25.0
  3
txt.shx
  4
extfont.shx
  0
STYLE
  2
KANJI12
 70
     0
 40
25.0
 41
0.8
 50
0.0
 71
     0
 42
25.0
  3
txt.shx
  4
extfont.shx
  0
STYLE
  2
KANJI13
 70
     0
 40
20.0
 41
1.0
 50
0.0
 71
     0
 42
20.0
  3
txt.shx
  4
extfont.shx
  0
STYLE
  2
KANJI14
 70
     0
 40
17.5
 41
0.857142857
 50
0.0
 71
     0
 42
17.5
  3
txt.shx
  4
extfont.shx
  0
STYLE
  2
KANJI15
 70
     0
 40
22.5
 41
0.666666667
 50
0.0
 71
     0
 42
22.5
  3
txt.shx
  4
extfont.shx
  0
STYLE
  2
KANJI16
 70
     0
 40
12.999999
 41
0.75
 50
0.0
 71
     0
 42
12.999999
  3
txt.shx
  4
extfont.shx
  0
STYLE
  2
KANJI17
 70
     0
 40
12.8
 41
0.9
 50
0.0
 71
     0
 42
12.8
  3
txt.shx
  4
extfont.shx
  0
STYLE
  2
KANJI18
 70
     0
 40
12.0
 41
0.9
 50
0.0
 71
     0
 42
12.0
  3
txt.shx
  4
extfont.shx
  0
STYLE
  2
KANJI19
 70
     0
 40
12.0
 41
0.9
 50
0.0
 71
     0
 42
12.0
  3
txt.shx
  4
extfont.shx
  0
STYLE
  2
KANJI20
 70
     0
 40
14.0
 41
0.9
 50
0.0
 71
     0
 42
14.0
  3
txt.shx
  4
extfont.shx
  0
STYLE
  2
KANJI21
 70
     0
 40
10.8
 41
0.740740741
 50
0.0
 71
     0
 42
10.8
  3
txt.shx
  4
extfont.shx
  0
STYLE
  2
KANJI22
 70
     0
 40
14.0
 41
0.857142857
 50
0.0
 71
     0
 42
14.0
  3
txt.shx
  4
extfont.shx
  0
STYLE
  2
KANJI23
 70
     0
 40
15.0
 41
0.9
 50
0.0
 71
     0
 42
15.0
  3
txt.shx
  4
extfont.shx
  0
STYLE
  2
KANJI24
 70
     0
 40
11.55
 41
0.9
 50
0.0
 71
     0
 42
11.55
  3
txt.shx
  4
extfont.shx
  0
STYLE
  2
KANJI25
 70
     0
 40
17.5
 41
0.793650794
 50
0.0
 71
     0
 42
17.5
  3
txt.shx
  4
extfont.shx
  0
STYLE
  2
KANJI26
 70
     0
 40
25.0
 41
0.8
 50
0.0
 71
     0
 42
25.0
  3
txt.shx
  4
extfont.shx
  0
STYLE
  2
KANJI27
 70
     0
 40
12.0
 41
0.833333333
 50
0.0
 71
     0
 42
12.0
  3
txt.shx
  4
extfont.shx
  0
STYLE
  2
KANJI28
 70
     0
 40
14.192561787
 41
0.880962996
 50
0.0
 71
     0
 42
14.192561787
  3
txt.shx
  4
extfont.shx
  0
STYLE
  2
KANJI29
 70
     0
 40
9.36
 41
0.8
 50
0.0
 71
     0
 42
9.36
  3
txt.shx
  4
extfont.shx
  0
STYLE
  2
KANJI30
 70
     0
 40
11.9808
 41
0.9125
 50
0.0
 71
     0
 42
11.9808
  3
txt.shx
  4
extfont.shx
  0
STYLE
  2
KANJI31
 70
     0
 40
12.0
 41
0.911
 50
0.0
 71
     0
 42
12.0
  3
txt.shx
  4
extfont.shx
  0
STYLE
  2
KANJI32
 70
     0
 40
11.661
 41
0.943315325
 50
0.0
 71
     0
 42
11.661
  3
txt.shx
  4
extfont.shx
  0
STYLE
  2
KANJI33
 70
     0
 40
15.185977837
 41
0.66671875
 50
0.0
 71
     0
 42
15.185977837
  3
txt.shx
  4
extfont.shx
  0
STYLE
  2
KANJI34
 70
     0
 40
18.223173404
 41
0.9
 50
0.0
 71
     0
 42
18.223173404
  3
txt.shx
  4
extfont.shx
  0
STYLE
  2
KANJI35
 70
     0
 40
15.6
 41
0.925
 50
0.0
 71
     0
 42
15.6
  3
txt.shx
  4
extfont.shx
  0
STYLE
  2
KANJI36
 70
     0
 40
14.578538724
 41
0.9
 50
0.0
 71
     0
 42
14.578538724
  3
txt.shx
  4
extfont.shx
  0
STYLE
  2
KANJI37
 70
     0
 40
10.933904043
 41
0.9
 50
0.0
 71
     0
 42
10.933904043
  3
txt.shx
  4
extfont.shx
  0
STYLE
  2
KANJI38
 70
     0
 40
20.0
 41
0.925
 50
0.0
 71
     0
 42
20.0
  3
txt.shx
  4
extfont.shx
  0
STYLE
  2
KANJI39
 70
     0
 40
15.0
 41
0.9
 50
0.0
 71
     0
 42
15.0
  3
txt.shx
  4
extfont.shx
  0
STYLE
  2
KANJI40
 70
     0
 40
20.0
 41
0.925
 50
0.0
 71
     0
 42
20.0
  3
txt.shx
  4
extfont.shx
  0
STYLE
  2
KANJI41
 70
     0
 40
9.0
 41
0.9
 50
0.0
 71
     0
 42
9.0
  3
txt.shx
  4
extfont.shx
  0
STYLE
  2
KANJI42
 70
     0
 40
17.5
 41
0.857222222
 50
0.0
 71
     0
 42
17.5
  3
txt.shx
  4
extfont.shx
  0
STYLE
  2
KANJI43
 70
     0
 40
20.0
 41
0.9
 50
0.0
 71
     0
 42
20.0
  3
txt.shx
  4
extfont.shx
  0
STYLE
  2
KANJI44
 70
     0
 40
17.5
 41
0.857142857
 50
0.0
 71
     0
 42
17.5
  3
txt.shx
  4
extfont.shx
  0
STYLE
  2
KANJI45
 70
     0
 40
13.475
 41
0.9
 50
0.0
 71
     0
 42
13.475
  3
txt.shx
  4
extfont.shx
  0
STYLE
  2
KANJI46
 70
     0
 40
22.5
 41
0.9
 50
0.0
 71
     0
 42
22.5
  3
txt.shx
  4
extfont.shx
  0
STYLE
  2
KANJI47
 70
     0
 40
19.0
 41
0.9
 50
0.0
 71
     0
 42
19.0
  3
txt.shx
  4
extfont.shx
  0
STYLE
  2
KANJI48
 70
     0
 40
19.0
 41
0.9
 50
0.0
 71
     0
 42
19.0
  3
txt.shx
  4
extfont.shx
  0
STYLE
  2
KANJI49
 70
     0
 40
19.0
 41
0.9
 50
0.0
 71
     0
 42
19.0
  3
txt.shx
  4
extfont.shx
  0
STYLE
  2
KANJI50
 70
     0
 40
19.0
 41
0.9
 50
0.0
 71
     0
 42
19.0
  3
txt.shx
  4
extfont.shx
  0
STYLE
  2
KANJI51
 70
     0
 40
19.0
 41
0.9
 50
0.0
 71
     0
 42
19.0
  3
txt.shx
  4
extfont.shx
  0
STYLE
  2
KANJI52
 70
     0
 40
19.0
 41
0.9
 50
0.0
 71
     0
 42
19.0
  3
txt.shx
  4
extfont.shx
  0
STYLE
  2
KANJI53
 70
     0
 40
19.0
 41
0.9
 50
0.0
 71
     0
 42
19.0
  3
txt.shx
  4
extfont.shx
  0
STYLE
  2
KANJI54
 70
     0
 40
19.0
 41
0.9
 50
0.0
 71
     0
 42
19.0
  3
txt.shx
  4
extfont.shx
  0
STYLE
  2
KANJI55
 70
     4
 40
17.5
 41
0.9
 50
0.0
 71
     0
 42
17.5
  3
txt.shx
  4
extfont.shx
  0
STYLE
  2
KANJI56
 70
     4
 40
17.5
 41
0.9
 50
0.0
 71
     0
 42
17.5
  3
txt.shx
  4
extfont.shx
  0
STYLE
  2
KANJI57
 70
     0
 40
17.5
 41
0.9
 50
0.0
 71
     0
 42
17.5
  3
txt.shx
  4
extfont.shx
  0
STYLE
  2
KANJI58
 70
     0
 40
15.0
 41
0.9
 50
0.0
 71
     0
 42
15.0
  3
txt.shx
  4
extfont.shx
  0
STYLE
  2
KANJI59
 70
     0
 40
17.5
 41
0.9
 50
0.0
 71
     0
 42
17.5
  3
txt.shx
  4
extfont.shx
  0
STYLE
  2
KANJI60
 70
     0
 40
19.0
 41
0.9
 50
0.0
 71
     0
 42
19.0
  3
txt.shx
  4
extfont.shx
  0
STYLE
  2
KANJI61
 70
     0
 40
19.0
 41
0.9
 50
0.0
 71
     0
 42
19.0
  3
txt.shx
  4
extfont.shx
  0
STYLE
  2
KANJI62
 70
     0
 40
17.5
 41
0.628571429
 50
0.0
 71
     0
 42
17.5
  3
txt.shx
  4
extfont.shx
  0
STYLE
  2
KANJI63
 70
     0
 40
17.0
 41
0.705882353
 50
0.0
 71
     0
 42
17.0
  3
txt.shx
  4
extfont.shx
  0
STYLE
  2
KANJI64
 70
     0
 40
15.0
 41
0.8
 50
0.0
 71
     0
 42
15.0
  3
txt.shx
  4
extfont.shx
  0
STYLE
  2
KANJI65
 70
     0
 40
16.0
 41
0.71875
 50
0.0
 71
     0
 42
16.0
  3
txt.shx
  4
extfont.shx
  0
STYLE
  2
KANJI66
 70
     0
 40
16.0
 41
0.8
 50
0.0
 71
     0
 42
16.0
  3
txt.shx
  4
extfont.shx
  0
STYLE
  2
KANJI67
 70
     0
 40
15.0
 41
0.833333333
 50
0.0
 71
     0
 42
15.0
  3
txt.shx
  4
extfont.shx
  0
STYLE
  2
KANJI68
 70
     0
 40
15.0
 41
0.833333333
 50
0.0
 71
     0
 42
15.0
  3
txt.shx
  4
extfont.shx
  0
STYLE
  2
KANJI69
 70
     0
 40
17.5
 41
0.9
 50
0.0
 71
     0
 42
17.5
  3
txt.shx
  4
extfont.shx
  0
STYLE
  2
KANJI70
 70
     0
 40
15.0
 41
0.766666667
 50
0.0
 71
     0
 42
15.0
  3
txt.shx
  4
extfont.shx
  0
STYLE
  2
KANJI71
 70
     0
 40
17.5
 41
0.571428571
 50
0.0
 71
     0
 42
17.5
  3
txt.shx
  4
extfont.shx
  0
STYLE
  2
KANJI72
 70
     0
 40
15.0
 41
0.9
 50
0.0
 71
     0
 42
15.0
  3
txt.shx
  4
extfont.shx
  0
STYLE
  2
KANJI73
 70
     4
 40
150.0
 41
0.216666667
 50
0.0
 71
     0
 42
150.0
  3
txt.shx
  4
extfont.shx
  0
STYLE
  2
KANJI74
 70
     0
 40
15.8184
 41
0.85
 50
0.0
 71
     0
 42
15.8184
  3
txt.shx
  4
extfont.shx
  0
STYLE
  2
KANJI75
 70
     0
 40
14.0
 41
0.714285714
 50
0.0
 71
     0
 42
14.0
  3
txt.shx
  4
extfont.shx
  0
ENDTAB
  0
TABLE
  2
VIEW
 70
     0
  0
ENDTAB
  0
ENDSEC
  0
SECTION
  2
BLOCKS
  0
ENDSEC
  0
SECTION
  2
ENTITIES
  0
LINE
  8
0
  6
CONTINUOUS
 62
     6
 10
75.0
 20
45.0
 30
0.0
 11
75.0
 21
1390.0
 31
0.0
  0
LINE
  8
0
  6
CONTINUOUS
 62
     6
 10
75.0
 20
1390.0
 30
0.0
 11
2010.0
 21
1390.0
 31
0.0
  0
TEXT
  8
0
  6
CONTINUOUS
 62
     4
 10
89.999996846
 20
69.999994744
 30
0.99999979
 40
9.999997897
  1
ＰＡＲＴＳ　ＬＩＳＴ
 50
0.0
 41
0.6
 51
0.0
  7
KANJI0
  0
TEXT
  8
0
  6
CONTINUOUS
 62
     4
 10
314.999949538
 20
69.999994744
 30
0.99999979
 40
9.999997897
  1
Ｎ０．
 50
0.0
 41
0.6
 51
0.0
  7
KANJI0
  0
TEXT
  8
0
  6
CONTINUOUS
 62
     4
 10
89.999996846
 20
54.999997897
 30
1.199999748
 40
11.999997477
  1
部品表
 50
0.0
 41
0.9
 51
0.0
  7
KANJI1
  0
TEXT
  8
0
  6
CONTINUOUS
 62
     4
 10
314.999949538
 20
54.999997897
 30
1.199999748
 40
11.999997477
  1
項番
 50
0.0
 41
0.9
 51
0.0
  7
KANJI1
  0
LINE
  8
0
  6
CONTINUOUS
 62
     6
 10
2010.0
 20
45.0
 30
0.0
 11
75.0
 21
45.0
 31
0.0
  0
LINE
  8
0
  6
CONTINUOUS
 62
     6
 10
404.999930615
 20
49.999998949
 30
0.0
 11
404.999930615
 21
119.999984231
 31
0.0
  0
LINE
  8
0
  6
CONTINUOUS
 62
     6
 10
79.999998949
 20
119.999984231
 30
0.0
 11
404.999930615
 21
119.999984231
 31
0.0
  0
LINE
  8
0
  6
CONTINUOUS
 62
     6
 10
79.999998949
 20
49.999998949
 30
0.0
 11
404.999930615
 21
49.999998949
 31
0.0
  0
LINE
  8
0
  6
CONTINUOUS
 62
     6
 10
79.999998949
 20
49.999998949
 30
0.0
 11
79.999998949
 21
119.999984231
 31
0.0
  0
LINE
  8
0
  6
CONTINUOUS
 62
     6
 10
304.999951641
 20
49.999998949
 30
0.0
 11
304.999951641
 21
119.999984231
 31
0.0
  0
LINE
  8
0
  6
CONTINUOUS
 62
     6
 10
79.999998949
 20
84.99999159
 30
0.0
 11
404.999930615
 21
84.99999159
 31
0.0
  0
TEXT
  8
0
  6
CONTINUOUS
 62
     3
 10
89.999996846
 20
94.999989487
 30
1.499999685
 40
14.999996846
  1
ＰＬ
 50
0.0
 41
0.9
 51
0.0
  7
KANJI2
  0
LINE
  8
0
  6
CONTINUOUS
 62
     6
 10
2010.0
 20
1390.0
 30
0.0
 11
2010.0
 21
45.0
 31
0.0
  0
TEXT
  8
0
  6
CONTINUOUS
 62
     4
 10
1347.000051
 20
242.1666515
 30
0.8666666
 40
8.666666
  1
ＣＯＤＥ
 50
0.0
 41
0.6
 51
0.0
  7
KANJI3
  0
LINE
  8
0
  6
CONTINUOUS
 62
     4
 10
1338.333385
 20
257.333317
 30
0.0
 11
2005.666667
 21
257.333317
 31
0.0
  0
TEXT
  8
0
  6
CONTINUOUS
 62
     4
 10
1347.000051
 20
229.1666525
 30
1.03999992
 40
10.3999992
  1
分類
 50
0.0
 41
0.6
 51
0.0
  7
KANJI4
  0
LINE
  8
0
  6
CONTINUOUS
 62
     4
 10
2005.666667
 20
291.999981
 30
0.0
 11
2005.666667
 21
326.666645
 31
0.0
  0
LINE
  8
0
  6
CONTINUOUS
 62
     6
 10
1338.958385
 20
291.999981
 30
0.0
 11
2006.291667
 21
291.999981
 31
0.0
  0
LINE
  8
0
  6
CONTINUOUS
 62
     6
 10
1338.333385
 20
49.333333
 30
0.0
 11
1338.333385
 21
326.666645
 31
0.0
  0
LINE
  8
0
  6
CONTINUOUS
 62
     6
 10
2005.666667
 20
49.333333
 30
0.0
 11
2005.666667
 21
326.666645
 31
0.0
  0
LINE
  8
0
  6
CONTINUOUS
 62
     6
 10
1338.333385
 20
326.666645
 30
0.0
 11
2005.666667
 21
326.666645
 31
0.0
  0
LINE
  8
0
  6
CONTINUOUS
 62
     4
 10
1496.5000395
 20
49.333333
 30
0.0
 11
1496.5000395
 21
326.666645
 31
0.0
  0
TEXT
  8
0
  6
CONTINUOUS
 62
     4
 10
1353.75
 20
297.166664
 30
5.0
 40
18.0
  1
ご用途
 50
0.0
 41
1.111111111
 51
0.0
  7
KANJI5
  0
TEXT
  8
0
  6
CONTINUOUS
 62
     4
 10
1353.75
 20
262.5
 30
5.0
 40
18.0
  1
ご注文主
 50
0.0
 41
1.111111111
 51
0.0
  7
KANJI5
  0
TEXT
  8
0
  6
CONTINUOUS
 62
     4
 10
1347.000051
 20
138.1666595
 30
0.8666666
 40
8.666666
  1
ＤＲＡＷＮ
 50
0.0
 41
0.6
 51
0.0
  7
KANJI3
  0
TEXT
  8
0
  6
CONTINUOUS
 62
     4
 10
1347.000051
 20
172.8333235
 30
0.8666666
 40
8.666666
  1
ＤＥＳＩＧＮ
 50
0.0
 41
0.6
 51
0.0
  7
KANJI3
  0
TEXT
  8
0
  6
CONTINUOUS
 62
     4
 10
1347.000051
 20
207.4999875
 30
0.8666666
 40
8.666666
  1
ＣＨＥＣＫ
 50
0.0
 41
0.6
 51
0.0
  7
KANJI3
  0
LINE
  8
0
  6
CONTINUOUS
 62
     4
 10
1338.333385
 20
187.999989
 30
0.0
 11
1496.5000395
 21
187.999989
 31
0.0
  0
LINE
  8
0
  6
CONTINUOUS
 62
     4
 10
1338.333385
 20
153.333325
 30
0.0
 11
1496.5000395
 21
153.333325
 31
0.0
  0
LINE
  8
0
  6
CONTINUOUS
 62
     4
 10
1338.333385
 20
222.666653
 30
0.0
 11
1496.5000395
 21
222.666653
 31
0.0
  0
TEXT
  8
0
  6
CONTINUOUS
 62
     4
 10
1347.000051
 20
159.8333245
 30
1.03999992
 40
10.3999992
  1
設計
 50
0.0
 41
0.6
 51
0.0
  7
KANJI4
  0
TEXT
  8
0
  6
CONTINUOUS
 62
     4
 10
1347.000051
 20
194.4999885
 30
1.03999992
 40
10.3999992
  1
検図
 50
0.0
 41
0.6
 51
0.0
  7
KANJI4
  0
LINE
  8
0
  6
CONTINUOUS
 62
     4
 10
1509.28337185
 20
222.666653
 30
0.0
 11
2005.666667
 21
222.666653
 31
0.0
  0
LINE
  8
0
  6
CONTINUOUS
 62
     4
 10
1496.5000395
 20
153.333325
 30
0.0
 11
2005.666667
 21
153.333325
 31
0.0
  0
TEXT
  8
0
  6
CONTINUOUS
 62
     4
 10
1505.1667055
 20
138.1666595
 30
0.8666666
 40
8.666666
  1
ＤＲＡＷＩＮＧ　ＮＯ．
 50
0.0
 41
0.8
 51
0.0
  7
KANJI6
  0
TEXT
  8
0
  6
CONTINUOUS
 62
     4
 10
1505.1667055
 20
172.8333235
 30
0.8666666
 40
8.666666
  1
ＭＦＧ　ＮＯ．
 50
0.0
 41
0.8
 51
0.0
  7
KANJI6
  0
TEXT
  8
0
  6
CONTINUOUS
 62
     4
 10
1505.1667055
 20
207.4999875
 30
0.8666666
 40
8.666666
  1
ＴＹＰＥ
 50
0.0
 41
0.8
 51
0.0
  7
KANJI6
  0
LINE
  8
0
  6
CONTINUOUS
 62
     4
 10
1509.5000385
 20
187.999989
 30
0.0
 11
1708.8333565
 21
187.999989
 31
0.0
  0
TEXT
  8
0
  6
CONTINUOUS
 62
     4
 10
1505.1667055
 20
122.999994
 30
1.03999992
 40
10.3999992
  1
図　面　番　号
 50
0.0
 41
0.8
 51
0.0
  7
KANJI7
  0
TEXT
  8
0
  6
CONTINUOUS
 62
     4
 10
1505.1667055
 20
157.666658
 30
1.03999992
 40
10.3999992
  1
製番
 50
0.0
 41
0.8
 51
0.0
  7
KANJI7
  0
TEXT
  8
0
  6
CONTINUOUS
 62
     4
 10
1505.1667055
 20
192.333322
 30
1.03999992
 40
10.3999992
  1
機種
 50
0.0
 41
0.8
 51
0.0
  7
KANJI7
  0
LINE
  8
0
  6
CONTINUOUS
 62
     4
 10
1338.333385
 20
83.999997
 30
0.0
 11
1496.5000395
 21
83.999997
 31
0.0
  0
LINE
  8
0
  6
CONTINUOUS
 62
     4
 10
1338.333385
 20
118.666661
 30
0.0
 11
1496.5000395
 21
118.666661
 31
0.0
  0
TEXT
  8
0
  6
CONTINUOUS
 62
     4
 10
1347.000051
 20
68.8333315
 30
0.8666666
 40
8.666666
  1
ＳＣＡＬＥ
 50
0.0
 41
0.6
 51
0.0
  7
KANJI3
  0
TEXT
  8
0
  6
CONTINUOUS
 62
     4
 10
1347.000051
 20
103.4999955
 30
0.8666666
 40
8.666666
  1
ＤＡＴＥ
 50
0.0
 41
0.6
 51
0.0
  7
KANJI3
  0
TEXT
  8
0
  6
CONTINUOUS
 62
     4
 10
1347.000051
 20
55.8333325
 30
1.03999992
 40
10.3999992
  1
尺度
 50
0.0
 41
0.6
 51
0.0
  7
KANJI4
  0
TEXT
  8
0
  6
CONTINUOUS
 62
     4
 10
1347.000051
 20
90.4999965
 30
1.03999992
 40
10.3999992
  1
日付
 50
0.0
 41
0.6
 51
0.0
  7
KANJI4
  0
TEXT
  8
0
  6
CONTINUOUS
 62
     4
 10
1347.000051
 20
125.1666605
 30
1.03999992
 40
10.3999992
  1
作図
 50
0.0
 41
0.6
 51
0.0
  7
KANJI4
  0
LINE
  8
0
  6
CONTINUOUS
 62
     4
 10
1496.5000395
 20
103.4999955
 30
0.0
 11
2005.666667
 21
103.4999955
 31
0.0
  0
LINE
  8
0
  6
LTYPE1
 62
     4
 10
1860.5000115
 20
109.999995
 30
0.0
 11
1860.5000115
 21
144.666659
 31
0.0
  0
LINE
  8
0
  6
LTYPE1
 62
     4
 10
1830.1666805
 20
109.999995
 30
0.0
 11
1830.1666805
 21
144.666659
 31
0.0
  0
LINE
  8
0
  6
LTYPE1
 62
     4
 10
1799.8333495
 20
109.999995
 30
0.0
 11
1799.8333495
 21
144.666659
 31
0.0
  0
LINE
  8
0
  6
LTYPE1
 62
     4
 10
1769.5000185
 20
109.999995
 30
0.0
 11
1769.5000185
 21
144.666659
 31
0.0
  0
LINE
  8
0
  6
LTYPE1
 62
     4
 10
1739.1666875
 20
109.999995
 30
0.0
 11
1739.1666875
 21
144.666659
 31
0.0
  0
LINE
  8
0
  6
LTYPE1
 62
     4
 10
1708.8333565
 20
109.999995
 30
0.0
 11
1708.8333565
 21
144.666659
 31
0.0
  0
LINE
  8
0
  6
LTYPE1
 62
     4
 10
1678.5000255
 20
109.999995
 30
0.0
 11
1678.5000255
 21
144.666659
 31
0.0
  0
LINE
  8
0
  6
LTYPE1
 62
     4
 10
1648.1666945
 20
109.999995
 30
0.0
 11
1648.1666945
 21
144.666659
 31
0.0
  0
LINE
  8
0
  6
LTYPE1
 62
     4
 10
1648.1666945
 20
144.666659
 30
0.0
 11
1860.5000115
 21
144.666659
 31
0.0
  0
LINE
  8
0
  6
LTYPE1
 62
     4
 10
1648.1666945
 20
109.999995
 30
0.0
 11
1860.5000115
 21
109.999995
 31
0.0
  0
LINE
  8
0
  6
CONTINUOUS
 62
     4
 10
1877.8333435
 20
128.41666025
 30
0.0
 11
1886.5000095
 21
128.41666025
 31
0.0
  0
LINE
  8
0
  6
CONTINUOUS
 62
     4
 10
1932.000006
 20
115.41666125
 30
0.0
 11
1901.666675
 21
115.41666125
 31
0.0
  0
LINE
  8
0
  6
CONTINUOUS
 62
     4
 10
1901.666675
 20
115.41666125
 30
0.0
 11
1916.8333405
 21
141.41665925
 31
0.0
  0
LINE
  8
0
  6
CONTINUOUS
 62
     4
 10
1916.8333405
 20
141.41665925
 30
0.0
 11
1932.000006
 21
115.41666125
 31
0.0
  0
TEXT
  8
0
  6
CONTINUOUS
 62
     4
 10
1721.8333555
 20
207.4999875
 30
0.8666666
 40
8.666666
  1
ＴＩＴＬＥ
 50
0.0
 41
0.8
 51
0.0
  7
KANJI6
  0
TEXT
  8
0
  6
CONTINUOUS
 62
     4
 10
1721.8333555
 20
192.333322
 30
1.03999992
 40
10.3999992
  1
名称
 50
0.0
 41
0.8
 51
0.0
  7
KANJI7
  0
LINE
  8
0
  6
CONTINUOUS
 62
     6
 10
996.000078
 20
83.999997
 30
0.0
 11
1338.333385
 21
83.999997
 31
0.0
  0
LINE
  8
0
  6
CONTINUOUS
 62
     6
 10
996.000078
 20
49.333333
 30
0.0
 11
2005.666667
 21
49.333333
 31
0.0
  0
TEXT
  8
0
  6
CONTINUOUS
 62
     6
 10
1500.8333725
 20
68.8333315
 30
0.0
 40
15.1666655
  1
ＵＮＩＴＥＣ　ＩＮＤＵＳＴＲＹ　ＣＯ．，ＬＴＤ．
 50
0.0
 41
0.42031746
 51
0.0
  7
KANJI8
  0
TEXT
  8
0
  6
CONTINUOUS
 62
     6
 10
1713.545856138
 20
63.1999986
 30
2.5999998
 40
25.999998
  1
ユニテック工業株式会社
 50
0.0
 41
0.9
 51
0.0
  7
KANJI9
  0
TEXT
  8
0
  6
CONTINUOUS
 62
     2
 10
1792.5
 20
160.0
 30
12.5
 40
25.0
  1
外形寸法図
 50
0.0
 41
1.0
 51
0.0
  7
KANJI10
  0
TEXT
  8
0
  6
CONTINUOUS
 62
     2
 10
1762.5
 20
190.0
 30
3.571428571
 40
25.0
  1
マイティシリンダ
 50
0.0
 41
1.0
 51
0.0
  7
KANJI11
  0
TEXT
  8
0
  6
CONTINUOUS
 62
     2
 10
1621.9166945
 20
114.999995
 30
1.5
 40
25.0
  1
Ａ
 50
0.0
 41
0.8
 51
0.0
  7
KANJI12
  0
CIRCLE
  8
0
  6
CONTINUOUS
 62
     2
 10
1589.4166945
 20
168.749995
 30
0.0
 40
12.5
  0
TEXT
  8
0
  6
CONTINUOUS
 62
     2
 10
1580.0416945
 20
159.374995
 30
1.5
 40
20.0
  1
Ｓ
 50
0.0
 41
1.0
 51
0.0
  7
KANJI13
  0
LINE
  8
0
  6
CONTINUOUS
 62
     6
 10
1678.879192138
 20
72.2999979
 30
0.0
 11
1667.439193018
 21
72.2999979
 31
0.0
  0
LINE
  8
0
  6
CONTINUOUS
 62
     6
 10
1678.879192138
 20
74.37999774
 30
0.0
 11
1667.439193018
 21
74.37999774
 31
0.0
  0
LINE
  8
0
  6
CONTINUOUS
 62
     6
 10
1678.879192138
 20
72.2999979
 30
0.0
 11
1690.319191258
 21
72.2999979
 31
0.0
  0
LINE
  8
0
  6
CONTINUOUS
 62
     6
 10
1678.879192138
 20
74.37999774
 30
0.0
 11
1690.319191258
 21
74.37999774
 31
0.0
  0
LINE
  8
0
  6
CONTINUOUS
 62
     6
 10
1690.319191258
 20
74.37999774
 30
0.0
 11
1690.319191258
 21
72.2999979
 31
0.0
  0
ARC
  8
0
  6
CONTINUOUS
 62
     6
 10
1692.919191058
 20
73.33999782
 30
0.0
 40
10.3999992
 50
185.739170477
 51
90.0
  0
ARC
  8
0
  6
CONTINUOUS
 62
     6
 10
1692.919191058
 20
73.33999782
 30
0.0
 40
12.47999904
 50
184.780191847
 51
90.0
  0
LINE
  8
0
  6
CONTINUOUS
 62
     6
 10
1667.439193018
 20
72.2999979
 30
0.0
 11
1667.439193018
 21
74.37999774
 31
0.0
  0
LINE
  8
0
  6
CONTINUOUS
 62
     6
 10
1677.319192258
 20
85.81999686
 30
0.0
 11
1664.839193218
 21
85.81999686
 31
0.0
  0
LINE
  8
0
  6
CONTINUOUS
 62
     6
 10
1680.439192018
 20
85.81999686
 30
0.0
 11
1692.919191058
 21
85.81999686
 31
0.0
  0
ARC
  8
0
  6
CONTINUOUS
 62
     6
 10
1664.839193218
 20
73.33999782
 30
0.0
 40
10.3999992
 50
90.0
 51
354.260829523
  0
ARC
  8
0
  6
CONTINUOUS
 62
     6
 10
1664.839193218
 20
73.33999782
 30
0.0
 40
12.47999904
 50
90.0
 51
355.219808153
  0
LINE
  8
0
  6
CONTINUOUS
 62
     6
 10
1677.319192258
 20
85.81999686
 30
0.0
 11
1677.319192258
 21
83.73999702
 31
0.0
  0
LINE
  8
0
  6
CONTINUOUS
 62
     6
 10
1664.839193218
 20
83.73999702
 30
0.0
 11
1677.319192258
 21
83.73999702
 31
0.0
  0
LINE
  8
0
  6
CONTINUOUS
 62
     6
 10
1680.439192018
 20
85.81999686
 30
0.0
 11
1680.439192018
 21
83.73999702
 31
0.0
  0
LINE
  8
0
  6
CONTINUOUS
 62
     6
 10
1692.919191058
 20
83.73999702
 30
0.0
 11
1680.439192018
 21
83.73999702
 31
0.0
  0
TEXT
  8
0
  6
CONTINUOUS
 62
     2
 10
1394.1666945
 20
127.499995
 30
5.0
 40
17.5
  1
岡田
 50
0.0
 41
0.857142857
 51
0.0
  7
KANJI14
  0
TEXT
  8
0
  6
CONTINUOUS
 62
     2
 10
1430.0
 20
55.0
 30
1.5
 40
22.5
  1
１／５
 50
0.0
 41
0.666666667
 51
0.0
  7
KANJI15
  0
TEXT
  8
0
  6
CONTINUOUS
 62
     4
 10
1106.5000695
 20
68.8333315
 30
0.8666666
 40
8.666666
  1
ＢＹ
 50
0.0
 41
0.6
 51
0.0
  7
KANJI3
  0
TEXT
  8
0
  6
CONTINUOUS
 62
     4
 10
1201.8333955
 20
68.8333315
 30
0.8666666
 40
8.666666
  1
ＤＥＳＣＲＩＰＴＩＯＮ
 50
0.0
 41
0.6
 51
0.0
  7
KANJI3
  0
TEXT
  8
0
  6
CONTINUOUS
 62
     4
 10
1106.5000695
 20
55.8333325
 30
1.03999992
 40
10.3999992
  1
担当
 50
0.0
 41
0.6
 51
0.0
  7
KANJI4
  0
TEXT
  8
0
  6
CONTINUOUS
 62
     4
 10
1214.8333945
 20
55.8333325
 30
1.03999992
 40
10.3999992
  1
記　　　　事
 50
0.0
 41
0.6
 51
0.0
  7
KANJI4
  0
LINE
  8
0
  6
CONTINUOUS
 62
     4
 10
1014.41674325
 20
77.4999975
 30
0.0
 11
1000.333411
 21
55.8333325
 31
0.0
  0
TEXT
  8
0
  6
CONTINUOUS
 62
     4
 10
1050.1667405
 20
68.8333315
 30
0.8666666
 40
8.666666
  1
ＤＡＴＥ
 50
0.0
 41
0.6
 51
0.0
  7
KANJI3
  0
TEXT
  8
0
  6
CONTINUOUS
 62
     4
 10
1056.66674
 20
55.8333325
 30
1.03999992
 40
10.3999992
  1
日付
 50
0.0
 41
0.6
 51
0.0
  7
KANJI4
  0
LINE
  8
0
  6
CONTINUOUS
 62
     4
 10
1000.333411
 20
55.8333325
 30
0.0
 11
1028.5000755
 21
55.8333325
 31
0.0
  0
LINE
  8
0
  6
CONTINUOUS
 62
     4
 10
1014.41674325
 20
77.4999975
 30
0.0
 11
1028.5000755
 21
55.8333325
 31
0.0
  0
LINE
  8
0
  6
CONTINUOUS
 62
     6
 10
996.000078
 20
49.333333
 30
0.0
 11
996.000078
 21
83.999997
 31
0.0
  0
LINE
  8
0
  6
CONTINUOUS
 62
     4
 10
1032.8334085
 20
49.333333
 30
0.0
 11
1032.8334085
 21
83.999997
 31
0.0
  0
LINE
  8
0
  6
CONTINUOUS
 62
     4
 10
1093.5000705
 20
49.333333
 30
0.0
 11
1093.5000705
 21
83.999997
 31
0.0
  0
LINE
  8
0
  6
CONTINUOUS
 62
     4
 10
1132.5000675
 20
49.333333
 30
0.0
 11
1132.5000675
 21
83.999997
 31
0.0
  0
LINE
  8
0
  6
CONTINUOUS
 62
     4
 10
18.083333
 20
49.333333
 30
0.0
 11
70.083329
 21
49.333333
 31
0.0
  0
LINE
  8
0
  6
CONTINUOUS
 62
     4
 10
18.083333
 20
75.333331
 30
0.0
 11
70.083329
 21
75.333331
 31
0.0
  0
LINE
  8
0
  6
CONTINUOUS
 62
     4
 10
18.083333
 20
101.333329
 30
0.0
 11
70.083329
 21
101.333329
 31
0.0
  0
LINE
  8
0
  6
CONTINUOUS
 62
     4
 10
18.083333
 20
127.333327
 30
0.0
 11
70.083329
 21
127.333327
 31
0.0
  0
LINE
  8
0
  6
CONTINUOUS
 62
     4
 10
18.083333
 20
153.333325
 30
0.0
 11
70.083329
 21
153.333325
 31
0.0
  0
LINE
  8
0
  6
CONTINUOUS
 62
     4
 10
18.083333
 20
179.333323
 30
0.0
 11
70.083329
 21
179.333323
 31
0.0
  0
LINE
  8
0
  6
CONTINUOUS
 62
     4
 10
18.083333
 20
205.333321
 30
0.0
 11
70.083329
 21
205.333321
 31
0.0
  0
LINE
  8
0
  6
CONTINUOUS
 62
     4
 10
18.083333
 20
231.333319
 30
0.0
 11
70.083329
 21
231.333319
 31
0.0
  0
LINE
  8
0
  6
CONTINUOUS
 62
     4
 10
18.083333
 20
257.333317
 30
0.0
 11
70.083329
 21
257.333317
 31
0.0
  0
LINE
  8
0
  6
CONTINUOUS
 62
     4
 10
18.083333
 20
283.333315
 30
0.0
 11
70.083329
 21
283.333315
 31
0.0
  0
LINE
  8
0
  6
CONTINUOUS
 62
     4
 10
70.083329
 20
49.333333
 30
0.0
 11
70.083329
 21
283.333315
 31
0.0
  0
LINE
  8
0
  6
CONTINUOUS
 62
     4
 10
44.083331
 20
49.333333
 30
0.0
 11
44.083331
 21
257.333317
 31
0.0
  0
TEXT
  8
0
  6
CONTINUOUS
 62
     4
 10
26.96666565
 20
56.91666575
 30
1.2999999
 40
12.999999
  1
計
 50
0.0
 41
0.75
 51
0.0
  7
KANJI16
  0
TEXT
  8
0
  6
CONTINUOUS
 62
     4
 10
26.96666565
 20
109.34999505
 30
1.2999999
 40
12.999999
  1
設
 50
0.0
 41
0.75
 51
0.0
  7
KANJI16
  0
TEXT
  8
0
  6
CONTINUOUS
 62
     4
 10
26.96666565
 20
134.91665975
 30
1.2999999
 40
12.999999
  1
管
 50
0.0
 41
0.75
 51
0.0
  7
KANJI16
  0
TEXT
  8
0
  6
CONTINUOUS
 62
     4
 10
26.96666565
 20
160.91665775
 30
1.2999999
 40
12.999999
  1
製
 50
0.0
 41
0.75
 51
0.0
  7
KANJI16
  0
TEXT
  8
0
  6
CONTINUOUS
 62
     4
 10
26.96666565
 20
186.91665575
 30
1.2999999
 40
12.999999
  1
資
 50
0.0
 41
0.75
 51
0.0
  7
KANJI16
  0
TEXT
  8
0
  6
CONTINUOUS
 62
     4
 10
26.96666565
 20
212.91665375
 30
1.2999999
 40
12.999999
  1
営
 50
0.0
 41
0.75
 51
0.0
  7
KANJI16
  0
TEXT
  8
0
  6
CONTINUOUS
 62
     4
 10
26.96666565
 20
238.91665175
 30
1.2999999
 40
12.999999
  1
客
 50
0.0
 41
0.75
 51
0.0
  7
KANJI16
  0
TEXT
  8
0
  6
CONTINUOUS
 62
     4
 10
26.749999
 20
265.999983
 30
1.2999999
 40
12.999999
  1
出　図
 50
0.0
 41
0.75
 51
0.0
  7
KANJI16
  0
LINE
  8
0
  6
CONTINUOUS
 62
     4
 10
18.083333
 20
49.333333
 30
0.0
 11
18.083333
 21
283.333315
 31
0.0
  0
LINE
  8
0
  6
CONTINUOUS
 62
     1
 10
851.0
 20
1227.95
 30
0.0
 11
1499.0
 21
1227.95
 31
0.0
  0
LINE
  8
0
  6
CONTINUOUS
 62
     1
 10
851.0
 20
1199.95
 30
0.0
 11
1499.0
 21
1199.95
 31
0.0
  0
TEXT
  8
0
  6
CONTINUOUS
 62
     2
 10
891.0
 20
1207.95
 30
1.28
 40
12.8
  1
形
 50
0.0
 41
0.9
 51
0.0
  7
KANJI17
  0
TEXT
  8
0
  6
CONTINUOUS
 62
     2
 10
969.0
 20
1207.95
 30
1.28
 40
12.8
  1
式
 50
0.0
 41
0.9
 51
0.0
  7
KANJI17
  0
TEXT
  8
0
  6
CONTINUOUS
 62
     2
 10
1029.4
 20
1207.15
 30
1.2
 40
12.0
  1
ストローク
 50
0.0
 41
0.9
 51
0.0
  7
KANJI18
  0
TEXT
  8
0
  6
CONTINUOUS
 62
     2
 10
1106.2
 20
1206.35
 30
0.0
 40
12.0
  1
ｍｉｎ　
 50
0.0
 41
0.9
 51
0.0
  7
KANJI19
  0
TEXT
  8
0
  6
CONTINUOUS
 62
     2
 10
1186.2
 20
1206.35
 30
0.0
 40
12.0
  1
ｍｉｎ　
 50
0.0
 41
0.9
 51
0.0
  7
KANJI19
  0
TEXT
  8
0
  6
CONTINUOUS
 62
     2
 10
1346.2
 20
1206.35
 30
0.0
 40
12.0
  1
ｍｉｎ　
 50
0.0
 41
0.9
 51
0.0
  7
KANJI19
  0
TEXT
  8
0
  6
CONTINUOUS
 62
     2
 10
1147.0
 20
1207.15
 30
1.4
 40
14.0
  1
ＡＬ
 50
0.0
 41
0.9
 51
0.0
  7
KANJI20
  0
TEXT
  8
0
  6
CONTINUOUS
 62
     2
 10
1227.0
 20
1207.15
 30
1.4
 40
14.0
  1
Ｌ
 50
0.0
 41
0.9
 51
0.0
  7
KANJI20
  0
TEXT
  8
0
  6
CONTINUOUS
 62
     2
 10
1295.0
 20
1207.15
 30
1.4
 40
14.0
  1
Ｃ
 50
0.0
 41
0.9
 51
0.0
  7
KANJI20
  0
TEXT
  8
0
  6
CONTINUOUS
 62
     2
 10
1387.0
 20
1207.15
 30
1.4
 40
14.0
  1
Ｐ
 50
0.0
 41
0.9
 51
0.0
  7
KANJI20
  0
TEXT
  8
0
  6
CONTINUOUS
 62
     2
 10
1469.3
 20
1206.85
 30
0.0
 40
10.8
  1
（ｋｇ）
 50
0.0
 41
0.740740741
 51
0.0
  7
KANJI21
  0
TEXT
  8
0
  6
CONTINUOUS
 62
     2
 10
1421.3
 20
1206.65
 30
1.2
 40
14.0
  1
概算重量
 50
0.0
 41
0.857142857
 51
0.0
  7
KANJI22
  0
TEXT
  8
0
  6
CONTINUOUS
 62
     2
 10
1037.0
 20
1178.65
 30
1.2
 40
12.0
  1
　１００
 50
0.0
 41
0.9
 51
0.0
  7
KANJI18
  0
TEXT
  8
0
  6
CONTINUOUS
 62
     2
 10
1037.0
 20
1150.65
 30
1.2
 40
12.0
  1
　２００
 50
0.0
 41
0.9
 51
0.0
  7
KANJI18
  0
TEXT
  8
0
  6
CONTINUOUS
 62
     2
 10
1037.0
 20
1122.65
 30
1.2
 40
12.0
  1
　３００
 50
0.0
 41
0.9
 51
0.0
  7
KANJI18
  0
TEXT
  8
0
  6
CONTINUOUS
 62
     2
 10
1117.0
 20
1178.65
 30
1.2
 40
12.0
  1
　５９３
 50
0.0
 41
0.9
 51
0.0
  7
KANJI18
  0
TEXT
  8
0
  6
CONTINUOUS
 62
     2
 10
1117.0
 20
1150.65
 30
1.2
 40
12.0
  1
　６９３
 50
0.0
 41
0.9
 51
0.0
  7
KANJI18
  0
TEXT
  8
0
  6
CONTINUOUS
 62
     2
 10
1117.0
 20
1122.65
 30
1.2
 40
12.0
  1
　７９３
 50
0.0
 41
0.9
 51
0.0
  7
KANJI18
  0
TEXT
  8
0
  6
CONTINUOUS
 62
     2
 10
1197.0
 20
1122.65
 30
1.2
 40
12.0
  1
　５０８
 50
0.0
 41
0.9
 51
0.0
  7
KANJI18
  0
TEXT
  8
0
  6
CONTINUOUS
 62
     2
 10
1197.0
 20
1150.65
 30
1.2
 40
12.0
  1
　４０８
 50
0.0
 41
0.9
 51
0.0
  7
KANJI18
  0
TEXT
  8
0
  6
CONTINUOUS
 62
     2
 10
1277.0
 20
1178.65
 30
1.2
 40
12.0
  1
　２３８
 50
0.0
 41
0.9
 51
0.0
  7
KANJI18
  0
TEXT
  8
0
  6
CONTINUOUS
 62
     2
 10
1277.0
 20
1150.65
 30
1.2
 40
12.0
  1
　３３８
 50
0.0
 41
0.9
 51
0.0
  7
KANJI18
  0
TEXT
  8
0
  6
CONTINUOUS
 62
     2
 10
1277.0
 20
1122.65
 30
1.2
 40
12.0
  1
　４３８
 50
0.0
 41
0.9
 51
0.0
  7
KANJI18
  0
TEXT
  8
0
  6
CONTINUOUS
 62
     2
 10
1357.0
 20
1122.65
 30
1.2
 40
12.0
  1
　　３５
 50
0.0
 41
0.9
 51
0.0
  7
KANJI18
  0
TEXT
  8
0
  6
CONTINUOUS
 62
     2
 10
1357.0
 20
1150.65
 30
1.2
 40
12.0
  1
　　３５
 50
0.0
 41
0.9
 51
0.0
  7
KANJI18
  0
TEXT
  8
0
  6
CONTINUOUS
 62
     2
 10
1357.0
 20
1178.65
 30
1.2
 40
12.0
  1
　　３５
 50
0.0
 41
0.9
 51
0.0
  7
KANJI18
  0
TEXT
  8
0
  6
CONTINUOUS
 62
     2
 10
1037.0
 20
1010.65
 30
1.2
 40
12.0
  1
　７００
 50
0.0
 41
0.9
 51
0.0
  7
KANJI18
  0
TEXT
  8
0
  6
CONTINUOUS
 62
     2
 10
1117.0
 20
1010.65
 30
1.2
 40
12.0
  1
１３４６
 50
0.0
 41
0.9
 51
0.0
  7
KANJI18
  0
TEXT
  8
0
  6
CONTINUOUS
 62
     2
 10
1197.0
 20
1010.65
 30
1.2
 40
12.0
  1
１０６１
 50
0.0
 41
0.9
 51
0.0
  7
KANJI18
  0
TEXT
  8
0
  6
CONTINUOUS
 62
     2
 10
1277.0
 20
1010.65
 30
1.2
 40
12.0
  1
　８７８
 50
0.0
 41
0.9
 51
0.0
  7
KANJI18
  0
TEXT
  8
0
  6
CONTINUOUS
 62
     2
 10
1357.0
 20
1010.65
 30
1.2
 40
12.0
  1
　１４８
 50
0.0
 41
0.9
 51
0.0
  7
KANJI18
  0
TEXT
  8
0
  6
CONTINUOUS
 62
     2
 10
1037.0
 20
1066.65
 30
1.2
 40
12.0
  1
　５００
 50
0.0
 41
0.9
 51
0.0
  7
KANJI18
  0
TEXT
  8
0
  6
CONTINUOUS
 62
     2
 10
1117.0
 20
1066.65
 30
1.2
 40
12.0
  1
１０７０
 50
0.0
 41
0.9
 51
0.0
  7
KANJI18
  0
TEXT
  8
0
  6
CONTINUOUS
 62
     2
 10
1197.0
 20
1066.65
 30
1.2
 40
12.0
  1
　７８５
 50
0.0
 41
0.9
 51
0.0
  7
KANJI18
  0
TEXT
  8
0
  6
CONTINUOUS
 62
     2
 10
1277.0
 20
1066.65
 30
1.2
 40
12.0
  1
　６３８
 50
0.0
 41
0.9
 51
0.0
  7
KANJI18
  0
TEXT
  8
0
  6
CONTINUOUS
 62
     2
 10
1357.0
 20
1066.65
 30
1.2
 40
12.0
  1
　１１２
 50
0.0
 41
0.9
 51
0.0
  7
KANJI18
  0
TEXT
  8
0
  6
CONTINUOUS
 62
     2
 10
1037.0
 20
1094.65
 30
1.2
 40
12.0
  1
　４００
 50
0.0
 41
0.9
 51
0.0
  7
KANJI18
  0
TEXT
  8
0
  6
CONTINUOUS
 62
     2
 10
1037.0
 20
1038.65
 30
1.2
 40
12.0
  1
　６００
 50
0.0
 41
0.9
 51
0.0
  7
KANJI18
  0
TEXT
  8
0
  6
CONTINUOUS
 62
     2
 10
1357.0
 20
1094.65
 30
1.2
 40
12.0
  1
　　８５
 50
0.0
 41
0.9
 51
0.0
  7
KANJI18
  0
TEXT
  8
0
  6
CONTINUOUS
 62
     2
 10
1357.0
 20
1038.65
 30
1.2
 40
12.0
  1
　１２８
 50
0.0
 41
0.9
 51
0.0
  7
KANJI18
  0
TEXT
  8
0
  6
CONTINUOUS
 62
     2
 10
1277.0
 20
1094.65
 30
1.2
 40
12.0
  1
　５３８
 50
0.0
 41
0.9
 51
0.0
  7
KANJI18
  0
TEXT
  8
0
  6
CONTINUOUS
 62
     2
 10
1277.0
 20
1038.65
 30
1.2
 40
12.0
  1
　７７８
 50
0.0
 41
0.9
 51
0.0
  7
KANJI18
  0
TEXT
  8
0
  6
CONTINUOUS
 62
     2
 10
1197.0
 20
1178.65
 30
1.2
 40
12.0
  1
　３０８
 50
0.0
 41
0.9
 51
0.0
  7
KANJI18
  0
TEXT
  8
0
  6
CONTINUOUS
 62
     2
 10
1197.0
 20
1094.65
 30
1.2
 40
12.0
  1
　６５８
 50
0.0
 41
0.9
 51
0.0
  7
KANJI18
  0
TEXT
  8
0
  6
CONTINUOUS
 62
     2
 10
1197.0
 20
1038.65
 30
1.2
 40
12.0
  1
　９４１
 50
0.0
 41
0.9
 51
0.0
  7
KANJI18
  0
TEXT
  8
0
  6
CONTINUOUS
 62
     2
 10
1117.0
 20
1094.65
 30
1.2
 40
12.0
  1
　９４３
 50
0.0
 41
0.9
 51
0.0
  7
KANJI18
  0
TEXT
  8
0
  6
CONTINUOUS
 62
     2
 10
1117.0
 20
1038.65
 30
1.2
 40
12.0
  1
１２２６
 50
0.0
 41
0.9
 51
0.0
  7
KANJI18
  0
TEXT
  8
0
  6
CONTINUOUS
 62
     2
 10
222.0
 20
10.0
 30
0.0
 40
15.0
  1
ＦＤ　Ｎｏ．ＭＣ１８５
 50
0.0
 41
0.9
 51
0.0
  7
KANJI23
  0
LINE
  8
0
  6
CONTINUOUS
 62
     1
 10
1275.375
 20
1381.0
 30
0.0
 11
1275.375
 21
1280.9
 31
0.0
  0
LINE
  8
0
  6
CONTINUOUS
 62
     2
 10
1217.625
 20
1381.0
 30
0.0
 11
1217.625
 21
1280.9
 31
0.0
  0
LINE
  8
0
  6
CONTINUOUS
 62
     2
 10
1159.875
 20
1381.0
 30
0.0
 11
1159.875
 21
1280.9
 31
0.0
  0
LINE
  8
0
  6
CONTINUOUS
 62
     1
 10
1082.875
 20
1381.0
 30
0.0
 11
1082.875
 21
1280.9
 31
0.0
  0
LINE
  8
0
  6
CONTINUOUS
 62
     1
 10
1082.875
 20
1381.0
 30
0.0
 11
1275.375
 21
1381.0
 31
0.0
  0
LINE
  8
0
  6
CONTINUOUS
 62
     1
 10
1082.875
 20
1350.2
 30
0.0
 11
1275.375
 21
1350.2
 31
0.0
  0
LINE
  8
0
  6
CONTINUOUS
 62
     2
 10
1082.875
 20
1327.1
 30
0.0
 11
1275.375
 21
1327.1
 31
0.0
  0
LINE
  8
0
  6
CONTINUOUS
 62
     2
 10
1082.875
 20
1304.0
 30
0.0
 11
1275.375
 21
1304.0
 31
0.0
  0
LINE
  8
0
  6
CONTINUOUS
 62
     1
 10
1082.875
 20
1280.9
 30
0.0
 11
1275.375
 21
1280.9
 31
0.0
  0
TEXT
  8
0
  6
CONTINUOUS
 62
     2
 10
1225.325
 20
1367.525
 30
1.155
 40
11.55
  1
起動電流
 50
0.0
 41
0.9
 51
0.0
  7
KANJI24
  0
TEXT
  8
0
  6
CONTINUOUS
 62
     2
 10
1225.325
 20
1354.05
 30
1.155
 40
11.55
  1
　　　Ａ
 50
0.0
 41
0.9
 51
0.0
  7
KANJI24
  0
TEXT
  8
0
  6
CONTINUOUS
 62
     2
 10
1167.575
 20
1367.525
 30
1.155
 40
11.55
  1
定格電流
 50
0.0
 41
0.9
 51
0.0
  7
KANJI24
  0
TEXT
  8
0
  6
CONTINUOUS
 62
     2
 10
1167.575
 20
1354.05
 30
1.155
 40
11.55
  1
　　　Ａ
 50
0.0
 41
0.9
 51
0.0
  7
KANJI24
  0
TEXT
  8
0
  6
CONTINUOUS
 62
     2
 10
1089.42
 20
1309.775
 30
1.155
 40
11.55
  1
２００／６０
 50
0.0
 41
0.9
 51
0.0
  7
KANJI24
  0
TEXT
  8
0
  6
CONTINUOUS
 62
     2
 10
1089.42
 20
1367.525
 30
1.155
 40
11.55
  1
電圧／周波数
 50
0.0
 41
0.9
 51
0.0
  7
KANJI24
  0
TEXT
  8
0
  6
CONTINUOUS
 62
     2
 10
1089.42
 20
1354.05
 30
1.155
 40
11.55
  1
　Ｖ／Ｈｚ
 50
0.0
 41
0.9
 51
0.0
  7
KANJI24
  0
TEXT
  8
0
  6
CONTINUOUS
 62
     2
 10
1089.42
 20
1332.875
 30
1.155
 40
11.55
  1
２００／５０
 50
0.0
 41
0.9
 51
0.0
  7
KANJI24
  0
TEXT
  8
0
  6
CONTINUOUS
 62
     2
 10
1089.42
 20
1286.675
 30
1.155
 40
11.55
  1
２２０／６０
 50
0.0
 41
0.9
 51
0.0
  7
KANJI24
  0
LINE
  8
0
  6
CONTINUOUS
 62
     1
 10
1044.375
 20
1381.0
 30
0.0
 11
1044.375
 21
1280.9
 31
0.0
  0
LINE
  8
0
  6
CONTINUOUS
 62
     2
 10
986.625
 20
1381.0
 30
0.0
 11
986.625
 21
1280.9
 31
0.0
  0
LINE
  8
0
  6
CONTINUOUS
 62
     2
 10
928.875
 20
1381.0
 30
0.0
 11
928.875
 21
1280.9
 31
0.0
  0
LINE
  8
0
  6
CONTINUOUS
 62
     1
 10
851.875
 20
1381.0
 30
0.0
 11
851.875
 21
1280.9
 31
0.0
  0
LINE
  8
0
  6
CONTINUOUS
 62
     1
 10
851.875
 20
1381.0
 30
0.0
 11
1044.375
 21
1381.0
 31
0.0
  0
LINE
  8
0
  6
CONTINUOUS
 62
     1
 10
851.875
 20
1350.2
 30
0.0
 11
1044.375
 21
1350.2
 31
0.0
  0
LINE
  8
0
  6
CONTINUOUS
 62
     2
 10
851.875
 20
1327.1
 30
0.0
 11
1044.375
 21
1327.1
 31
0.0
  0
LINE
  8
0
  6
CONTINUOUS
 62
     2
 10
851.875
 20
1304.0
 30
0.0
 11
1044.375
 21
1304.0
 31
0.0
  0
LINE
  8
0
  6
CONTINUOUS
 62
     1
 10
851.875
 20
1280.9
 30
0.0
 11
1044.375
 21
1280.9
 31
0.0
  0
TEXT
  8
0
  6
CONTINUOUS
 62
     2
 10
994.325
 20
1367.525
 30
1.155
 40
11.55
  1
起動電流
 50
0.0
 41
0.9
 51
0.0
  7
KANJI24
  0
TEXT
  8
0
  6
CONTINUOUS
 62
     2
 10
994.325
 20
1354.05
 30
1.155
 40
11.55
  1
　　　Ａ
 50
0.0
 41
0.9
 51
0.0
  7
KANJI24
  0
TEXT
  8
0
  6
CONTINUOUS
 62
     2
 10
936.575
 20
1367.525
 30
1.155
 40
11.55
  1
定格電流
 50
0.0
 41
0.9
 51
0.0
  7
KANJI24
  0
TEXT
  8
0
  6
CONTINUOUS
 62
     2
 10
936.575
 20
1354.05
 30
1.155
 40
11.55
  1
　　　Ａ
 50
0.0
 41
0.9
 51
0.0
  7
KANJI24
  0
TEXT
  8
0
  6
CONTINUOUS
 62
     2
 10
858.42
 20
1367.525
 30
1.155
 40
11.55
  1
電圧／周波数
 50
0.0
 41
0.9
 51
0.0
  7
KANJI24
  0
TEXT
  8
0
  6
CONTINUOUS
 62
     2
 10
858.42
 20
1354.05
 30
1.155
 40
11.55
  1
　Ｖ／Ｈｚ
 50
0.0
 41
0.9
 51
0.0
  7
KANJI24
  0
TEXT
  8
0
  6
CONTINUOUS
 62
     2
 10
858.42
 20
1332.875
 30
1.155
 40
11.55
  1
４００／５０
 50
0.0
 41
0.9
 51
0.0
  7
KANJI24
  0
TEXT
  8
0
  6
CONTINUOUS
 62
     2
 10
858.42
 20
1309.775
 30
1.155
 40
11.55
  1
４００／６０
 50
0.0
 41
0.9
 51
0.0
  7
KANJI24
  0
TEXT
  8
0
  6
CONTINUOUS
 62
     2
 10
858.42
 20
1286.675
 30
1.155
 40
11.55
  1
４４０／６０
 50
0.0
 41
0.9
 51
0.0
  7
KANJI24
  0
TEXT
  8
0
  6
CONTINUOUS
 62
     2
 10
936.575
 20
1332.875
 30
1.155
 40
11.55
  1
　２．０
 50
0.0
 41
0.9
 51
0.0
  7
KANJI24
  0
TEXT
  8
0
  6
CONTINUOUS
 62
     2
 10
936.575
 20
1309.775
 30
1.155
 40
11.55
  1
　１．４
 50
0.0
 41
0.9
 51
0.0
  7
KANJI24
  0
TEXT
  8
0
  6
CONTINUOUS
 62
     2
 10
936.575
 20
1286.675
 30
1.155
 40
11.55
  1
　１．７
 50
0.0
 41
0.9
 51
0.0
  7
KANJI24
  0
TEXT
  8
0
  6
CONTINUOUS
 62
     2
 10
1167.575
 20
1332.875
 30
1.155
 40
11.55
  1
　４．０
 50
0.0
 41
0.9
 51
0.0
  7
KANJI24
  0
TEXT
  8
0
  6
CONTINUOUS
 62
     2
 10
1167.575
 20
1309.775
 30
1.155
 40
11.55
  1
　２．８
 50
0.0
 41
0.9
 51
0.0
  7
KANJI24
  0
TEXT
  8
0
  6
CONTINUOUS
 62
     2
 10
1167.575
 20
1286.675
 30
1.155
 40
11.55
  1
　３．３
 50
0.0
 41
0.9
 51
0.0
  7
KANJI24
  0
TEXT
  8
0
  6
CONTINUOUS
 62
     2
 10
1225.325
 20
1332.875
 30
1.155
 40
11.55
  1
　９．２
 50
0.0
 41
0.9
 51
0.0
  7
KANJI24
  0
TEXT
  8
0
  6
CONTINUOUS
 62
     2
 10
1225.325
 20
1309.775
 30
1.155
 40
11.55
  1
　８
 50
0.0
 41
0.9
 51
0.0
  7
KANJI24
  0
TEXT
  8
0
  6
CONTINUOUS
 62
     2
 10
1225.325
 20
1286.675
 30
1.155
 40
11.55
  1
　８．８
 50
0.0
 41
0.9
 51
0.0
  7
KANJI24
  0
TEXT
  8
0
  6
CONTINUOUS
 62
     2
 10
994.325
 20
1332.875
 30
1.155
 40
11.55
  1
　４．６
 50
0.0
 41
0.9
 51
0.0
  7
KANJI24
  0
TEXT
  8
0
  6
CONTINUOUS
 62
     2
 10
994.325
 20
1309.775
 30
1.155
 40
11.55
  1
　４
 50
0.0
 41
0.9
 51
0.0
  7
KANJI24
  0
TEXT
  8
0
  6
CONTINUOUS
 62
     2
 10
994.325
 20
1286.675
 30
1.155
 40
11.55
  1
　４．４
 50
0.0
 41
0.9
 51
0.0
  7
KANJI24
  0
LINE
  8
0
  6
CONTINUOUS
 62
     2
 10
851.0
 20
1171.95
 30
0.0
 11
1499.0
 21
1171.95
 31
0.0
  0
LINE
  8
0
  6
CONTINUOUS
 62
     2
 10
851.0
 20
1143.95
 30
0.0
 11
1499.0
 21
1143.95
 31
0.0
  0
LINE
  8
0
  6
CONTINUOUS
 62
     2
 10
851.0
 20
1115.95
 30
0.0
 11
1499.0
 21
1115.95
 31
0.0
  0
LINE
  8
0
  6
CONTINUOUS
 62
     2
 10
851.0
 20
1059.95
 30
0.0
 11
1499.0
 21
1059.95
 31
0.0
  0
LINE
  8
0
  6
CONTINUOUS
 62
     2
 10
851.0
 20
1087.95
 30
0.0
 11
1499.0
 21
1087.95
 31
0.0
  0
LINE
  8
0
  6
CONTINUOUS
 62
     2
 10
851.0
 20
1003.95
 30
0.0
 11
1499.0
 21
1003.95
 31
0.0
  0
LINE
  8
0
  6
CONTINUOUS
 62
     2
 10
851.0
 20
1031.95
 30
0.0
 11
1499.0
 21
1031.95
 31
0.0
  0
TEXT
  8
0
  6
CONTINUOUS
 62
     2
 10
1437.0
 20
1178.65
 30
1.2
 40
12.0
  1
　　３９
 50
0.0
 41
0.9
 51
0.0
  7
KANJI18
  0
TEXT
  8
0
  6
CONTINUOUS
 62
     2
 10
1437.0
 20
1150.65
 30
1.2
 40
12.0
  1
　　４０
 50
0.0
 41
0.9
 51
0.0
  7
KANJI18
  0
TEXT
  8
0
  6
CONTINUOUS
 62
     2
 10
1437.0
 20
1122.65
 30
1.2
 40
12.0
  1
　　４１
 50
0.0
 41
0.9
 51
0.0
  7
KANJI18
  0
TEXT
  8
0
  6
CONTINUOUS
 62
     2
 10
1557.5
 20
195.0
 30
0.0
 40
17.5
  1
ＭＤ０３－ＪＮ
 50
0.0
 41
0.793650794
 51
0.0
  7
KANJI25
  0
TEXT
  8
0
  6
CONTINUOUS
 62
     2
 10
1653.1666945
 20
114.999995
 30
10.833333333
 40
25.0
  1
３００２４０４
 50
0.0
 41
0.8
 51
0.0
  7
KANJI26
  0
TEXT
  8
0
  6
CONTINUOUS
 62
     2
 10
864.0
 20
1178.35
 30
0.8
 40
12.0
  1
ＭＤ０３　　－　　１ＪＮ
 50
0.0
 41
0.833333333
 51
0.0
  7
KANJI27
  0
TEXT
  8
0
  6
CONTINUOUS
 62
     2
 10
864.0
 20
1150.35
 30
0.8
 40
12.0
  1
ＭＤ０３　　－　　２ＪＮ
 50
0.0
 41
0.833333333
 51
0.0
  7
KANJI27
  0
TEXT
  8
0
  6
CONTINUOUS
 62
     2
 10
864.0
 20
1122.35
 30
0.8
 40
12.0
  1
ＭＤ０３　　－　　３ＪＮ
 50
0.0
 41
0.833333333
 51
0.0
  7
KANJI27
  0
TEXT
  8
0
  6
CONTINUOUS
 62
     2
 10
864.0
 20
1094.35
 30
0.8
 40
12.0
  1
ＭＤ０３　　－　　４ＪＮ
 50
0.0
 41
0.833333333
 51
0.0
  7
KANJI27
  0
TEXT
  8
0
  6
CONTINUOUS
 62
     2
 10
864.0
 20
1066.35
 30
0.8
 40
12.0
  1
ＭＤ０３　　－　　５ＪＮ
 50
0.0
 41
0.833333333
 51
0.0
  7
KANJI27
  0
TEXT
  8
0
  6
CONTINUOUS
 62
     2
 10
864.0
 20
1038.35
 30
0.8
 40
12.0
  1
ＭＤ０３　　－　　６ＪＮ
 50
0.0
 41
0.833333333
 51
0.0
  7
KANJI27
  0
TEXT
  8
0
  6
CONTINUOUS
 62
     2
 10
864.0
 20
1010.35
 30
0.8
 40
12.0
  1
ＭＤ０３　　－　　７ＪＮ
 50
0.0
 41
0.833333333
 51
0.0
  7
KANJI27
  0
LINE
  8
0
  6
LTYPE2
 62
     6
 10
103.7
 20
1363.2
 30
0.0
 11
103.7
 21
941.2
 31
0.0
  0
TEXT
  8
0
  6
CONTINUOUS
 62
     6
 10
209.784969981
 20
947.924681697
 30
0.0
 40
14.192561787
  1
２カム端子台　接続図
 50
0.0
 41
0.880962996
 51
0.0
  7
KANJI28
  0
TEXT
  8
0
  6
CONTINUOUS
 62
     6
 10
516.784969981
 20
947.924681697
 30
0.0
 40
14.192561787
  1
４カム端子台　接続図
 50
0.0
 41
0.880962996
 51
0.0
  7
KANJI28
  0
LINE
  8
0
  6
LTYPE2
 62
     6
 10
733.1
 20
1363.2
 30
0.0
 11
103.7
 21
1363.2
 31
0.0
  0
LINE
  8
0
  6
LTYPE2
 62
     6
 10
733.1
 20
941.2
 30
0.0
 11
733.1
 21
1363.2
 31
0.0
  0
LINE
  8
0
  6
LTYPE2
 62
     6
 10
103.7
 20
941.2
 30
0.0
 11
733.1
 21
941.2
 31
0.0
  0
CIRCLE
  8
0
  6
CONTINUOUS
 62
     6
 10
225.745344119
 20
1024.118961258
 30
0.0
 40
3.280171213
  0
LINE
  8
0
  6
CONTINUOUS
 62
     6
 10
225.948112346
 20
1020.763083116
 30
0.0
 11
229.079687816
 21
1002.895038632
 31
0.0
  0
LINE
  8
0
  6
CONTINUOUS
 62
     6
 10
225.948112346
 20
1020.763083116
 30
0.0
 11
229.729174562
 21
1021.393260152
 31
0.0
  0
LINE
  8
0
  6
CONTINUOUS
 62
     6
 10
229.729174562
 20
1021.393260152
 30
0.0
 11
232.860996297
 21
1003.525256713
 31
0.0
  0
LINE
  8
0
  6
CONTINUOUS
 62
     6
 10
225.745344119
 20
1027.39913247
 30
0.0
 11
225.745344119
 21
1033.994098925
 31
0.0
  0
LINE
  8
0
  6
CONTINUOUS
 62
     6
 10
268.266082063
 20
1033.994098925
 30
0.0
 11
225.745344119
 21
1033.994098925
 31
0.0
  0
LINE
  8
0
  6
CONTINUOUS
 62
     6
 10
268.266082063
 20
991.029930429
 30
0.0
 11
268.266082063
 21
1033.994098925
 31
0.0
  0
CIRCLE
  8
0
  6
CONTINUOUS
 62
     6
 10
332.047188979
 20
1024.118961258
 30
0.0
 40
3.280171213
  0
LINE
  8
0
  6
CONTINUOUS
 62
     6
 10
331.844420752
 20
1020.763083116
 30
0.0
 11
328.712845282
 21
1002.895038632
 31
0.0
  0
LINE
  8
0
  6
CONTINUOUS
 62
     6
 10
331.844420752
 20
1020.763083116
 30
0.0
 11
328.063358536
 21
1021.393260152
 31
0.0
  0
LINE
  8
0
  6
CONTINUOUS
 62
     6
 10
328.063358536
 20
1021.393260152
 30
0.0
 11
324.931536801
 21
1003.525256713
 31
0.0
  0
LINE
  8
0
  6
CONTINUOUS
 62
     6
 10
332.047188979
 20
1027.39913247
 30
0.0
 11
332.047188979
 21
1033.994098925
 31
0.0
  0
LINE
  8
0
  6
CONTINUOUS
 62
     6
 10
289.526451035
 20
1033.994098925
 30
0.0
 11
332.047188979
 21
1033.994098925
 31
0.0
  0
LINE
  8
0
  6
CONTINUOUS
 62
     6
 10
289.526451035
 20
991.029930429
 30
0.0
 11
289.526451035
 21
1033.994098925
 31
0.0
  0
LINE
  8
0
  6
CONTINUOUS
 62
     2
 10
300.156635521
 20
1074.728121884
 30
0.0
 11
300.156635521
 21
1056.504948479
 31
0.0
  0
LINE
  8
0
  6
CONTINUOUS
 62
     2
 10
321.417004493
 20
1074.728121884
 30
0.0
 11
321.417004493
 21
1056.504948479
 31
0.0
  0
LINE
  8
0
  6
CONTINUOUS
 62
     2
 10
342.677373465
 20
1074.728121884
 30
0.0
 11
342.677373465
 21
1056.504948479
 31
0.0
  0
LINE
  8
0
  6
CONTINUOUS
 62
     2
 10
363.937742437
 20
1074.728121884
 30
0.0
 11
363.937742437
 21
1056.504948479
 31
0.0
  0
CIRCLE
  8
0
  6
CONTINUOUS
 62
     6
 10
247.005713091
 20
1085.937195845
 30
0.0
 40
3.280171213
  0
LINE
  8
0
  6
CONTINUOUS
 62
     6
 10
246.802944864
 20
1104.46127457
 30
0.0
 11
243.671369395
 21
1086.593230087
 31
0.0
  0
LINE
  8
0
  6
CONTINUOUS
 62
     6
 10
243.021882648
 20
1105.091451606
 30
0.0
 11
239.890060913
 21
1087.223448168
 31
0.0
  0
LINE
  8
0
  6
CONTINUOUS
 62
     6
 10
243.671369395
 20
1086.593230087
 30
0.0
 11
239.890060913
 21
1087.223448168
 31
0.0
  0
CIRCLE
  8
0
  6
CONTINUOUS
 62
     6
 10
357.602152483
 20
1093.51196159
 30
0.0
 40
3.280171213
  0
LINE
  8
0
  6
CONTINUOUS
 62
     6
 10
354.32198127
 20
1093.51196159
 30
0.0
 11
353.307557951
 21
1093.51196159
 31
0.0
  0
LINE
  8
0
  6
CONTINUOUS
 62
     6
 10
374.365158695
 20
1104.46127457
 30
0.0
 11
371.233583226
 21
1086.593230087
 31
0.0
  0
LINE
  8
0
  6
CONTINUOUS
 62
     6
 10
370.58409648
 20
1105.091451606
 30
0.0
 11
367.452274745
 21
1087.223448168
 31
0.0
  0
LINE
  8
0
  6
CONTINUOUS
 62
     6
 10
371.233583226
 20
1086.593230087
 30
0.0
 11
367.452274745
 21
1087.223448168
 31
0.0
  0
CIRCLE
  8
0
  6
CONTINUOUS
 62
     6
 10
374.567926922
 20
1085.937195845
 30
0.0
 40
3.280171213
  0
LINE
  8
0
  6
CONTINUOUS
 62
     6
 10
247.005713091
 20
1082.657024632
 30
0.0
 11
247.005713091
 21
1074.728121884
 31
0.0
  0
LINE
  8
0
  6
CONTINUOUS
 62
     6
 10
225.745344119
 20
1117.69229038
 30
0.0
 11
225.745344119
 21
1074.728121884
 31
0.0
  0
LINE
  8
0
  6
CONTINUOUS
 62
     6
 10
374.567926922
 20
1082.657024632
 30
0.0
 11
374.567926922
 21
1074.728121884
 31
0.0
  0
LINE
  8
0
  6
CONTINUOUS
 62
     6
 10
353.307557951
 20
1093.51196159
 30
0.0
 11
353.307557951
 21
1074.728121884
 31
0.0
  0
LINE
  8
0
  6
CONTINUOUS
 62
     6
 10
332.047188979
 20
1074.728121884
 30
0.0
 11
332.047188979
 21
1117.69229038
 31
0.0
  0
LINE
  8
0
  6
CONTINUOUS
 62
     6
 10
268.46885029
 20
1104.46127457
 30
0.0
 11
271.600425759
 21
1086.593230087
 31
0.0
  0
LINE
  8
0
  6
CONTINUOUS
 62
     6
 10
272.249912506
 20
1105.091451606
 30
0.0
 11
275.381734241
 21
1087.223448168
 31
0.0
  0
LINE
  8
0
  6
CONTINUOUS
 62
     6
 10
271.600425759
 20
1086.593230087
 30
0.0
 11
275.381734241
 21
1087.223448168
 31
0.0
  0
CIRCLE
  8
0
  6
CONTINUOUS
 62
     6
 10
268.266082063
 20
1085.937195845
 30
0.0
 40
3.280171213
  0
CIRCLE
  8
0
  6
CONTINUOUS
 62
     6
 10
285.231856503
 20
1093.51196159
 30
0.0
 40
3.280171213
  0
LINE
  8
0
  6
CONTINUOUS
 62
     6
 10
288.512027715
 20
1093.51196159
 30
0.0
 11
289.526451035
 21
1093.51196159
 31
0.0
  0
LINE
  8
0
  6
CONTINUOUS
 62
     6
 10
268.266082063
 20
1082.657024632
 30
0.0
 11
268.266082063
 21
1074.728121884
 31
0.0
  0
LINE
  8
0
  6
CONTINUOUS
 62
     6
 10
289.526451035
 20
1093.51196159
 30
0.0
 11
289.526451035
 21
1074.728121884
 31
0.0
  0
LINE
  8
0
  6
CONTINUOUS
 62
     6
 10
310.786820007
 20
1074.728121884
 30
0.0
 11
310.786820007
 21
1117.69229038
 31
0.0
  0
LINE
  8
0
  6
CONTINUOUS
 62
     2
 10
385.198111408
 20
1074.728121884
 30
0.0
 11
385.198111408
 21
1056.504948479
 31
0.0
  0
LINE
  8
0
  6
CONTINUOUS
 62
     2
 10
215.115159633
 20
1074.728121884
 30
0.0
 11
215.115159633
 21
1056.504948479
 31
0.0
  0
LINE
  8
0
  6
CONTINUOUS
 62
     2
 10
236.375528605
 20
1074.728121884
 30
0.0
 11
236.375528605
 21
1056.504948479
 31
0.0
  0
LINE
  8
0
  6
CONTINUOUS
 62
     2
 10
257.635897577
 20
1074.728121884
 30
0.0
 11
257.635897577
 21
1056.504948479
 31
0.0
  0
LINE
  8
0
  6
CONTINUOUS
 62
     2
 10
278.896266549
 20
1074.728121884
 30
0.0
 11
278.896266549
 21
1056.504948479
 31
0.0
  0
LINE
  8
0
  6
CONTINUOUS
 62
     2
 10
172.59442169
 20
1074.728121884
 30
0.0
 11
172.59442169
 21
1056.504948479
 31
0.0
  0
LINE
  8
0
  6
CONTINUOUS
 62
     2
 10
193.854790662
 20
1074.728121884
 30
0.0
 11
193.854790662
 21
1056.504948479
 31
0.0
  0
LINE
  8
0
  6
CONTINUOUS
 62
     2
 10
130.073683746
 20
1074.728121884
 30
0.0
 11
385.198111408
 21
1074.728121884
 31
0.0
  0
LINE
  8
0
  6
CONTINUOUS
 62
     2
 10
130.073683746
 20
1056.504948479
 30
0.0
 11
385.198111408
 21
1056.504948479
 31
0.0
  0
CIRCLE
  8
0
  6
CONTINUOUS
 62
     6
 10
247.005713091
 20
1107.817152712
 30
0.0
 40
3.280171213
  0
LINE
  8
0
  6
CONTINUOUS
 62
     6
 10
246.802944864
 20
1104.46127457
 30
0.0
 11
243.021882648
 21
1105.091451606
 31
0.0
  0
LINE
  8
0
  6
CONTINUOUS
 62
     6
 10
247.005713091
 20
1111.097323925
 30
0.0
 11
247.005713091
 21
1117.69229038
 31
0.0
  0
LINE
  8
0
  6
CONTINUOUS
 62
     6
 10
247.005713091
 20
1117.69229038
 30
0.0
 11
225.745344119
 21
1117.69229038
 31
0.0
  0
LINE
  8
0
  6
CONTINUOUS
 62
     6
 10
374.567926922
 20
1117.69229038
 30
0.0
 11
332.047188979
 21
1117.69229038
 31
0.0
  0
CIRCLE
  8
0
  6
CONTINUOUS
 62
     6
 10
374.567926922
 20
1107.817152712
 30
0.0
 40
3.280171213
  0
LINE
  8
0
  6
CONTINUOUS
 62
     6
 10
374.365158695
 20
1104.46127457
 30
0.0
 11
370.58409648
 21
1105.091451606
 31
0.0
  0
LINE
  8
0
  6
CONTINUOUS
 62
     6
 10
374.567926922
 20
1111.097323925
 30
0.0
 11
374.567926922
 21
1117.69229038
 31
0.0
  0
CIRCLE
  8
0
  6
CONTINUOUS
 62
     6
 10
268.266082063
 20
1107.817152712
 30
0.0
 40
3.280171213
  0
LINE
  8
0
  6
CONTINUOUS
 62
     6
 10
268.46885029
 20
1104.46127457
 30
0.0
 11
272.249912506
 21
1105.091451606
 31
0.0
  0
LINE
  8
0
  6
CONTINUOUS
 62
     6
 10
268.266082063
 20
1111.097323925
 30
0.0
 11
268.266082063
 21
1117.69229038
 31
0.0
  0
LINE
  8
0
  6
CONTINUOUS
 62
     6
 10
310.786820007
 20
1117.69229038
 30
0.0
 11
268.266082063
 21
1117.69229038
 31
0.0
  0
TEXT
  8
0
  6
CONTINUOUS
 62
     6
 10
223.867666479
 20
1121.307602995
 30
0.6552
 40
9.36
  1
ＬＳＡ
 50
0.0
 41
0.8
 51
0.0
  7
KANJI29
  0
TEXT
  8
0
  6
CONTINUOUS
 62
     6
 10
272.076508909
 20
1121.307602995
 30
0.6552
 40
9.36
  1
ＬＳ０１
 50
0.0
 41
0.8
 51
0.0
  7
KANJI29
  0
TEXT
  8
0
  6
CONTINUOUS
 62
     6
 10
338.172655825
 20
1121.307602995
 30
0.6552
 40
9.36
  1
ＬＳ０２
 50
0.0
 41
0.8
 51
0.0
  7
KANJI29
  0
TEXT
  8
0
  6
CONTINUOUS
 62
     6
 10
296.182317881
 20
1037.322240021
 30
0.6552
 40
9.36
  1
ＬＳ１２
 50
0.0
 41
0.8
 51
0.0
  7
KANJI29
  0
TEXT
  8
0
  6
CONTINUOUS
 62
     6
 10
230.086170965
 20
1037.322240021
 30
0.6552
 40
9.36
  1
ＬＳ１１
 50
0.0
 41
0.8
 51
0.0
  7
KANJI29
  0
LINE
  8
0
  6
CONTINUOUS
 62
     2
 10
215.115159633
 20
991.029930429
 30
0.0
 11
215.115159633
 21
972.806757024
 31
0.0
  0
LINE
  8
0
  6
CONTINUOUS
 62
     2
 10
193.854790662
 20
991.029930429
 30
0.0
 11
193.854790662
 21
972.806757024
 31
0.0
  0
LINE
  8
0
  6
CONTINUOUS
 62
     2
 10
172.59442169
 20
991.029930429
 30
0.0
 11
172.59442169
 21
972.806757024
 31
0.0
  0
LINE
  8
0
  6
CONTINUOUS
 62
     2
 10
236.375528605
 20
991.029930429
 30
0.0
 11
236.375528605
 21
972.806757024
 31
0.0
  0
LINE
  8
0
  6
CONTINUOUS
 62
     2
 10
257.635897577
 20
991.029930429
 30
0.0
 11
257.635897577
 21
972.806757024
 31
0.0
  0
LINE
  8
0
  6
CONTINUOUS
 62
     2
 10
278.896266549
 20
991.029930429
 30
0.0
 11
278.896266549
 21
972.806757024
 31
0.0
  0
LINE
  8
0
  6
CONTINUOUS
 62
     2
 10
300.156635521
 20
991.029930429
 30
0.0
 11
300.156635521
 21
972.806757024
 31
0.0
  0
LINE
  8
0
  6
CONTINUOUS
 62
     2
 10
321.417004493
 20
991.029930429
 30
0.0
 11
321.417004493
 21
972.806757024
 31
0.0
  0
LINE
  8
0
  6
CONTINUOUS
 62
     6
 10
229.079687816
 20
1002.895038632
 30
0.0
 11
232.860996297
 21
1003.525256713
 31
0.0
  0
CIRCLE
  8
0
  6
CONTINUOUS
 62
     6
 10
225.745344119
 20
1002.23900439
 30
0.0
 40
3.280171213
  0
CIRCLE
  8
0
  6
CONTINUOUS
 62
     6
 10
242.711118559
 20
1009.813770135
 30
0.0
 40
3.280171213
  0
LINE
  8
0
  6
CONTINUOUS
 62
     6
 10
245.991289772
 20
1009.813770135
 30
0.0
 11
247.005713091
 21
1009.813770135
 31
0.0
  0
LINE
  8
0
  6
CONTINUOUS
 62
     6
 10
225.745344119
 20
998.958833177
 30
0.0
 11
225.745344119
 21
991.029930429
 31
0.0
  0
LINE
  8
0
  6
CONTINUOUS
 62
     6
 10
247.005713091
 20
1009.813770135
 30
0.0
 11
247.005713091
 21
991.029930429
 31
0.0
  0
LINE
  8
0
  6
CONTINUOUS
 62
     6
 10
328.712845282
 20
1002.895038632
 30
0.0
 11
324.931536801
 21
1003.525256713
 31
0.0
  0
CIRCLE
  8
0
  6
CONTINUOUS
 62
     6
 10
332.047188979
 20
1002.23900439
 30
0.0
 40
3.280171213
  0
CIRCLE
  8
0
  6
CONTINUOUS
 62
     6
 10
315.081414539
 20
1009.813770135
 30
0.0
 40
3.280171213
  0
LINE
  8
0
  6
CONTINUOUS
 62
     6
 10
311.801243326
 20
1009.813770135
 30
0.0
 11
310.786820007
 21
1009.813770135
 31
0.0
  0
LINE
  8
0
  6
CONTINUOUS
 62
     6
 10
332.047188979
 20
998.958833177
 30
0.0
 11
332.047188979
 21
991.029930429
 31
0.0
  0
LINE
  8
0
  6
CONTINUOUS
 62
     6
 10
310.786820007
 20
1009.813770135
 30
0.0
 11
310.786820007
 21
991.029930429
 31
0.0
  0
LINE
  8
0
  6
CONTINUOUS
 62
     2
 10
342.677373465
 20
991.029930429
 30
0.0
 11
342.677373465
 21
972.806757024
 31
0.0
  0
LINE
  8
0
  6
CONTINUOUS
 62
     2
 10
172.59442169
 20
991.029930429
 30
0.0
 11
342.677373465
 21
991.029930429
 31
0.0
  0
LINE
  8
0
  6
CONTINUOUS
 62
     2
 10
172.59442169
 20
972.806757024
 30
0.0
 11
342.677373465
 21
972.806757024
 31
0.0
  0
TEXT
  8
0
  6
CONTINUOUS
 62
     3
 10
220.898139596
 20
975.269872592
 30
0.0
 40
11.9808
  1
２１　２２　２３　２４　　２５　　２６　　
 50
0.0
 41
0.9125
 51
0.0
  7
KANJI30
  0
LINE
  8
0
  6
CONTINUOUS
 62
     2
 10
130.073683746
 20
1074.728121884
 30
0.0
 11
130.073683746
 21
1056.504948479
 31
0.0
  0
LINE
  8
0
  6
CONTINUOUS
 62
     2
 10
151.334052718
 20
1074.728121884
 30
0.0
 11
151.334052718
 21
1056.504948479
 31
0.0
  0
LINE
  8
0
  6
CONTINUOUS
 62
     2
 10
607.156635521
 20
1074.728121884
 30
0.0
 11
607.156635521
 21
1056.504948479
 31
0.0
  0
LINE
  8
0
  6
CONTINUOUS
 62
     2
 10
628.417004493
 20
1074.728121884
 30
0.0
 11
628.417004493
 21
1056.504948479
 31
0.0
  0
LINE
  8
0
  6
CONTINUOUS
 62
     2
 10
649.677373465
 20
1074.728121884
 30
0.0
 11
649.677373465
 21
1056.504948479
 31
0.0
  0
LINE
  8
0
  6
CONTINUOUS
 62
     2
 10
670.937742437
 20
1074.728121884
 30
0.0
 11
670.937742437
 21
1056.504948479
 31
0.0
  0
LINE
  8
0
  6
CONTINUOUS
 62
     6
 10
554.005713091
 20
1082.657024632
 30
0.0
 11
554.005713091
 21
1074.728121884
 31
0.0
  0
LINE
  8
0
  6
CONTINUOUS
 62
     6
 10
532.745344119
 20
1117.69229038
 30
0.0
 11
532.745344119
 21
1074.728121884
 31
0.0
  0
LINE
  8
0
  6
CONTINUOUS
 62
     6
 10
681.567926922
 20
1082.657024632
 30
0.0
 11
681.567926922
 21
1074.728121884
 31
0.0
  0
LINE
  8
0
  6
CONTINUOUS
 62
     6
 10
660.307557951
 20
1093.51196159
 30
0.0
 11
660.307557951
 21
1074.728121884
 31
0.0
  0
LINE
  8
0
  6
CONTINUOUS
 62
     6
 10
639.047188979
 20
1074.728121884
 30
0.0
 11
639.047188979
 21
1117.69229038
 31
0.0
  0
LINE
  8
0
  6
CONTINUOUS
 62
     6
 10
575.266082063
 20
1082.657024632
 30
0.0
 11
575.266082063
 21
1074.728121884
 31
0.0
  0
LINE
  8
0
  6
CONTINUOUS
 62
     6
 10
596.526451035
 20
1093.51196159
 30
0.0
 11
596.526451035
 21
1074.728121884
 31
0.0
  0
LINE
  8
0
  6
CONTINUOUS
 62
     6
 10
617.786820007
 20
1074.728121884
 30
0.0
 11
617.786820007
 21
1117.69229038
 31
0.0
  0
LINE
  8
0
  6
CONTINUOUS
 62
     2
 10
692.198111408
 20
1074.728121884
 30
0.0
 11
692.198111408
 21
1056.504948479
 31
0.0
  0
LINE
  8
0
  6
CONTINUOUS
 62
     2
 10
522.115159633
 20
1074.728121884
 30
0.0
 11
522.115159633
 21
1056.504948479
 31
0.0
  0
LINE
  8
0
  6
CONTINUOUS
 62
     2
 10
543.375528605
 20
1074.728121884
 30
0.0
 11
543.375528605
 21
1056.504948479
 31
0.0
  0
LINE
  8
0
  6
CONTINUOUS
 62
     2
 10
564.635897577
 20
1074.728121884
 30
0.0
 11
564.635897577
 21
1056.504948479
 31
0.0
  0
LINE
  8
0
  6
CONTINUOUS
 62
     2
 10
585.896266549
 20
1074.728121884
 30
0.0
 11
585.896266549
 21
1056.504948479
 31
0.0
  0
LINE
  8
0
  6
CONTINUOUS
 62
     2
 10
479.59442169
 20
1074.728121884
 30
0.0
 11
479.59442169
 21
1056.504948479
 31
0.0
  0
LINE
  8
0
  6
CONTINUOUS
 62
     2
 10
500.854790662
 20
1074.728121884
 30
0.0
 11
500.854790662
 21
1056.504948479
 31
0.0
  0
LINE
  8
0
  6
CONTINUOUS
 62
     2
 10
437.073683746
 20
1074.728121884
 30
0.0
 11
692.198111408
 21
1074.728121884
 31
0.0
  0
LINE
  8
0
  6
CONTINUOUS
 62
     2
 10
437.073683746
 20
1056.504948479
 30
0.0
 11
692.198111408
 21
1056.504948479
 31
0.0
  0
LINE
  8
0
  6
CONTINUOUS
 62
     2
 10
437.073683746
 20
1074.728121884
 30
0.0
 11
437.073683746
 21
1056.504948479
 31
0.0
  0
LINE
  8
0
  6
CONTINUOUS
 62
     2
 10
458.334052718
 20
1074.728121884
 30
0.0
 11
458.334052718
 21
1056.504948479
 31
0.0
  0
CIRCLE
  8
0
  6
CONTINUOUS
 62
     6
 10
554.005713091
 20
1085.937195845
 30
0.0
 40
3.280171213
  0
LINE
  8
0
  6
CONTINUOUS
 62
     6
 10
553.802944864
 20
1104.46127457
 30
0.0
 11
550.671369395
 21
1086.593230087
 31
0.0
  0
LINE
  8
0
  6
CONTINUOUS
 62
     6
 10
550.021882648
 20
1105.091451606
 30
0.0
 11
546.890060913
 21
1087.223448168
 31
0.0
  0
LINE
  8
0
  6
CONTINUOUS
 62
     6
 10
550.671369395
 20
1086.593230087
 30
0.0
 11
546.890060913
 21
1087.223448168
 31
0.0
  0
CIRCLE
  8
0
  6
CONTINUOUS
 62
     6
 10
664.602152483
 20
1093.51196159
 30
0.0
 40
3.280171213
  0
LINE
  8
0
  6
CONTINUOUS
 62
     6
 10
661.32198127
 20
1093.51196159
 30
0.0
 11
660.307557951
 21
1093.51196159
 31
0.0
  0
LINE
  8
0
  6
CONTINUOUS
 62
     6
 10
681.365158695
 20
1104.46127457
 30
0.0
 11
678.233583226
 21
1086.593230087
 31
0.0
  0
LINE
  8
0
  6
CONTINUOUS
 62
     6
 10
677.58409648
 20
1105.091451606
 30
0.0
 11
674.452274745
 21
1087.223448168
 31
0.0
  0
LINE
  8
0
  6
CONTINUOUS
 62
     6
 10
678.233583226
 20
1086.593230087
 30
0.0
 11
674.452274745
 21
1087.223448168
 31
0.0
  0
CIRCLE
  8
0
  6
CONTINUOUS
 62
     6
 10
681.567926922
 20
1085.937195845
 30
0.0
 40
3.280171213
  0
LINE
  8
0
  6
CONTINUOUS
 62
     6
 10
575.46885029
 20
1104.46127457
 30
0.0
 11
578.600425759
 21
1086.593230087
 31
0.0
  0
LINE
  8
0
  6
CONTINUOUS
 62
     6
 10
579.249912506
 20
1105.091451606
 30
0.0
 11
582.381734241
 21
1087.223448168
 31
0.0
  0
LINE
  8
0
  6
CONTINUOUS
 62
     6
 10
578.600425759
 20
1086.593230087
 30
0.0
 11
582.381734241
 21
1087.223448168
 31
0.0
  0
CIRCLE
  8
0
  6
CONTINUOUS
 62
     6
 10
575.266082063
 20
1085.937195845
 30
0.0
 40
3.280171213
  0
CIRCLE
  8
0
  6
CONTINUOUS
 62
     6
 10
592.231856503
 20
1093.51196159
 30
0.0
 40
3.280171213
  0
LINE
  8
0
  6
CONTINUOUS
 62
     6
 10
595.512027715
 20
1093.51196159
 30
0.0
 11
596.526451035
 21
1093.51196159
 31
0.0
  0
CIRCLE
  8
0
  6
CONTINUOUS
 62
     6
 10
554.005713091
 20
1107.817152712
 30
0.0
 40
3.280171213
  0
LINE
  8
0
  6
CONTINUOUS
 62
     6
 10
553.802944864
 20
1104.46127457
 30
0.0
 11
550.021882648
 21
1105.091451606
 31
0.0
  0
LINE
  8
0
  6
CONTINUOUS
 62
     6
 10
554.005713091
 20
1111.097323925
 30
0.0
 11
554.005713091
 21
1117.69229038
 31
0.0
  0
LINE
  8
0
  6
CONTINUOUS
 62
     6
 10
554.005713091
 20
1117.69229038
 30
0.0
 11
532.745344119
 21
1117.69229038
 31
0.0
  0
LINE
  8
0
  6
CONTINUOUS
 62
     6
 10
681.567926922
 20
1117.69229038
 30
0.0
 11
639.047188979
 21
1117.69229038
 31
0.0
  0
CIRCLE
  8
0
  6
CONTINUOUS
 62
     6
 10
681.567926922
 20
1107.817152712
 30
0.0
 40
3.280171213
  0
LINE
  8
0
  6
CONTINUOUS
 62
     6
 10
681.365158695
 20
1104.46127457
 30
0.0
 11
677.58409648
 21
1105.091451606
 31
0.0
  0
LINE
  8
0
  6
CONTINUOUS
 62
     6
 10
681.567926922
 20
1111.097323925
 30
0.0
 11
681.567926922
 21
1117.69229038
 31
0.0
  0
CIRCLE
  8
0
  6
CONTINUOUS
 62
     6
 10
575.266082063
 20
1107.817152712
 30
0.0
 40
3.280171213
  0
LINE
  8
0
  6
CONTINUOUS
 62
     6
 10
575.46885029
 20
1104.46127457
 30
0.0
 11
579.249912506
 21
1105.091451606
 31
0.0
  0
LINE
  8
0
  6
CONTINUOUS
 62
     6
 10
575.266082063
 20
1111.097323925
 30
0.0
 11
575.266082063
 21
1117.69229038
 31
0.0
  0
LINE
  8
0
  6
CONTINUOUS
 62
     6
 10
617.786820007
 20
1117.69229038
 30
0.0
 11
575.266082063
 21
1117.69229038
 31
0.0
  0
TEXT
  8
0
  6
CONTINUOUS
 62
     6
 10
530.867666479
 20
1121.307602995
 30
0.6552
 40
9.36
  1
ＬＳＡ
 50
0.0
 41
0.8
 51
0.0
  7
KANJI29
  0
TEXT
  8
0
  6
CONTINUOUS
 62
     6
 10
579.076508909
 20
1121.307602995
 30
0.6552
 40
9.36
  1
ＬＳ０１
 50
0.0
 41
0.8
 51
0.0
  7
KANJI29
  0
TEXT
  8
0
  6
CONTINUOUS
 62
     6
 10
645.172655825
 20
1121.307602995
 30
0.6552
 40
9.36
  1
ＬＳ０２
 50
0.0
 41
0.8
 51
0.0
  7
KANJI29
  0
CIRCLE
  8
0
  6
CONTINUOUS
 62
     6
 10
447.703868232
 20
1024.118961258
 30
0.0
 40
3.280171213
  0
LINE
  8
0
  6
CONTINUOUS
 62
     6
 10
447.906636459
 20
1020.763083116
 30
0.0
 11
451.038211928
 21
1002.895038632
 31
0.0
  0
LINE
  8
0
  6
CONTINUOUS
 62
     6
 10
447.906636459
 20
1020.763083116
 30
0.0
 11
451.687698675
 21
1021.393260152
 31
0.0
  0
LINE
  8
0
  6
CONTINUOUS
 62
     6
 10
451.687698675
 20
1021.393260152
 30
0.0
 11
454.81952041
 21
1003.525256713
 31
0.0
  0
LINE
  8
0
  6
CONTINUOUS
 62
     6
 10
447.703868232
 20
1027.39913247
 30
0.0
 11
447.703868232
 21
1033.994098925
 31
0.0
  0
LINE
  8
0
  6
CONTINUOUS
 62
     6
 10
490.224606176
 20
1033.994098925
 30
0.0
 11
447.703868232
 21
1033.994098925
 31
0.0
  0
LINE
  8
0
  6
CONTINUOUS
 62
     6
 10
490.224606176
 20
991.029930429
 30
0.0
 11
490.224606176
 21
1033.994098925
 31
0.0
  0
CIRCLE
  8
0
  6
CONTINUOUS
 62
     6
 10
554.005713091
 20
1024.118961258
 30
0.0
 40
3.280171213
  0
LINE
  8
0
  6
CONTINUOUS
 62
     6
 10
553.802944864
 20
1020.763083116
 30
0.0
 11
550.671369395
 21
1002.895038632
 31
0.0
  0
LINE
  8
0
  6
CONTINUOUS
 62
     6
 10
553.802944864
 20
1020.763083116
 30
0.0
 11
550.021882648
 21
1021.393260152
 31
0.0
  0
LINE
  8
0
  6
CONTINUOUS
 62
     6
 10
550.021882648
 20
1021.393260152
 30
0.0
 11
546.890060913
 21
1003.525256713
 31
0.0
  0
LINE
  8
0
  6
CONTINUOUS
 62
     6
 10
554.005713091
 20
1027.39913247
 30
0.0
 11
554.005713091
 21
1033.994098925
 31
0.0
  0
LINE
  8
0
  6
CONTINUOUS
 62
     6
 10
511.484975147
 20
1033.994098925
 30
0.0
 11
554.005713091
 21
1033.994098925
 31
0.0
  0
LINE
  8
0
  6
CONTINUOUS
 62
     6
 10
511.484975147
 20
991.029930429
 30
0.0
 11
511.484975147
 21
1033.994098925
 31
0.0
  0
TEXT
  8
0
  6
CONTINUOUS
 62
     6
 10
518.140841993
 20
1037.322240021
 30
0.6552
 40
9.36
  1
ＬＳ１２
 50
0.0
 41
0.8
 51
0.0
  7
KANJI29
  0
TEXT
  8
0
  6
CONTINUOUS
 62
     6
 10
452.044695078
 20
1037.322240021
 30
0.6552
 40
9.36
  1
ＬＳ１１
 50
0.0
 41
0.8
 51
0.0
  7
KANJI29
  0
LINE
  8
0
  6
CONTINUOUS
 62
     2
 10
437.073683746
 20
991.029930429
 30
0.0
 11
437.073683746
 21
972.806757024
 31
0.0
  0
LINE
  8
0
  6
CONTINUOUS
 62
     2
 10
458.334052718
 20
991.029930429
 30
0.0
 11
458.334052718
 21
972.806757024
 31
0.0
  0
LINE
  8
0
  6
CONTINUOUS
 62
     2
 10
479.59442169
 20
991.029930429
 30
0.0
 11
479.59442169
 21
972.806757024
 31
0.0
  0
LINE
  8
0
  6
CONTINUOUS
 62
     2
 10
500.854790662
 20
991.029930429
 30
0.0
 11
500.854790662
 21
972.806757024
 31
0.0
  0
LINE
  8
0
  6
CONTINUOUS
 62
     2
 10
522.115159633
 20
991.029930429
 30
0.0
 11
522.115159633
 21
972.806757024
 31
0.0
  0
LINE
  8
0
  6
CONTINUOUS
 62
     2
 10
543.375528605
 20
991.029930429
 30
0.0
 11
543.375528605
 21
972.806757024
 31
0.0
  0
LINE
  8
0
  6
CONTINUOUS
 62
     6
 10
451.038211928
 20
1002.895038632
 30
0.0
 11
454.81952041
 21
1003.525256713
 31
0.0
  0
CIRCLE
  8
0
  6
CONTINUOUS
 62
     6
 10
447.703868232
 20
1002.23900439
 30
0.0
 40
3.280171213
  0
CIRCLE
  8
0
  6
CONTINUOUS
 62
     6
 10
464.669642671
 20
1009.813770135
 30
0.0
 40
3.280171213
  0
LINE
  8
0
  6
CONTINUOUS
 62
     6
 10
467.949813884
 20
1009.813770135
 30
0.0
 11
468.964237204
 21
1009.813770135
 31
0.0
  0
LINE
  8
0
  6
CONTINUOUS
 62
     6
 10
447.703868232
 20
998.958833177
 30
0.0
 11
447.703868232
 21
991.029930429
 31
0.0
  0
LINE
  8
0
  6
CONTINUOUS
 62
     6
 10
468.964237204
 20
1009.813770135
 30
0.0
 11
468.964237204
 21
991.029930429
 31
0.0
  0
LINE
  8
0
  6
CONTINUOUS
 62
     6
 10
550.671369395
 20
1002.895038632
 30
0.0
 11
546.890060913
 21
1003.525256713
 31
0.0
  0
CIRCLE
  8
0
  6
CONTINUOUS
 62
     6
 10
554.005713091
 20
1002.23900439
 30
0.0
 40
3.280171213
  0
CIRCLE
  8
0
  6
CONTINUOUS
 62
     6
 10
537.039938652
 20
1009.813770135
 30
0.0
 40
3.280171213
  0
LINE
  8
0
  6
CONTINUOUS
 62
     6
 10
533.759767439
 20
1009.813770135
 30
0.0
 11
532.745344119
 21
1009.813770135
 31
0.0
  0
LINE
  8
0
  6
CONTINUOUS
 62
     6
 10
554.005713091
 20
998.958833177
 30
0.0
 11
554.005713091
 21
991.029930429
 31
0.0
  0
LINE
  8
0
  6
CONTINUOUS
 62
     6
 10
532.745344119
 20
1009.813770135
 30
0.0
 11
532.745344119
 21
991.029930429
 31
0.0
  0
LINE
  8
0
  6
CONTINUOUS
 62
     2
 10
564.635897577
 20
991.029930429
 30
0.0
 11
564.635897577
 21
972.806757024
 31
0.0
  0
TEXT
  8
0
  6
CONTINUOUS
 62
     3
 10
442.856663709
 20
975.269872592
 30
0.0
 40
11.9808
  1
２１　２２　２３　２４　　２５　　２６　　
 50
0.0
 41
0.9125
 51
0.0
  7
KANJI30
  0
LINE
  8
0
  6
CONTINUOUS
 62
     2
 10
437.073683746
 20
972.806757024
 30
0.0
 11
564.635897577
 21
972.806757024
 31
0.0
  0
LINE
  8
0
  6
CONTINUOUS
 62
     2
 10
437.073683746
 20
991.029930429
 30
0.0
 11
564.635897577
 21
991.029930429
 31
0.0
  0
CIRCLE
  8
0
  6
CONTINUOUS
 62
     6
 10
575.266082063
 20
1024.118961258
 30
0.0
 40
3.280171213
  0
LINE
  8
0
  6
CONTINUOUS
 62
     6
 10
575.46885029
 20
1020.763083116
 30
0.0
 11
578.600425759
 21
1002.895038632
 31
0.0
  0
LINE
  8
0
  6
CONTINUOUS
 62
     6
 10
575.46885029
 20
1020.763083116
 30
0.0
 11
579.249912506
 21
1021.393260152
 31
0.0
  0
LINE
  8
0
  6
CONTINUOUS
 62
     6
 10
579.249912506
 20
1021.393260152
 30
0.0
 11
582.381734241
 21
1003.525256713
 31
0.0
  0
LINE
  8
0
  6
CONTINUOUS
 62
     6
 10
575.266082063
 20
1027.39913247
 30
0.0
 11
575.266082063
 21
1033.994098925
 31
0.0
  0
LINE
  8
0
  6
CONTINUOUS
 62
     6
 10
617.786820007
 20
1033.994098925
 30
0.0
 11
575.266082063
 21
1033.994098925
 31
0.0
  0
LINE
  8
0
  6
CONTINUOUS
 62
     6
 10
617.786820007
 20
991.029930429
 30
0.0
 11
617.786820007
 21
1033.994098925
 31
0.0
  0
CIRCLE
  8
0
  6
CONTINUOUS
 62
     6
 10
681.567926922
 20
1024.118961258
 30
0.0
 40
3.280171213
  0
LINE
  8
0
  6
CONTINUOUS
 62
     6
 10
681.365158695
 20
1020.763083116
 30
0.0
 11
678.233583226
 21
1002.895038632
 31
0.0
  0
LINE
  8
0
  6
CONTINUOUS
 62
     6
 10
681.365158695
 20
1020.763083116
 30
0.0
 11
677.58409648
 21
1021.393260152
 31
0.0
  0
LINE
  8
0
  6
CONTINUOUS
 62
     6
 10
677.58409648
 20
1021.393260152
 30
0.0
 11
674.452274745
 21
1003.525256713
 31
0.0
  0
LINE
  8
0
  6
CONTINUOUS
 62
     6
 10
681.567926922
 20
1027.39913247
 30
0.0
 11
681.567926922
 21
1033.994098925
 31
0.0
  0
LINE
  8
0
  6
CONTINUOUS
 62
     6
 10
639.047188979
 20
1033.994098925
 30
0.0
 11
681.567926922
 21
1033.994098925
 31
0.0
  0
LINE
  8
0
  6
CONTINUOUS
 62
     6
 10
639.047188979
 20
991.029930429
 30
0.0
 11
639.047188979
 21
1033.994098925
 31
0.0
  0
LINE
  8
0
  6
CONTINUOUS
 62
     2
 10
585.896266549
 20
991.029930429
 30
0.0
 11
585.896266549
 21
972.806757024
 31
0.0
  0
LINE
  8
0
  6
CONTINUOUS
 62
     2
 10
607.156635521
 20
991.029930429
 30
0.0
 11
607.156635521
 21
972.806757024
 31
0.0
  0
LINE
  8
0
  6
CONTINUOUS
 62
     2
 10
628.417004493
 20
991.029930429
 30
0.0
 11
628.417004493
 21
972.806757024
 31
0.0
  0
LINE
  8
0
  6
CONTINUOUS
 62
     2
 10
649.677373465
 20
991.029930429
 30
0.0
 11
649.677373465
 21
972.806757024
 31
0.0
  0
LINE
  8
0
  6
CONTINUOUS
 62
     2
 10
670.937742437
 20
991.029930429
 30
0.0
 11
670.937742437
 21
972.806757024
 31
0.0
  0
LINE
  8
0
  6
CONTINUOUS
 62
     6
 10
578.600425759
 20
1002.895038632
 30
0.0
 11
582.381734241
 21
1003.525256713
 31
0.0
  0
CIRCLE
  8
0
  6
CONTINUOUS
 62
     6
 10
575.266082063
 20
1002.23900439
 30
0.0
 40
3.280171213
  0
CIRCLE
  8
0
  6
CONTINUOUS
 62
     6
 10
592.231856503
 20
1009.813770135
 30
0.0
 40
3.280171213
  0
LINE
  8
0
  6
CONTINUOUS
 62
     6
 10
595.512027715
 20
1009.813770135
 30
0.0
 11
596.526451035
 21
1009.813770135
 31
0.0
  0
LINE
  8
0
  6
CONTINUOUS
 62
     6
 10
575.266082063
 20
998.958833177
 30
0.0
 11
575.266082063
 21
991.029930429
 31
0.0
  0
LINE
  8
0
  6
CONTINUOUS
 62
     6
 10
596.526451035
 20
1009.813770135
 30
0.0
 11
596.526451035
 21
991.029930429
 31
0.0
  0
LINE
  8
0
  6
CONTINUOUS
 62
     6
 10
678.233583226
 20
1002.895038632
 30
0.0
 11
674.452274745
 21
1003.525256713
 31
0.0
  0
CIRCLE
  8
0
  6
CONTINUOUS
 62
     6
 10
681.567926922
 20
1002.23900439
 30
0.0
 40
3.280171213
  0
CIRCLE
  8
0
  6
CONTINUOUS
 62
     6
 10
664.602152483
 20
1009.813770135
 30
0.0
 40
3.280171213
  0
LINE
  8
0
  6
CONTINUOUS
 62
     6
 10
661.32198127
 20
1009.813770135
 30
0.0
 11
660.307557951
 21
1009.813770135
 31
0.0
  0
LINE
  8
0
  6
CONTINUOUS
 62
     6
 10
681.567926922
 20
998.958833177
 30
0.0
 11
681.567926922
 21
991.029930429
 31
0.0
  0
LINE
  8
0
  6
CONTINUOUS
 62
     6
 10
660.307557951
 20
1009.813770135
 30
0.0
 11
660.307557951
 21
991.029930429
 31
0.0
  0
LINE
  8
0
  6
CONTINUOUS
 62
     2
 10
692.198111408
 20
991.029930429
 30
0.0
 11
692.198111408
 21
972.806757024
 31
0.0
  0
LINE
  8
0
  6
CONTINUOUS
 62
     2
 10
564.635897577
 20
972.806757024
 30
0.0
 11
692.198111408
 21
972.806757024
 31
0.0
  0
LINE
  8
0
  6
CONTINUOUS
 62
     2
 10
564.635897577
 20
991.029930429
 30
0.0
 11
692.198111408
 21
991.029930429
 31
0.0
  0
TEXT
  8
0
  6
CONTINUOUS
 62
     3
 10
570.41887754
 20
975.269872592
 30
0.0
 40
11.9808
  1
２７　２８　２９　３０　　３１　　３２　　
 50
0.0
 41
0.9125
 51
0.0
  7
KANJI30
  0
TEXT
  8
0
  6
CONTINUOUS
 62
     6
 10
579.606908909
 20
1037.322240021
 30
0.6552
 40
9.36
  1
ＬＳ１３
 50
0.0
 41
0.8
 51
0.0
  7
KANJI29
  0
TEXT
  8
0
  6
CONTINUOUS
 62
     6
 10
645.703055825
 20
1037.322240021
 30
0.6552
 40
9.36
  1
ＬＳ１４
 50
0.0
 41
0.8
 51
0.0
  7
KANJI29
  0
TEXT
  8
0
  6
CONTINUOUS
 62
     3
 10
134.32575754
 20
1059.542144047
 30
0.0
 40
12.0
  1
　　　　　　　　　　　　４０　４１　１　　２　　　３　　　４　　　５　　　６
 50
0.0
 41
0.911
 51
0.0
  7
KANJI31
  0
TEXT
  8
0
  6
CONTINUOUS
 62
     6
 10
119.573517202
 20
1338.94592676
 30
0.0
 40
11.661
  1
ＬＳ０１　　　：推力リミッタ（前進時過負荷用）
 50
0.0
 41
0.943315325
 51
0.0
  7
KANJI32
  0
TEXT
  8
0
  6
CONTINUOUS
 62
     6
 10
119.573517202
 20
1311.48342676
 30
0.0
 40
11.661
  1
ＬＳ０２　　　：推力リミッタ（後進時過負荷用）
 50
0.0
 41
0.943315325
 51
0.0
  7
KANJI32
  0
TEXT
  8
0
  6
CONTINUOUS
 62
     6
 10
119.573517202
 20
1284.02092676
 30
0.0
 40
11.661
  1
ＬＳＡ　　　　：安全リミットスイッチ
 50
0.0
 41
0.943315325
 51
0.0
  7
KANJI32
  0
TEXT
  8
0
  6
CONTINUOUS
 62
     6
 10
119.573517202
 20
1256.55842676
 30
0.0
 40
11.661
  1
ＬＳ１１，１２：位置リミットスイッチ　［２カム用］
 50
0.0
 41
0.943315325
 51
0.0
  7
KANJI32
  0
TEXT
  8
0
  6
CONTINUOUS
 62
     6
 10
119.573517202
 20
1229.09592676
 30
0.0
 40
11.661
  1
ＬＳ１１～１４：位置リミットスイッチ　［４カム用］
 50
0.0
 41
0.943315325
 51
0.0
  7
KANJI32
  0
LINE
  8
0
  6
CONTINUOUS
 62
     6
 10
398.616631728
 20
1335.747759827
 30
0.0
 11
115.664646507
 21
1335.747759827
 31
0.0
  0
LINE
  8
0
  6
CONTINUOUS
 62
     6
 10
398.616631728
 20
1308.285259827
 30
0.0
 11
115.664646507
 21
1308.285259827
 31
0.0
  0
LINE
  8
0
  6
CONTINUOUS
 62
     6
 10
398.616631728
 20
1280.822759827
 30
0.0
 11
115.664646507
 21
1280.822759827
 31
0.0
  0
LINE
  8
0
  6
CONTINUOUS
 62
     6
 10
398.616631728
 20
1253.360259827
 30
0.0
 11
115.664646507
 21
1253.360259827
 31
0.0
  0
LINE
  8
0
  6
CONTINUOUS
 62
     6
 10
398.616631728
 20
1225.897759827
 30
0.0
 11
115.664646507
 21
1225.897759827
 31
0.0
  0
LINE
  8
0
  6
LTYPE2
 62
     2
 10
410.0
 20
1128.0
 30
0.0
 11
410.0
 21
948.0
 31
0.0
  0
TEXT
  8
0
  6
CONTINUOUS
 62
     6
 10
340.270009781
 20
1162.173707402
 30
0.0
 40
15.0
  1
ポジショナ内端子台配列
 50
0.0
 41
0.9
 51
0.0
  7
KANJI23
  0
LINE
  8
0
  6
LTYPE2
 62
     6
 10
233.396929694
 20
906.0
 30
0.0
 11
103.0
 21
906.0
 31
0.0
  0
CIRCLE
  8
0
  6
CONTINUOUS
 62
     6
 10
103.0
 20
886.318972723
 30
0.0
 40
4.373561617
  0
LINE
  8
0
  6
CONTINUOUS
 62
     6
 10
97.97521631
 20
881.294189033
 30
0.0
 11
108.180193417
 21
891.49916614
 31
0.0
  0
TEXT
  8
0
  6
CONTINUOUS
 62
     6
 10
113.245473047
 20
914.666131352
 30
1.518597784
 40
15.185977837
  1
エコノストップモータ
 50
0.0
 41
0.66671875
 51
0.0
  7
KANJI33
  0
CIRCLE
  8
0
  6
CONTINUOUS
 62
     6
 10
147.829006575
 20
860.806529957
 30
0.0
 40
18.223173404
  0
TEXT
  8
0
  6
CONTINUOUS
 62
     6
 10
140.175273745
 20
852.059406723
 30
1.82231734
 40
18.223173404
  1
Ｍ
 50
0.0
 41
0.9
 51
0.0
  7
KANJI34
  0
LINE
  8
0
  6
CONTINUOUS
 62
     6
 10
123.774417681
 20
835.294087191
 30
0.0
 11
135.072785192
 21
848.414772042
 31
0.0
  0
LINE
  8
0
  6
CONTINUOUS
 62
     6
 10
123.774417681
 20
886.318972723
 30
0.0
 11
135.072785192
 21
873.198287872
 31
0.0
  0
LINE
  8
0
  6
CONTINUOUS
 62
     6
 10
123.774417681
 20
886.318972723
 30
0.0
 11
107.373561617
 21
886.318972723
 31
0.0
  0
LINE
  8
0
  6
CONTINUOUS
 62
     6
 10
129.970296639
 20
860.806529957
 30
0.0
 11
107.373561617
 21
860.806529957
 31
0.0
  0
LINE
  8
0
  6
CONTINUOUS
 62
     6
 10
123.774417681
 20
835.294087191
 30
0.0
 11
107.373561617
 21
835.294087191
 31
0.0
  0
CIRCLE
  8
0
  6
CONTINUOUS
 62
     6
 10
103.0
 20
860.806529957
 30
0.0
 40
4.373561617
  0
LINE
  8
0
  6
CONTINUOUS
 62
     6
 10
97.97521631
 20
855.781746267
 30
0.0
 11
108.180193417
 21
865.986723374
 31
0.0
  0
CIRCLE
  8
0
  6
CONTINUOUS
 62
     6
 10
103.0
 20
835.294087191
 30
0.0
 40
4.373561617
  0
LINE
  8
0
  6
CONTINUOUS
 62
     6
 10
97.97521631
 20
830.269303501
 30
0.0
 11
108.180193417
 21
840.474280607
 31
0.0
  0
LINE
  8
0
  6
LTYPE2
 62
     6
 10
233.396929694
 20
810.588267891
 30
0.0
 11
103.0
 21
810.588267891
 31
0.0
  0
TEXT
  8
0
  6
CONTINUOUS
 62
     2
 10
108.095393364
 20
785.378904811
 30
0.0
 40
15.6
  1
モーター結線図
 50
0.0
 41
0.925
 51
0.0
  7
KANJI35
  0
TEXT
  8
0
  6
CONTINUOUS
 62
     6
 10
174.070376277
 20
852.551432405
 30
1.457853872
 40
14.578538724
  1
Ｂ
 50
0.0
 41
0.9
 51
0.0
  7
KANJI36
  0
CIRCLE
  8
0
  6
CONTINUOUS
 62
     6
 10
180.630718703
 20
860.806529957
 30
0.0
 40
14.578538724
  0
LINE
  8
0
  6
LTYPE2
 62
     6
 10
233.396929694
 20
810.588267891
 30
0.0
 11
233.396929694
 21
906.0
 31
0.0
  0
LINE
  8
0
  6
LTYPE2
 62
     6
 10
103.0
 20
906.0
 30
0.0
 11
103.0
 21
889.599143936
 31
0.0
  0
TEXT
  8
0
  6
CONTINUOUS
 62
     6
 10
85.465257591
 20
892.514851681
 30
1.093390404
 40
10.933904043
  1
Ｕ
 50
0.0
 41
0.9
 51
0.0
  7
KANJI37
  0
TEXT
  8
0
  6
CONTINUOUS
 62
     6
 10
86.558647995
 20
866.637945446
 30
1.093390404
 40
10.933904043
  1
Ｖ
 50
0.0
 41
0.9
 51
0.0
  7
KANJI37
  0
TEXT
  8
0
  6
CONTINUOUS
 62
     6
 10
87.652038399
 20
840.761039212
 30
1.093390404
 40
10.933904043
  1
Ｗ
 50
0.0
 41
0.9
 51
0.0
  7
KANJI37
  0
LINE
  8
0
  6
LTYPE2
 62
     6
 10
103.0
 20
882.309874574
 30
0.0
 11
103.0
 21
864.08670117
 31
0.0
  0
LINE
  8
0
  6
LTYPE2
 62
     6
 10
103.0
 20
856.797431808
 30
0.0
 11
103.0
 21
839.667648808
 31
0.0
  0
LINE
  8
0
  6
LTYPE2
 62
     6
 10
103.0
 20
830.920525574
 30
0.0
 11
103.0
 21
810.588267891
 31
0.0
  0
LINE
  8
0
  6
CONTINUOUS
 62
     1
 10
446.0
 20
718.2
 30
0.0
 11
483.0
 21
718.2
 31
0.0
  0
LINE
  8
0
  6
CONTINUOUS
 62
     1
 10
446.0
 20
699.2
 30
0.0
 11
446.0
 21
718.2
 31
0.0
  0
ARC
  8
0
  6
CONTINUOUS
 62
     1
 10
440.0
 20
699.2
 30
0.0
 40
6.0
 50
270.0
 51
360.0
  0
ARC
  8
0
  6
CONTINUOUS
 62
     1
 10
468.0
 20
696.2
 30
0.0
 40
3.0
 50
270.0
 51
360.0
  0
ARC
  8
0
  6
CONTINUOUS
 62
     1
 10
468.0
 20
643.2
 30
0.0
 40
3.0
 50
270.0
 51
0.0
  0
LINE
  8
0
  6
CONTINUOUS
 62
     1
 10
471.0
 20
697.152380952
 30
0.0
 11
475.0
 21
718.2
 31
0.0
  0
LINE
  8
0
  6
CONTINUOUS
 62
     1
 10
471.0
 20
643.2
 30
0.0
 11
471.0
 21
697.152380952
 31
0.0
  0
CIRCLE
  8
0
  6
CONTINUOUS
 62
     1
 10
459.0
 20
738.2
 30
0.0
 40
12.5
  0
ARC
  8
0
  6
CONTINUOUS
 62
     1
 10
459.0
 20
738.2
 30
0.0
 40
20.5
 50
300.423432294
 51
0.0
  0
ARC
  8
0
  6
CONTINUOUS
 62
     1
 10
469.947984073
 20
719.473488336
 30
0.0
 40
1.2
 50
118.393405187
 51
188.554293104
  0
ARC
  8
0
  6
CONTINUOUS
 62
     1
 10
448.052015927
 20
719.473488336
 30
0.0
 40
1.2
 50
351.445706896
 51
61.606594813
  0
ARC
  8
0
  6
CONTINUOUS
 62
     1
 10
459.0
 20
738.2
 30
0.0
 40
20.5
 50
0.0
 51
239.707348078
  0
LINE
  8
0
  6
CONTINUOUS
 62
     1
 10
468.885714286
 20
718.2
 30
0.0
 11
468.2
 21
724.2
 31
0.0
  0
CIRCLE
  8
0
  6
CONTINUOUS
 62
     1
 10
553.0
 20
548.2
 30
0.0
 40
20.0
  0
CIRCLE
  8
0
  6
CONTINUOUS
 62
     1
 10
553.0
 20
548.2
 30
0.0
 40
8.0
  0
ARC
  8
0
  6
CONTINUOUS
 62
     1
 10
489.0
 20
497.2
 30
0.0
 40
2.0
 50
270.0
 51
0.0
  0
LINE
  8
0
  6
CONTINUOUS
 62
     1
 10
494.0
 20
585.2
 30
0.0
 11
651.0
 21
585.2
 31
0.0
  0
LINE
  8
0
  6
CONTINUOUS
 62
     1
 10
494.0
 20
511.2
 30
0.0
 11
577.0
 21
511.2
 31
0.0
  0
ARC
  8
0
  6
CONTINUOUS
 62
     1
 10
494.0
 20
508.2
 30
0.0
 40
3.0
 50
87.047798252
 51
176.185925166
  0
ARC
  8
0
  6
CONTINUOUS
 62
     1
 10
493.8
 20
588.2
 30
0.0
 40
3.0
 50
177.893372153
 51
273.822553727
  0
LINE
  8
0
  6
CONTINUOUS
 62
     1
 10
659.0
 20
588.2
 30
0.0
 11
659.0
 21
508.2
 31
0.0
  0
LINE
  8
0
  6
CONTINUOUS
 62
     1
 10
651.0
 20
588.2
 30
0.0
 11
659.0
 21
588.2
 31
0.0
  0
LINE
  8
0
  6
CONTINUOUS
 62
     1
 10
651.0
 20
508.2
 30
0.0
 11
659.0
 21
508.2
 31
0.0
  0
LINE
  8
0
  6
CONTINUOUS
 62
     1
 10
651.0
 20
549.7
 30
0.0
 11
659.0
 21
549.7
 31
0.0
  0
LINE
  8
0
  6
CONTINUOUS
 62
     1
 10
651.0
 20
546.7
 30
0.0
 11
659.0
 21
546.7
 31
0.0
  0
LINE
  8
0
  6
CONTINUOUS
 62
     1
 10
577.0
 20
525.2
 30
0.0
 11
651.0
 21
525.2
 31
0.0
  0
LINE
  8
0
  6
CONTINUOUS
 62
     1
 10
483.0
 20
495.2
 30
0.0
 11
489.0
 21
495.2
 31
0.0
  0
LINE
  8
0
  6
CONTINUOUS
 62
     1
 10
483.0
 20
650.0
 30
0.0
 11
483.0
 21
658.2
 31
0.0
  0
LINE
  8
0
  6
CONTINUOUS
 62
     1
 10
483.0
 20
650.0
 30
0.0
 11
483.0
 21
658.2
 31
0.0
  0
LINE
  8
0
  6
LTYPE3
 62
     2
 10
477.4
 20
658.2
 30
0.0
 11
489.4
 21
658.2
 31
0.0
  0
LINE
  8
0
  6
LTYPE3
 62
     2
 10
477.4
 20
658.2
 30
0.0
 11
489.4
 21
658.2
 31
0.0
  0
LINE
  8
0
  6
CONTINUOUS
 62
     1
 10
423.0
 20
693.2
 30
0.0
 11
468.0
 21
693.2
 31
0.0
  0
LINE
  8
0
  6
CONTINUOUS
 62
     1
 10
423.0
 20
640.2
 30
0.0
 11
468.0
 21
640.2
 31
0.0
  0
LINE
  8
0
  6
CONTINUOUS
 62
     1
 10
363.0
 20
473.2
 30
0.0
 11
363.0
 21
683.2
 31
0.0
  0
LINE
  8
0
  6
CONTINUOUS
 62
     1
 10
351.0
 20
660.7
 30
0.0
 11
351.0
 21
683.2
 31
0.0
  0
LINE
  8
0
  6
CONTINUOUS
 62
     1
 10
351.0
 20
473.2
 30
0.0
 11
351.0
 21
494.7
 31
0.0
  0
LINE
  8
0
  6
CONTINUOUS
 62
     1
 10
351.0
 20
683.2
 30
0.0
 11
423.0
 21
683.2
 31
0.0
  0
ARC
  8
0
  6
CONTINUOUS
 62
     1
 10
273.0
 20
628.151792817
 30
0.0
 40
5.0
 50
96.869992308
 51
180.0
  0
LINE
  8
0
  6
CONTINUOUS
 62
     1
 10
302.401915587
 20
677.344809107
 30
0.0
 11
351.0
 21
683.2
 31
0.0
  0
ARC
  8
0
  6
CONTINUOUS
 62
     1
 10
303.0
 20
672.38070848
 30
0.0
 40
5.0
 50
96.869992308
 51
180.0
  0
LINE
  8
0
  6
CONTINUOUS
 62
     1
 10
268.0
 20
487.633749351
 30
0.0
 11
268.0
 21
628.151792817
 31
0.0
  0
LINE
  8
0
  6
CONTINUOUS
 62
     1
 10
272.401915587
 20
482.669648724
 30
0.0
 11
351.0
 21
473.2
 31
0.0
  0
ARC
  8
0
  6
CONTINUOUS
 62
     1
 10
273.0
 20
487.633749351
 30
0.0
 40
5.0
 50
180.0
 51
263.130007692
  0
LINE
  8
0
  6
CONTINUOUS
 62
     1
 10
351.0
 20
495.2
 30
0.0
 11
268.0
 21
499.787101573
 31
0.0
  0
LINE
  8
0
  6
CONTINUOUS
 62
     1
 10
351.0
 20
661.2
 30
0.0
 11
298.0
 21
658.270886947
 31
0.0
  0
LINE
  8
0
  6
CONTINUOUS
 62
     1
 10
293.0
 20
643.2
 30
0.0
 11
293.0
 21
673.2
 31
0.0
  0
LINE
  8
0
  6
CONTINUOUS
 62
     1
 10
294.0
 20
643.2
 30
0.0
 11
294.0
 21
673.2
 31
0.0
  0
LINE
  8
0
  6
CONTINUOUS
 62
     1
 10
273.0
 20
643.2
 30
0.0
 11
298.0
 21
643.2
 31
0.0
  0
LINE
  8
0
  6
CONTINUOUS
 62
     1
 10
273.0
 20
643.2
 30
0.0
 11
273.0
 21
673.2
 31
0.0
  0
LINE
  8
0
  6
CONTINUOUS
 62
     1
 10
273.0
 20
673.2
 30
0.0
 11
298.0
 21
673.2
 31
0.0
  0
LINE
  8
0
  6
CONTINUOUS
 62
     1
 10
272.401915587
 20
633.115893444
 30
0.0
 11
295.358850648
 21
635.881789235
 31
0.0
  0
LINE
  8
0
  6
CONTINUOUS
 62
     1
 10
298.0
 20
638.860249611
 30
0.0
 11
298.0
 21
672.38070848
 31
0.0
  0
ARC
  8
0
  6
CONTINUOUS
 62
     1
 10
295.0
 20
638.860249611
 30
0.0
 40
3.0
 50
276.869992308
 51
0.0
  0
CIRCLE
  8
0
  6
CONTINUOUS
 62
     1
 10
553.0
 20
548.2
 30
0.0
 40
26.0
  0
LINE
  8
0
  6
CONTINUOUS
 62
     1
 10
577.0
 20
535.7
 30
0.0
 11
577.0
 21
503.2
 31
0.0
  0
LINE
  8
0
  6
CONTINUOUS
 62
     1
 10
577.0
 20
503.2
 30
0.0
 11
651.0
 21
503.2
 31
0.0
  0
LINE
  8
0
  6
CONTINUOUS
 62
     1
 10
651.0
 20
588.2
 30
0.0
 11
651.0
 21
503.2
 31
0.0
  0
LINE
  8
0
  6
CONTINUOUS
 62
     1
 10
363.0
 20
473.2
 30
0.0
 11
423.0
 21
473.2
 31
0.0
  0
LINE
  8
0
  6
CONTINUOUS
 62
     1
 10
351.0
 20
473.2
 30
0.0
 11
363.0
 21
473.2
 31
0.0
  0
LINE
  8
0
  6
CONTINUOUS
 62
     1
 10
364.5
 20
473.2
 30
0.0
 11
364.5
 21
683.2
 31
0.0
  0
CIRCLE
  8
0
  6
CONTINUOUS
 62
     1
 10
392.5
 20
562.2
 30
0.0
 40
15.0
  0
CIRCLE
  8
0
  6
CONTINUOUS
 62
     2
 10
392.5
 20
562.2
 30
0.0
 40
16.5
  0
LINE
  8
0
  6
LTYPE2
 62
     2
 10
370.0
 20
562.2
 30
0.0
 11
413.5
 21
562.2
 31
0.0
  0
LINE
  8
0
  6
CONTINUOUS
 62
     1
 10
521.2
 20
489.55
 30
0.0
 11
521.2
 21
461.85
 31
0.0
  0
LINE
  8
0
  6
CONTINUOUS
 62
     1
 10
526.0
 20
461.85
 30
0.0
 11
521.2
 21
461.85
 31
0.0
  0
LINE
  8
0
  6
CONTINUOUS
 62
     1
 10
526.0
 20
489.55
 30
0.0
 11
521.2
 21
489.55
 31
0.0
  0
LINE
  8
0
  6
CONTINUOUS
 62
     1
 10
516.0
 20
490.35
 30
0.0
 11
516.0
 21
461.05
 31
0.0
  0
LINE
  8
0
  6
CONTINUOUS
 62
     1
 10
516.0
 20
490.35
 30
0.0
 11
503.0
 21
490.35
 31
0.0
  0
ARC
  8
0
  6
CONTINUOUS
 62
     1
 10
503.0
 20
488.35
 30
0.0
 40
2.0
 50
90.0
 51
180.0
  0
LINE
  8
0
  6
CONTINUOUS
 62
     1
 10
516.0
 20
461.05
 30
0.0
 11
503.0
 21
461.05
 31
0.0
  0
LINE
  8
0
  6
CONTINUOUS
 62
     1
 10
501.0
 20
488.35
 30
0.0
 11
501.0
 21
463.05
 31
0.0
  0
ARC
  8
0
  6
CONTINUOUS
 62
     1
 10
503.0
 20
463.05
 30
0.0
 40
2.0
 50
180.0
 51
270.0
  0
LINE
  8
0
  6
CONTINUOUS
 62
     1
 10
501.0
 20
480.2
 30
0.0
 11
482.748213067
 21
480.2
 31
0.0
  0
ARC
  8
0
  6
CONTINUOUS
 62
     1
 10
482.748213067
 20
485.2
 30
0.0
 40
5.0
 50
222.273689006
 51
270.0
  0
LINE
  8
0
  6
CONTINUOUS
 62
     1
 10
501.0
 20
471.2
 30
0.0
 11
481.839122158
 21
471.2
 31
0.0
  0
ARC
  8
0
  6
CONTINUOUS
 62
     1
 10
481.839122158
 20
486.2
 30
0.0
 40
15.0
 50
222.273689006
 51
270.0
  0
LINE
  8
0
  6
CONTINUOUS
 62
     6
 10
505.0
 20
488.35
 30
0.0
 11
516.0
 21
488.35
 31
0.0
  0
LINE
  8
0
  6
CONTINUOUS
 62
     6
 10
505.0
 20
483.55
 30
0.0
 11
516.0
 21
483.55
 31
0.0
  0
LINE
  8
0
  6
CONTINUOUS
 62
     6
 10
505.0
 20
483.55
 30
0.0
 11
505.0
 21
488.35
 31
0.0
  0
LINE
  8
0
  6
CONTINUOUS
 62
     6
 10
505.0
 20
479.45
 30
0.0
 11
516.0
 21
479.45
 31
0.0
  0
LINE
  8
0
  6
CONTINUOUS
 62
     6
 10
505.0
 20
463.05
 30
0.0
 11
516.0
 21
463.05
 31
0.0
  0
LINE
  8
0
  6
CONTINUOUS
 62
     6
 10
505.0
 20
471.95
 30
0.0
 11
516.0
 21
471.95
 31
0.0
  0
LINE
  8
0
  6
CONTINUOUS
 62
     6
 10
505.0
 20
467.85
 30
0.0
 11
516.0
 21
467.85
 31
0.0
  0
LINE
  8
0
  6
CONTINUOUS
 62
     6
 10
505.0
 20
467.85
 30
0.0
 11
505.0
 21
463.05
 31
0.0
  0
LINE
  8
0
  6
CONTINUOUS
 62
     6
 10
505.0
 20
471.95
 30
0.0
 11
505.0
 21
479.45
 31
0.0
  0
LINE
  8
0
  6
CONTINUOUS
 62
     6
 10
521.2
 20
463.0
 30
0.0
 11
516.0
 21
463.0
 31
0.0
  0
LINE
  8
0
  6
CONTINUOUS
 62
     6
 10
521.2
 20
463.8
 30
0.0
 11
516.0
 21
463.8
 31
0.0
  0
LINE
  8
0
  6
CONTINUOUS
 62
     6
 10
521.2
 20
488.4
 30
0.0
 11
516.0
 21
488.4
 31
0.0
  0
LINE
  8
0
  6
CONTINUOUS
 62
     6
 10
521.2
 20
487.6
 30
0.0
 11
516.0
 21
487.6
 31
0.0
  0
LINE
  8
0
  6
CONTINUOUS
 62
     6
 10
526.0
 20
482.6
 30
0.0
 11
521.2
 21
482.6
 31
0.0
  0
LINE
  8
0
  6
CONTINUOUS
 62
     6
 10
526.0
 20
468.8
 30
0.0
 11
521.2
 21
468.8
 31
0.0
  0
LINE
  8
0
  6
CONTINUOUS
 62
     1
 10
526.0
 20
458.7
 30
0.0
 11
659.0
 21
458.7
 31
0.0
  0
LINE
  8
0
  6
CONTINUOUS
 62
     1
 10
569.0
 20
501.7
 30
0.0
 11
656.0
 21
501.7
 31
0.0
  0
ARC
  8
0
  6
CONTINUOUS
 62
     1
 10
656.0
 20
498.7
 30
0.0
 40
3.0
 50
0.0
 51
90.0
  0
LINE
  8
0
  6
CONTINUOUS
 62
     1
 10
526.0
 20
458.7
 30
0.0
 11
526.0
 21
497.7
 31
0.0
  0
LINE
  8
0
  6
CONTINUOUS
 62
     1
 10
529.0
 20
500.7
 30
0.0
 11
569.0
 21
500.7
 31
0.0
  0
ARC
  8
0
  6
CONTINUOUS
 62
     1
 10
529.0
 20
497.7
 30
0.0
 40
3.0
 50
90.0
 51
180.0
  0
LINE
  8
0
  6
CONTINUOUS
 62
     1
 10
531.0
 20
451.2
 30
0.0
 11
531.0
 21
500.7
 31
0.0
  0
LINE
  8
0
  6
CONTINUOUS
 62
     1
 10
531.0
 20
451.2
 30
0.0
 11
659.0
 21
451.2
 31
0.0
  0
LINE
  8
0
  6
CONTINUOUS
 62
     1
 10
659.0
 20
451.2
 30
0.0
 11
659.0
 21
498.7
 31
0.0
  0
LINE
  8
0
  6
CONTINUOUS
 62
     1
 10
531.0
 20
457.2
 30
0.0
 11
659.0
 21
457.2
 31
0.0
  0
LINE
  8
0
  6
CONTINUOUS
 62
     1
 10
651.0
 20
501.7
 30
0.0
 11
651.0
 21
503.2
 31
0.0
  0
LINE
  8
0
  6
CONTINUOUS
 62
     1
 10
577.0
 20
501.7
 30
0.0
 11
577.0
 21
503.2
 31
0.0
  0
LINE
  8
0
  6
CONTINUOUS
 62
     1
 10
569.0
 20
500.7
 30
0.0
 11
569.0
 21
501.7
 31
0.0
  0
LINE
  8
0
  6
LTYPE3
 62
     2
 10
614.0
 20
516.2
 30
0.0
 11
614.0
 21
492.2
 31
0.0
  0
LINE
  8
0
  6
LTYPE3
 62
     2
 10
553.0
 20
580.2
 30
0.0
 11
553.0
 21
516.2
 31
0.0
  0
LINE
  8
0
  6
LTYPE2
 62
     2
 10
370.0
 20
517.2
 30
0.0
 11
413.5
 21
517.2
 31
0.0
  0
ARC
  8
0
  6
CONTINUOUS
 62
     1
 10
392.5
 20
517.2
 30
0.0
 40
5.0
 50
87.397437796
 51
272.862405227
  0
ARC
  8
0
  6
CONTINUOUS
 62
     1
 10
392.5
 20
517.2
 30
0.0
 40
14.65
 50
19.955909658
 51
338.902050411
  0
LINE
  8
0
  6
LTYPE2
 62
     2
 10
392.5
 20
497.7
 30
0.0
 11
392.5
 21
583.7
 31
0.0
  0
LINE
  8
0
  6
CONTINUOUS
 62
     1
 10
392.5
 20
512.2
 30
0.0
 11
435.718997163
 21
512.2
 31
0.0
  0
LINE
  8
0
  6
CONTINUOUS
 62
     1
 10
439.41869753
 20
510.56336397
 30
0.0
 11
470.740021057
 21
476.10990809
 31
0.0
  0
ARC
  8
0
  6
CONTINUOUS
 62
     1
 10
435.718997163
 20
507.2
 30
0.0
 40
5.0
 50
42.273689006
 51
90.0
  0
LINE
  8
0
  6
CONTINUOUS
 62
     1
 10
446.818098264
 20
517.29009191
 30
0.0
 11
479.0485127
 21
481.83663603
 31
0.0
  0
LINE
  8
0
  6
CONTINUOUS
 62
     1
 10
392.5
 20
522.2
 30
0.0
 11
435.718997163
 21
522.2
 31
0.0
  0
ARC
  8
0
  6
CONTINUOUS
 62
     1
 10
435.718997163
 20
507.2
 30
0.0
 40
15.0
 50
42.273689006
 51
90.0
  0
LINE
  8
0
  6
CONTINUOUS
 62
     1
 10
473.263636364
 20
488.2
 30
0.0
 11
483.0
 21
488.2
 31
0.0
  0
LINE
  8
0
  6
CONTINUOUS
 62
     1
 10
423.0
 20
488.2
 30
0.0
 11
459.749028412
 21
488.2
 31
0.0
  0
LINE
  8
0
  6
CONTINUOUS
 62
     1
 10
423.0
 20
522.2
 30
0.0
 11
423.0
 21
693.2
 31
0.0
  0
LINE
  8
0
  6
CONTINUOUS
 62
     1
 10
423.0
 20
473.2
 30
0.0
 11
423.0
 21
512.2
 31
0.0
  0
LINE
  8
0
  6
LTYPE2
 62
     2
 10
337.5
 20
483.2
 30
0.0
 11
367.0
 21
483.2
 31
0.0
  0
LINE
  8
0
  6
LTYPE2
 62
     2
 10
339.0
 20
673.2
 30
0.0
 11
367.0
 21
673.2
 31
0.0
  0
LINE
  8
0
  6
CONTINUOUS
 62
     6
 10
343.5001
 20
477.54122
 30
0.0
 11
344.559699402
 21
475.70594
 31
0.0
  0
LINE
  8
0
  6
CONTINUOUS
 62
     6
 10
343.5001
 20
483.2
 30
0.0
 11
343.5001
 21
477.54122
 31
0.0
  0
LINE
  8
0
  6
CONTINUOUS
 62
     6
 10
343.5001
 20
488.85878
 30
0.0
 11
344.559699402
 21
490.69406
 31
0.0
  0
LINE
  8
0
  6
CONTINUOUS
 62
     6
 10
343.5001
 20
483.2
 30
0.0
 11
343.5001
 21
488.85878
 31
0.0
  0
ARC
  8
0
  6
CONTINUOUS
 62
     6
 10
350.655155337
 20
483.2
 30
0.0
 40
7.155055337
 50
148.419912243
 51
211.580087757
  0
ARC
  8
0
  6
CONTINUOUS
 62
     6
 10
345.685523767
 20
477.579455
 30
0.0
 40
2.185758211
 50
121.002313915
 51
182.989498403
  0
LINE
  8
0
  6
CONTINUOUS
 62
     6
 10
343.5001
 20
488.85878
 30
0.0
 11
344.559699402
 21
490.69406
 31
0.0
  0
ARC
  8
0
  6
CONTINUOUS
 62
     6
 10
345.685523767
 20
488.820545
 30
0.0
 40
2.185758211
 50
177.010501597
 51
238.997686085
  0
LINE
  8
0
  6
CONTINUOUS
 62
     6
 10
349.0
 20
475.70594
 30
0.0
 11
344.559699402
 21
475.70594
 31
0.0
  0
LINE
  8
0
  6
CONTINUOUS
 62
     6
 10
349.0
 20
479.45297
 30
0.0
 11
344.559699402
 21
479.45297
 31
0.0
  0
LINE
  8
0
  6
CONTINUOUS
 62
     6
 10
349.0
 20
486.94703
 30
0.0
 11
344.559699402
 21
486.94703
 31
0.0
  0
LINE
  8
0
  6
CONTINUOUS
 62
     6
 10
349.0
 20
490.69406
 30
0.0
 11
344.559699402
 21
490.69406
 31
0.0
  0
LINE
  8
0
  6
CONTINUOUS
 62
     6
 10
351.0
 20
483.2
 30
0.0
 11
349.000000088
 21
481.200000088
 31
0.0
  0
LINE
  8
0
  6
CONTINUOUS
 62
     6
 10
349.0
 20
483.2
 30
0.0
 11
350.999999912
 21
485.199999912
 31
0.0
  0
LINE
  8
0
  6
CONTINUOUS
 62
     6
 10
351.0
 20
475.5
 30
0.0
 11
349.0
 21
475.5
 31
0.0
  0
LINE
  8
0
  6
CONTINUOUS
 62
     6
 10
349.0
 20
483.2
 30
0.0
 11
349.0
 21
475.5
 31
0.0
  0
LINE
  8
0
  6
CONTINUOUS
 62
     6
 10
349.0
 20
483.2
 30
0.0
 11
349.0
 21
490.9
 31
0.0
  0
LINE
  8
0
  6
CONTINUOUS
 62
     6
 10
351.0
 20
490.9
 30
0.0
 11
349.0
 21
490.9
 31
0.0
  0
LINE
  8
0
  6
CONTINUOUS
 62
     6
 10
343.5001
 20
667.54122
 30
0.0
 11
344.559699402
 21
665.70594
 31
0.0
  0
LINE
  8
0
  6
CONTINUOUS
 62
     6
 10
343.5001
 20
673.2
 30
0.0
 11
343.5001
 21
667.54122
 31
0.0
  0
LINE
  8
0
  6
CONTINUOUS
 62
     6
 10
343.5001
 20
678.85878
 30
0.0
 11
344.559699402
 21
680.69406
 31
0.0
  0
LINE
  8
0
  6
CONTINUOUS
 62
     6
 10
343.5001
 20
673.2
 30
0.0
 11
343.5001
 21
678.85878
 31
0.0
  0
ARC
  8
0
  6
CONTINUOUS
 62
     6
 10
350.655155337
 20
673.2
 30
0.0
 40
7.155055337
 50
148.419912243
 51
211.580087757
  0
ARC
  8
0
  6
CONTINUOUS
 62
     6
 10
345.685523767
 20
667.579455
 30
0.0
 40
2.185758211
 50
121.002313915
 51
182.989498403
  0
LINE
  8
0
  6
CONTINUOUS
 62
     6
 10
343.5001
 20
678.85878
 30
0.0
 11
344.559699402
 21
680.69406
 31
0.0
  0
ARC
  8
0
  6
CONTINUOUS
 62
     6
 10
345.685523767
 20
678.820545
 30
0.0
 40
2.185758211
 50
177.010501597
 51
238.997686085
  0
LINE
  8
0
  6
CONTINUOUS
 62
     6
 10
349.0
 20
665.70594
 30
0.0
 11
344.559699402
 21
665.70594
 31
0.0
  0
LINE
  8
0
  6
CONTINUOUS
 62
     6
 10
349.0
 20
669.45297
 30
0.0
 11
344.559699402
 21
669.45297
 31
0.0
  0
LINE
  8
0
  6
CONTINUOUS
 62
     6
 10
349.0
 20
676.94703
 30
0.0
 11
344.559699402
 21
676.94703
 31
0.0
  0
LINE
  8
0
  6
CONTINUOUS
 62
     6
 10
349.0
 20
680.69406
 30
0.0
 11
344.559699402
 21
680.69406
 31
0.0
  0
LINE
  8
0
  6
CONTINUOUS
 62
     6
 10
351.0
 20
673.2
 30
0.0
 11
349.000000088
 21
671.200000088
 31
0.0
  0
LINE
  8
0
  6
CONTINUOUS
 62
     6
 10
349.0
 20
673.2
 30
0.0
 11
350.999999912
 21
675.199999912
 31
0.0
  0
LINE
  8
0
  6
CONTINUOUS
 62
     6
 10
351.0
 20
665.5
 30
0.0
 11
349.0
 21
665.5
 31
0.0
  0
LINE
  8
0
  6
CONTINUOUS
 62
     6
 10
349.0
 20
673.2
 30
0.0
 11
349.0
 21
665.5
 31
0.0
  0
LINE
  8
0
  6
CONTINUOUS
 62
     6
 10
349.0
 20
673.2
 30
0.0
 11
349.0
 21
680.9
 31
0.0
  0
LINE
  8
0
  6
CONTINUOUS
 62
     6
 10
351.0
 20
680.9
 30
0.0
 11
349.0
 21
680.9
 31
0.0
  0
LINE
  8
0
  6
LTYPE3
 62
     2
 10
459.0
 20
708.325
 30
0.0
 11
459.0
 21
762.5
 31
0.0
  0
LINE
  8
0
  6
CONTINUOUS
 62
     6
 10
459.0
 20
725.7
 30
0.0
 11
468.2
 21
724.2
 31
0.0
  0
LINE
  8
0
  6
CONTINUOUS
 62
     6
 10
459.0
 20
725.7
 30
0.0
 11
449.8
 21
724.2
 31
0.0
  0
LINE
  8
0
  6
CONTINUOUS
 62
     1
 10
449.114285714
 20
718.2
 30
0.0
 11
449.8
 21
724.2
 31
0.0
  0
LINE
  8
0
  6
CONTINUOUS
 62
     6
 10
449.8
 20
724.2
 30
0.0
 11
468.2
 21
724.2
 31
0.0
  0
LINE
  8
0
  6
CONTINUOUS
 62
     1
 10
497.0
 20
658.2
 30
0.0
 11
497.0
 21
715.2
 31
0.0
  0
ARC
  8
0
  6
CONTINUOUS
 62
     1
 10
492.5
 20
716.7
 30
0.0
 40
1.5
 50
180.0
 51
270.0
  0
LINE
  8
0
  6
CONTINUOUS
 62
     1
 10
491.0
 20
716.7
 30
0.0
 11
491.0
 21
717.7
 31
0.0
  0
ARC
  8
0
  6
CONTINUOUS
 62
     1
 10
489.5
 20
717.7
 30
0.0
 40
1.5
 50
0.0
 51
90.0
  0
LINE
  8
0
  6
CONTINUOUS
 62
     1
 10
646.0
 20
658.2
 30
0.0
 11
646.0
 21
715.2
 31
0.0
  0
ARC
  8
0
  6
CONTINUOUS
 62
     1
 10
649.5
 20
713.7
 30
0.0
 40
1.5
 50
0.0
 51
90.0
  0
LINE
  8
0
  6
CONTINUOUS
 62
     1
 10
491.0
 20
658.2
 30
0.0
 11
491.0
 21
717.3
 31
0.0
  0
LINE
  8
0
  6
CONTINUOUS
 62
     1
 10
651.0
 20
701.270524155
 30
0.0
 11
651.0
 21
713.7
 31
0.0
  0
ARC
  8
0
  6
CONTINUOUS
 62
     1
 10
652.5
 20
701.270524155
 30
0.0
 40
1.5
 50
180.0
 51
251.029592192
  0
LINE
  8
0
  6
CONTINUOUS
 62
     1
 10
667.0
 20
658.2
 30
0.0
 11
667.0
 21
693.629475845
 31
0.0
  0
LINE
  8
0
  6
CONTINUOUS
 62
     1
 10
665.987619653
 20
695.048005744
 30
0.0
 11
652.012380347
 21
699.851994256
 31
0.0
  0
ARC
  8
0
  6
CONTINUOUS
 62
     1
 10
665.5
 20
693.629475845
 30
0.0
 40
1.5
 50
0.0
 51
71.029592192
  0
LINE
  8
0
  6
CONTINUOUS
 62
     1
 10
651.0
 20
658.2
 30
0.0
 11
651.0
 21
701.270524155
 31
0.0
  0
LINE
  8
0
  6
CONTINUOUS
 62
     1
 10
679.0
 20
675.7
 30
0.0
 11
667.0
 21
675.7
 31
0.0
  0
LINE
  8
0
  6
CONTINUOUS
 62
     1
 10
497.0
 20
658.2
 30
0.0
 11
497.0
 21
601.2
 31
0.0
  0
ARC
  8
0
  6
CONTINUOUS
 62
     1
 10
492.5
 20
599.7
 30
0.0
 40
1.5
 50
90.0
 51
180.0
  0
LINE
  8
0
  6
CONTINUOUS
 62
     1
 10
491.0
 20
599.7
 30
0.0
 11
491.0
 21
598.7
 31
0.0
  0
ARC
  8
0
  6
CONTINUOUS
 62
     1
 10
489.5
 20
598.7
 30
0.0
 40
1.5
 50
270.0
 51
0.0
  0
LINE
  8
0
  6
CONTINUOUS
 62
     1
 10
646.0
 20
658.2
 30
0.0
 11
646.0
 21
601.2
 31
0.0
  0
LINE
  8
0
  6
CONTINUOUS
 62
     1
 10
649.5
 20
601.2
 30
0.0
 11
492.5
 21
601.2
 31
0.0
  0
ARC
  8
0
  6
CONTINUOUS
 62
     1
 10
649.5
 20
602.7
 30
0.0
 40
1.5
 50
270.0
 51
0.0
  0
LINE
  8
0
  6
CONTINUOUS
 62
     1
 10
491.0
 20
658.2
 30
0.0
 11
491.0
 21
599.1
 31
0.0
  0
LINE
  8
0
  6
CONTINUOUS
 62
     1
 10
667.0
 20
658.2
 30
0.0
 11
667.0
 21
622.770524155
 31
0.0
  0
ARC
  8
0
  6
CONTINUOUS
 62
     1
 10
665.5
 20
622.770524155
 30
0.0
 40
1.5
 50
288.970407808
 51
0.0
  0
LINE
  8
0
  6
CONTINUOUS
 62
     1
 10
679.0
 20
640.7
 30
0.0
 11
667.0
 21
640.7
 31
0.0
  0
LINE
  8
0
  6
LTYPE2
 62
     2
 10
659.0
 20
694.262445841
 30
0.0
 11
648.0
 21
694.262445841
 31
0.0
  0
LINE
  8
0
  6
CONTINUOUS
 62
     1
 10
651.0
 20
615.129475845
 30
0.0
 11
651.0
 21
602.7
 31
0.0
  0
ARC
  8
0
  6
CONTINUOUS
 62
     1
 10
652.5
 20
615.129475845
 30
0.0
 40
1.5
 50
108.970407808
 51
180.0
  0
LINE
  8
0
  6
CONTINUOUS
 62
     1
 10
665.987619653
 20
621.351994256
 30
0.0
 11
652.012380347
 21
616.548005744
 31
0.0
  0
LINE
  8
0
  6
CONTINUOUS
 62
     1
 10
651.0
 20
658.2
 30
0.0
 11
651.0
 21
615.129475845
 31
0.0
  0
LINE
  8
0
  6
LTYPE2
 62
     2
 10
659.0
 20
622.137554159
 30
0.0
 11
648.0
 21
622.137554159
 31
0.0
  0
LINE
  8
0
  6
CONTINUOUS
 62
     1
 10
596.0
 20
736.2
 30
0.0
 11
596.0
 21
770.2
 31
0.0
  0
LINE
  8
0
  6
CONTINUOUS
 62
     1
 10
596.0
 20
736.2
 30
0.0
 11
570.0
 21
736.2
 31
0.0
  0
LINE
  8
0
  6
CONTINUOUS
 62
     1
 10
500.0
 20
728.2
 30
0.0
 11
500.0
 21
731.2
 31
0.0
  0
ARC
  8
0
  6
CONTINUOUS
 62
     1
 10
504.0
 20
725.2
 30
0.0
 40
3.0
 50
0.0
 51
90.0
  0
LINE
  8
0
  6
CONTINUOUS
 62
     1
 10
507.0
 20
718.2
 30
0.0
 11
507.0
 21
725.2
 31
0.0
  0
ARC
  8
0
  6
CONTINUOUS
 62
     1
 10
510.0
 20
718.2
 30
0.0
 40
3.0
 50
180.0
 51
270.0
  0
LINE
  8
0
  6
CONTINUOUS
 62
     1
 10
649.5
 20
715.2
 30
0.0
 11
492.5
 21
715.2
 31
0.0
  0
LINE
  8
0
  6
CONTINUOUS
 62
     1
 10
560.0
 20
728.2
 30
0.0
 11
560.0
 21
731.2
 31
0.0
  0
ARC
  8
0
  6
CONTINUOUS
 62
     1
 10
556.0
 20
725.2
 30
0.0
 40
3.0
 50
90.0
 51
180.0
  0
LINE
  8
0
  6
CONTINUOUS
 62
     1
 10
553.0
 20
718.2
 30
0.0
 11
553.0
 21
725.2
 31
0.0
  0
ARC
  8
0
  6
CONTINUOUS
 62
     1
 10
550.0
 20
718.2
 30
0.0
 40
3.0
 50
270.0
 51
0.0
  0
LINE
  8
0
  6
CONTINUOUS
 62
     1
 10
560.0
 20
728.2
 30
0.0
 11
500.0
 21
728.2
 31
0.0
  0
LINE
  8
0
  6
CONTINUOUS
 62
     1
 10
484.912087912
 20
733.2
 30
0.0
 11
577.0
 21
777.220045888
 31
0.0
  0
LINE
  8
0
  6
CONTINUOUS
 62
     1
 10
483.0
 20
737.2
 30
0.0
 11
484.912087912
 21
733.2
 31
0.0
  0
LINE
  8
0
  6
CONTINUOUS
 62
     1
 10
483.0
 20
737.2
 30
0.0
 11
575.087912088
 21
781.220045888
 31
0.0
  0
LINE
  8
0
  6
CONTINUOUS
 62
     1
 10
490.0
 20
740.546153846
 30
0.0
 11
490.0
 21
780.2
 31
0.0
  0
LINE
  8
0
  6
CONTINUOUS
 62
     1
 10
490.0
 20
734.2
 30
0.0
 11
490.0
 21
735.6321338
 31
0.0
  0
ARC
  8
0
  6
CONTINUOUS
 62
     1
 10
493.0
 20
734.2
 30
0.0
 40
3.0
 50
180.0
 51
270.0
  0
LINE
  8
0
  6
CONTINUOUS
 62
     1
 10
570.0
 20
734.2
 30
0.0
 11
570.0
 21
773.873892042
 31
0.0
  0
LINE
  8
0
  6
CONTINUOUS
 62
     1
 10
567.0
 20
731.2
 30
0.0
 11
493.0
 21
731.2
 31
0.0
  0
ARC
  8
0
  6
CONTINUOUS
 62
     1
 10
567.0
 20
734.2
 30
0.0
 40
3.0
 50
270.0
 51
0.0
  0
LINE
  8
0
  6
LTYPE2
 62
     2
 10
530.0
 20
703.2
 30
0.0
 11
530.0
 21
791.1321338
 31
0.0
  0
LINE
  8
0
  6
CONTINUOUS
 62
     6
 10
652.3
 20
694.262445841
 30
0.0
 11
652.3
 21
689.650565841
 31
0.0
  0
LINE
  8
0
  6
CONTINUOUS
 62
     6
 10
652.3
 20
694.262445841
 30
0.0
 11
652.3
 21
698.874325841
 31
0.0
  0
LINE
  8
0
  6
CONTINUOUS
 62
     6
 10
655.8002
 20
690.780005841
 30
0.0
 11
655.148117512
 21
689.650565841
 31
0.0
  0
LINE
  8
0
  6
CONTINUOUS
 62
     6
 10
655.8002
 20
694.262445841
 30
0.0
 11
655.8002
 21
690.780005841
 31
0.0
  0
LINE
  8
0
  6
CONTINUOUS
 62
     6
 10
655.8002
 20
697.744885841
 30
0.0
 11
655.148117512
 21
698.874325841
 31
0.0
  0
LINE
  8
0
  6
CONTINUOUS
 62
     6
 10
655.8002
 20
694.262445841
 30
0.0
 11
655.8002
 21
697.744885841
 31
0.0
  0
ARC
  8
0
  6
CONTINUOUS
 62
     6
 10
651.396945074
 20
694.262445841
 30
0.0
 40
4.403254926
 50
328.419912243
 51
31.580087757
  0
ARC
  8
0
  6
CONTINUOUS
 62
     6
 10
654.455279868
 20
690.803535841
 30
0.0
 40
1.34512595
 50
357.010501597
 51
58.997686085
  0
LINE
  8
0
  6
CONTINUOUS
 62
     6
 10
655.8002
 20
697.744885841
 30
0.0
 11
655.148117512
 21
698.874325841
 31
0.0
  0
ARC
  8
0
  6
CONTINUOUS
 62
     6
 10
654.455279868
 20
697.721355841
 30
0.0
 40
1.34512595
 50
301.002313915
 51
2.989498403
  0
LINE
  8
0
  6
CONTINUOUS
 62
     6
 10
652.3
 20
689.650565841
 30
0.0
 11
655.148117512
 21
689.650565841
 31
0.0
  0
LINE
  8
0
  6
CONTINUOUS
 62
     6
 10
652.3
 20
691.956505841
 30
0.0
 11
655.148117512
 21
691.956505841
 31
0.0
  0
LINE
  8
0
  6
CONTINUOUS
 62
     6
 10
652.3
 20
696.568385841
 30
0.0
 11
655.148117512
 21
696.568385841
 31
0.0
  0
LINE
  8
0
  6
CONTINUOUS
 62
     6
 10
652.3
 20
698.874325841
 30
0.0
 11
655.148117512
 21
698.874325841
 31
0.0
  0
LINE
  8
0
  6
CONTINUOUS
 62
     6
 10
651.0
 20
689.662445841
 30
0.0
 11
652.3
 21
689.662445841
 31
0.0
  0
LINE
  8
0
  6
CONTINUOUS
 62
     6
 10
651.0
 20
694.262445841
 30
0.0
 11
652.299999554
 21
692.962446287
 31
0.0
  0
LINE
  8
0
  6
CONTINUOUS
 62
     6
 10
652.299999554
 20
694.262445841
 30
0.0
 11
651.0
 21
695.562445394
 31
0.0
  0
LINE
  8
0
  6
CONTINUOUS
 62
     6
 10
651.0
 20
698.862445841
 30
0.0
 11
652.3
 21
698.862445841
 31
0.0
  0
LINE
  8
0
  6
CONTINUOUS
 62
     6
 10
652.3
 20
622.137554159
 30
0.0
 11
652.3
 21
626.749434159
 31
0.0
  0
LINE
  8
0
  6
CONTINUOUS
 62
     6
 10
655.8002
 20
625.619994159
 30
0.0
 11
655.148117512
 21
626.749434159
 31
0.0
  0
LINE
  8
0
  6
CONTINUOUS
 62
     6
 10
655.8002
 20
622.137554159
 30
0.0
 11
655.8002
 21
625.619994159
 31
0.0
  0
ARC
  8
0
  6
CONTINUOUS
 62
     6
 10
654.455279868
 20
625.596464159
 30
0.0
 40
1.34512595
 50
301.002313915
 51
2.989498403
  0
LINE
  8
0
  6
CONTINUOUS
 62
     6
 10
652.3
 20
626.749434159
 30
0.0
 11
655.148117512
 21
626.749434159
 31
0.0
  0
LINE
  8
0
  6
CONTINUOUS
 62
     6
 10
651.0
 20
626.737554159
 30
0.0
 11
652.3
 21
626.737554159
 31
0.0
  0
LINE
  8
0
  6
CONTINUOUS
 62
     6
 10
652.3
 20
622.137554159
 30
0.0
 11
652.3
 21
617.525674159
 31
0.0
  0
LINE
  8
0
  6
CONTINUOUS
 62
     6
 10
655.8002
 20
618.655114159
 30
0.0
 11
655.148117512
 21
617.525674159
 31
0.0
  0
LINE
  8
0
  6
CONTINUOUS
 62
     6
 10
655.8002
 20
622.137554159
 30
0.0
 11
655.8002
 21
618.655114159
 31
0.0
  0
ARC
  8
0
  6
CONTINUOUS
 62
     6
 10
651.396945074
 20
622.137554159
 30
0.0
 40
4.403254926
 50
328.419912243
 51
31.580087757
  0
LINE
  8
0
  6
CONTINUOUS
 62
     6
 10
655.8002
 20
618.655114159
 30
0.0
 11
655.148117512
 21
617.525674159
 31
0.0
  0
ARC
  8
0
  6
CONTINUOUS
 62
     6
 10
654.455279868
 20
618.678644159
 30
0.0
 40
1.34512595
 50
357.010501597
 51
58.997686085
  0
LINE
  8
0
  6
CONTINUOUS
 62
     6
 10
652.3
 20
619.831614159
 30
0.0
 11
655.148117512
 21
619.831614159
 31
0.0
  0
LINE
  8
0
  6
CONTINUOUS
 62
     6
 10
652.3
 20
617.525674159
 30
0.0
 11
655.148117512
 21
617.525674159
 31
0.0
  0
LINE
  8
0
  6
CONTINUOUS
 62
     6
 10
651.0
 20
617.537554159
 30
0.0
 11
652.3
 21
617.537554159
 31
0.0
  0
LINE
  8
0
  6
CONTINUOUS
 62
     6
 10
652.3
 20
624.443494159
 30
0.0
 11
655.148117512
 21
624.443494159
 31
0.0
  0
LINE
  8
0
  6
CONTINUOUS
 62
     6
 10
651.0
 20
622.137554159
 30
0.0
 11
652.299999554
 21
623.437553713
 31
0.0
  0
LINE
  8
0
  6
CONTINUOUS
 62
     6
 10
652.299999554
 20
622.137554159
 30
0.0
 11
651.0
 21
620.837554606
 31
0.0
  0
LINE
  8
0
  6
CONTINUOUS
 62
     1
 10
491.0
 20
597.2
 30
0.0
 11
483.0
 21
597.2
 31
0.0
  0
LINE
  8
0
  6
CONTINUOUS
 62
     1
 10
491.0
 20
597.2
 30
0.0
 11
491.0
 21
497.2
 31
0.0
  0
LINE
  8
0
  6
LTYPE3
 62
     2
 10
434.0
 20
738.2
 30
0.0
 11
483.0
 21
738.2
 31
0.0
  0
LINE
  8
0
  6
CONTINUOUS
 62
     1
 10
659.0
 20
579.95
 30
0.0
 11
697.349814745
 21
579.95
 31
0.0
  0
LINE
  8
0
  6
CONTINUOUS
 62
     1
 10
659.0
 20
516.45
 30
0.0
 11
697.349814745
 21
516.45
 31
0.0
  0
LINE
  8
0
  6
CONTINUOUS
 62
     2
 10
277.5
 20
588.10039
 30
0.0
 11
349.5
 21
588.10039
 31
0.0
  0
LINE
  8
7
  6
CONTINUOUS
 62
     2
 10
612.469424461
 20
451.2
 30
0.0
 11
614.131462208
 21
441.339085715
 31
0.0
  0
LINE
  8
7
  6
CONTINUOUS
 62
     2
 10
612.469424461
 20
451.2
 30
0.0
 11
618.839248514
 21
443.491216598
 31
0.0
  0
LINE
  8
7
  6
CONTINUOUS
 62
     2
 10
612.469424461
 20
451.2
 30
0.0
 11
628.469424461
 21
416.2
 31
0.0
  0
LINE
  8
7
  6
CONTINUOUS
 62
     2
 10
628.469424461
 20
416.2
 30
0.0
 11
699.269424461
 21
416.2
 31
0.0
  0
LINE
  8
7
  6
CONTINUOUS
 62
     2
 10
553.0
 20
382.2
 30
0.0
 11
562.659258263
 21
379.611809549
 31
0.0
  0
LINE
  8
7
  6
CONTINUOUS
 62
     2
 10
553.0
 20
382.2
 30
0.0
 11
562.659258263
 21
384.788190451
 31
0.0
  0
LINE
  8
7
  6
CONTINUOUS
 62
     2
 10
553.0
 20
382.2
 30
0.0
 11
791.0
 21
382.2
 31
0.0
  0
LINE
  8
7
  6
CONTINUOUS
 62
     2
 10
553.0
 20
354.2
 30
0.0
 11
562.659258263
 21
351.611809549
 31
0.0
  0
LINE
  8
7
  6
CONTINUOUS
 62
     2
 10
553.0
 20
354.2
 30
0.0
 11
562.659258263
 21
356.788190451
 31
0.0
  0
LINE
  8
7
  6
CONTINUOUS
 62
     2
 10
553.0
 20
354.2
 30
0.0
 11
861.0
 21
354.2
 31
0.0
  0
LINE
  8
7
  6
CONTINUOUS
 62
     2
 10
268.0
 20
481.633749351
 30
0.0
 11
268.0
 21
320.2
 31
0.0
  0
LINE
  8
7
  6
CONTINUOUS
 62
     2
 10
268.0
 20
326.2
 30
0.0
 11
277.659258263
 21
323.611809549
 31
0.0
  0
LINE
  8
7
  6
CONTINUOUS
 62
     2
 10
268.0
 20
326.2
 30
0.0
 11
277.659258263
 21
328.788190451
 31
0.0
  0
LINE
  8
7
  6
CONTINUOUS
 62
     2
 10
268.0
 20
326.2
 30
0.0
 11
861.0
 21
326.2
 31
0.0
  0
LINE
  8
7
  6
CONTINUOUS
 62
     2
 10
553.0
 20
510.2
 30
0.0
 11
553.0
 21
348.2
 31
0.0
  0
POINT
  8
7
  6
CONTINUOUS
 62
     2
 10
553.0
 20
348.2
 30
0.0
  0
LINE
  8
7
  6
CONTINUOUS
 62
     2
 10
553.0
 20
354.2
 30
0.0
 11
543.340741737
 21
356.788190451
 31
0.0
  0
LINE
  8
7
  6
CONTINUOUS
 62
     2
 10
553.0
 20
354.2
 30
0.0
 11
543.340741737
 21
351.611809549
 31
0.0
  0
LINE
  8
7
  6
CONTINUOUS
 62
     2
 10
553.0
 20
354.2
 30
0.0
 11
423.0
 21
354.2
 31
0.0
  0
LINE
  8
7
  6
CONTINUOUS
 62
     2
 10
423.0
 20
354.2
 30
0.0
 11
432.659258263
 21
351.611809549
 31
0.0
  0
LINE
  8
7
  6
CONTINUOUS
 62
     2
 10
423.0
 20
354.2
 30
0.0
 11
432.659258263
 21
356.788190451
 31
0.0
  0
LINE
  8
7
  6
CONTINUOUS
 62
     2
 10
423.0
 20
467.2
 30
0.0
 11
423.0
 21
348.2
 31
0.0
  0
POINT
  8
7
  6
CONTINUOUS
 62
     2
 10
423.0
 20
360.2
 30
0.0
  0
LINE
  8
7
  6
CONTINUOUS
 62
     2
 10
423.0
 20
354.2
 30
0.0
 11
413.340741737
 21
356.788190451
 31
0.0
  0
LINE
  8
7
  6
CONTINUOUS
 62
     2
 10
423.0
 20
354.2
 30
0.0
 11
413.340741737
 21
351.611809549
 31
0.0
  0
LINE
  8
7
  6
CONTINUOUS
 62
     2
 10
423.0
 20
354.2
 30
0.0
 11
268.0
 21
354.2
 31
0.0
  0
LINE
  8
7
  6
CONTINUOUS
 62
     2
 10
268.0
 20
354.2
 30
0.0
 11
277.659258263
 21
351.611809549
 31
0.0
  0
LINE
  8
7
  6
CONTINUOUS
 62
     2
 10
268.0
 20
354.2
 30
0.0
 11
277.659258263
 21
356.788190451
 31
0.0
  0
LINE
  8
7
  6
CONTINUOUS
 62
     2
 10
268.0
 20
360.2
 30
0.0
 11
268.0
 21
348.2
 31
0.0
  0
LINE
  8
7
  6
CONTINUOUS
 62
     2
 10
283.25
 20
673.2
 30
0.0
 11
281.552180646
 21
683.05481656
 31
0.0
  0
LINE
  8
7
  6
CONTINUOUS
 62
     2
 10
283.25
 20
673.2
 30
0.0
 11
276.852237028
 21
680.885611814
 31
0.0
  0
LINE
  8
7
  6
CONTINUOUS
 62
     2
 10
382.25
 20
552.2
 30
0.0
 11
378.168244532
 21
543.070965423
 31
0.0
  0
LINE
  8
7
  6
CONTINUOUS
 62
     2
 10
382.25
 20
552.2
 30
0.0
 11
383.279613361
 21
542.253146411
 31
0.0
  0
LINE
  8
7
  6
CONTINUOUS
 62
     2
 10
382.25
 20
552.2
 30
0.0
 11
362.25
 21
427.2
 31
0.0
  0
LINE
  8
7
  6
CONTINUOUS
 62
     2
 10
483.0
 20
725.2
 30
0.0
 11
483.0
 21
821.2
 31
0.0
  0
LINE
  8
0
  6
CONTINUOUS
 62
     1
 10
489.5
 20
719.2
 30
0.0
 11
483.0
 21
719.2
 31
0.0
  0
LINE
  8
0
  6
CONTINUOUS
 62
     1
 10
483.0
 20
488.2
 30
0.0
 11
483.0
 21
719.2
 31
0.0
  0
LINE
  8
7
  6
CONTINUOUS
 62
     2
 10
423.0
 20
699.2
 30
0.0
 11
423.0
 21
821.2
 31
0.0
  0
LINE
  8
0
  6
LTYPE3
 62
     2
 10
260.0
 20
548.2
 30
0.0
 11
662.5
 21
548.2
 31
0.0
  0
LINE
  8
7
  6
CONTINUOUS
 62
     2
 10
616.0
 20
715.2
 30
0.0
 11
613.411809549
 21
705.540741737
 31
0.0
  0
LINE
  8
7
  6
CONTINUOUS
 62
     2
 10
616.0
 20
715.2
 30
0.0
 11
618.588190451
 21
705.540741737
 31
0.0
  0
LINE
  8
7
  6
CONTINUOUS
 62
     2
 10
616.0
 20
601.2
 30
0.0
 11
618.588190451
 21
610.859258263
 31
0.0
  0
LINE
  8
7
  6
CONTINUOUS
 62
     2
 10
616.0
 20
601.2
 30
0.0
 11
613.411809549
 21
610.859258263
 31
0.0
  0
LINE
  8
0
  6
LTYPE3
 62
     2
 10
266.0
 20
658.2
 30
0.0
 11
595.0
 21
658.2
 31
0.0
  0
LINE
  8
0
  6
LTYPE3
 62
     2
 10
620.0
 20
658.2
 30
0.0
 11
703.0
 21
658.2
 31
0.0
  0
LINE
  8
0
  6
CONTINUOUS
 62
     1
 10
658.3
 20
451.2
 30
0.0
 11
647.7
 21
451.2
 31
0.0
  0
ARC
  8
0
  6
CONTINUOUS
 62
     1
 10
653.4
 20
452.2
 30
0.0
 40
5.0
 50
272.3
 51
348.5
  0
ARC
  8
0
  6
CONTINUOUS
 62
     1
 10
652.6
 20
452.2
 30
0.0
 40
5.0
 50
191.5
 51
267.7
  0
LINE
  8
0
  6
CONTINUOUS
 62
     1
 10
653.6
 20
447.2
 30
0.0
 11
652.4
 21
447.2
 31
0.0
  0
LINE
  8
0
  6
LTYPE4
 62
     2
 10
653.0
 20
443.8
 30
0.0
 11
653.0
 21
457.2
 31
0.0
  0
LINE
  8
0
  6
CONTINUOUS
 62
     1
 10
542.3
 20
451.2
 30
0.0
 11
531.7
 21
451.2
 31
0.0
  0
ARC
  8
0
  6
CONTINUOUS
 62
     1
 10
537.4
 20
452.2
 30
0.0
 40
5.0
 50
272.3
 51
348.5
  0
ARC
  8
0
  6
CONTINUOUS
 62
     1
 10
536.6
 20
452.2
 30
0.0
 40
5.0
 50
191.5
 51
267.7
  0
LINE
  8
0
  6
CONTINUOUS
 62
     1
 10
537.6
 20
447.2
 30
0.0
 11
536.4
 21
447.2
 31
0.0
  0
LINE
  8
0
  6
LTYPE4
 62
     2
 10
537.0
 20
443.8
 30
0.0
 11
537.0
 21
457.2
 31
0.0
  0
LINE
  8
0
  6
CONTINUOUS
 62
     1
 10
475.016667
 20
623.566683
 30
0.0
 11
432.016667
 21
623.566683
 31
0.0
  0
TEXT
  8
0
  6
CONTINUOUS
 62
     2
 10
437.016667
 20
612.566683
 30
5.0
 40
20.0
  1
銘板
 50
270.0
 41
0.925
 51
0.0
  7
KANJI38
  0
LINE
  8
0
  6
CONTINUOUS
 62
     1
 10
432.016667
 20
623.566683
 30
0.0
 11
432.016667
 21
553.566683
 31
0.0
  0
LINE
  8
0
  6
CONTINUOUS
 62
     1
 10
475.016667
 20
623.566683
 30
0.0
 11
475.016667
 21
553.566683
 31
0.0
  0
LINE
  8
0
  6
CONTINUOUS
 62
     1
 10
475.016667
 20
553.566683
 30
0.0
 11
432.016667
 21
553.566683
 31
0.0
  0
ARC
  8
0
  6
CONTINUOUS
 62
     2
 10
210.0
 20
660.7
 30
0.0
 40
20.0
 50
231.952957468
 51
156.801409486
  0
LINE
  8
0
  6
CONTINUOUS
 62
     2
 10
191.6170994
 20
668.578385972
 30
0.0
 11
193.91179211
 21
678.415824749
 31
0.0
  0
LINE
  8
0
  6
CONTINUOUS
 62
     2
 10
191.6170994
 20
668.578385972
 30
0.0
 11
199.885260778
 21
673.485722507
 31
0.0
  0
TEXT
  8
0
  6
CONTINUOUS
 62
     2
 10
129.6170994
 20
651.578385972
 30
0.0
 40
15.0
  1
前進方向
 50
0.0
 41
0.9
 51
0.0
  7
KANJI23
  0
TEXT
  8
0
  6
CONTINUOUS
 62
     3
 10
167.416667
 20
729.266683
 30
1.5
 40
15.0
  1
手動軸カバー
 50
0.0
 41
0.9
 51
0.0
  7
KANJI39
  0
TEXT
  8
0
  6
CONTINUOUS
 62
     3
 10
166.416667
 20
706.266683
 30
1.5
 40
15.0
  1
手動軸□８
 50
0.0
 41
0.9
 51
0.0
  7
KANJI39
  0
LINE
  8
7
  6
CONTINUOUS
 62
     2
 10
283.25
 20
673.2
 30
0.0
 11
259.680761692
 21
724.266683
 31
0.0
  0
LINE
  8
0
  6
CONTINUOUS
 62
     2
 10
259.680761692
 20
724.266683
 30
0.0
 11
167.416667
 21
724.266683
 31
0.0
  0
TEXT
  8
7
  6
CONTINUOUS
 62
     2
 10
612.0
 20
634.8
 30
0.0
 40
15.0
  1
φ１１４
 50
90.0
 41
0.9
 51
0.0
  7
KANJI23
  0
TEXT
  8
7
  6
CONTINUOUS
 62
     2
 10
628.469424461
 20
420.2
 30
0.0
 40
15.0
  1
推力リミッタ
 50
0.0
 41
0.9
 51
0.0
  7
KANJI23
  0
TEXT
  8
7
  6
CONTINUOUS
 62
     2
 10
679.0
 20
530.8
 30
0.0
 40
15.0
  1
φ６４
 50
90.0
 41
0.9
 51
0.0
  7
KANJI23
  0
TEXT
  8
0
  6
CONTINUOUS
 62
     2
 10
500.5
 20
613.2
 30
0.0
 40
15.0
  1
エコノストップモータ
 50
0.0
 41
0.9
 51
0.0
  7
KANJI23
  0
TEXT
  8
0
  6
CONTINUOUS
 62
     2
 10
504.0
 20
630.2
 30
0.0
 40
15.0
  1
日本電産
 50
0.0
 41
0.9
 51
0.0
  7
KANJI23
  0
TEXT
  8
0
  6
CONTINUOUS
 62
     2
 10
284.5
 20
592.10039
 30
0.0
 40
15.0
  1
ポジショナ
 50
0.0
 41
0.9
 51
0.0
  7
KANJI23
  0
TEXT
  8
7
  6
CONTINUOUS
 62
     2
 10
328.1
 20
358.2
 30
0.0
 40
15.0
  1
１５５
 50
0.0
 41
0.9
 51
0.0
  7
KANJI23
  0
TEXT
  8
7
  6
CONTINUOUS
 62
     2
 10
666.6
 20
386.2
 30
0.0
 40
15.0
  1
Ｃ
 50
0.0
 41
0.9
 51
0.0
  7
KANJI23
  0
TEXT
  8
7
  6
CONTINUOUS
 62
     2
 10
529.1
 20
330.2
 30
0.0
 40
15.0
  1
ｍｉｎ．ＡＬ
 50
0.0
 41
0.9
 51
0.0
  7
KANJI23
  0
TEXT
  8
7
  6
CONTINUOUS
 62
     2
 10
470.6
 20
358.2
 30
0.0
 40
15.0
  1
１３０
 50
0.0
 41
0.9
 51
0.0
  7
KANJI23
  0
LINE
  8
7
  6
CONTINUOUS
 62
     2
 10
616.0
 20
609.629475845
 30
0.0
 11
616.0
 21
601.2
 31
0.0
  0
LINE
  8
7
  6
CONTINUOUS
 62
     2
 10
616.0
 20
715.2
 30
0.0
 11
616.0
 21
633.629475845
 31
0.0
  0
LINE
  8
0
  6
CONTINUOUS
 62
     2
 10
466.5
 20
271.0
 30
0.0
 11
880.5
 21
271.0
 31
0.0
  0
LINE
  8
0
  6
CONTINUOUS
 62
     1
 10
721.5
 20
535.7
 30
0.0
 11
746.5
 21
535.7
 31
0.0
  0
LINE
  8
0
  6
CONTINUOUS
 62
     1
 10
746.5
 20
560.7
 30
0.0
 11
746.5
 21
535.7
 31
0.0
  0
LINE
  8
0
  6
CONTINUOUS
 62
     1
 10
721.5
 20
560.7
 30
0.0
 11
746.5
 21
560.7
 31
0.0
  0
LINE
  8
0
  6
CONTINUOUS
 62
     1
 10
721.5
 20
560.7
 30
0.0
 11
721.5
 21
535.7
 31
0.0
  0
CIRCLE
  8
0
  6
CONTINUOUS
 62
     1
 10
734.0
 20
548.2
 30
0.0
 40
12.5
  0
LINE
  8
0
  6
LTYPE3
 62
     2
 10
734.0
 20
529.5
 30
0.0
 11
734.0
 21
569.2
 31
0.0
  0
ARC
  8
0
  6
CONTINUOUS
 62
     1
 10
679.0
 20
674.7
 30
0.0
 40
1.0
 50
0.0
 51
90.0
  0
LINE
  8
0
  6
CONTINUOUS
 62
     1
 10
680.0
 20
658.2
 30
0.0
 11
680.0
 21
674.7
 31
0.0
  0
ARC
  8
0
  6
CONTINUOUS
 62
     1
 10
679.0
 20
641.7
 30
0.0
 40
1.0
 50
270.0
 51
0.0
  0
LINE
  8
0
  6
CONTINUOUS
 62
     1
 10
680.0
 20
658.2
 30
0.0
 11
680.0
 21
641.7
 31
0.0
  0
LINE
  8
0
  6
CONTINUOUS
 62
     1
 10
596.0
 20
770.2
 30
0.0
 11
570.0
 21
770.2
 31
0.0
  0
LINE
  8
0
  6
LTYPE2
 62
     2
 10
602.929475845
 20
753.2
 30
0.0
 11
562.929475845
 21
753.2
 31
0.0
  0
LINE
  8
0
  6
CONTINUOUS
 62
     1
 10
575.087912088
 20
781.220045888
 30
0.0
 11
577.0
 21
777.220045888
 31
0.0
  0
ARC
  8
0
  6
CONTINUOUS
 62
     1
 10
493.0
 20
780.2
 30
0.0
 40
3.0
 50
90.0
 51
180.0
  0
LINE
  8
0
  6
CONTINUOUS
 62
     1
 10
570.0
 20
778.787912088
 30
0.0
 11
570.0
 21
780.2
 31
0.0
  0
LINE
  8
0
  6
CONTINUOUS
 62
     1
 10
567.0
 20
783.2
 30
0.0
 11
493.0
 21
783.2
 31
0.0
  0
ARC
  8
0
  6
CONTINUOUS
 62
     1
 10
567.0
 20
780.2
 30
0.0
 40
3.0
 50
0.0
 51
90.0
  0
LINE
  8
0
  6
CONTINUOUS
 62
     6
 10
681.0
 20
662.0
 30
0.0
 11
680.0
 21
662.0
 31
0.0
  0
LINE
  8
0
  6
CONTINUOUS
 62
     6
 10
681.0
 20
658.2
 30
0.0
 11
680.0
 21
659.2
 31
0.0
  0
LINE
  8
0
  6
CONTINUOUS
 62
     6
 10
683.482457352
 20
662.25
 30
0.0
 11
681.0
 21
662.25
 31
0.0
  0
LINE
  8
0
  6
CONTINUOUS
 62
     6
 10
683.8
 20
661.7
 30
0.0
 11
683.482457352
 21
662.25
 31
0.0
  0
LINE
  8
0
  6
CONTINUOUS
 62
     6
 10
683.482457352
 20
660.225
 30
0.0
 11
681.0
 21
660.225
 31
0.0
  0
ARC
  8
0
  6
CONTINUOUS
 62
     6
 10
682.027026212
 20
661.2375
 30
0.0
 40
1.772973788
 50
325.174816769
 51
34.825183231
  0
LINE
  8
0
  6
CONTINUOUS
 62
     6
 10
681.0
 20
654.4
 30
0.0
 11
680.0
 21
654.4
 31
0.0
  0
LINE
  8
0
  6
CONTINUOUS
 62
     6
 10
681.0
 20
657.2
 30
0.0
 11
680.0
 21
658.2
 31
0.0
  0
LINE
  8
0
  6
CONTINUOUS
 62
     6
 10
683.8
 20
654.7
 30
0.0
 11
683.482457352
 21
654.15
 31
0.0
  0
LINE
  8
0
  6
CONTINUOUS
 62
     6
 10
683.482457352
 20
654.15
 30
0.0
 11
681.0
 21
654.15
 31
0.0
  0
LINE
  8
0
  6
CONTINUOUS
 62
     6
 10
683.482457352
 20
656.175
 30
0.0
 11
681.0
 21
656.175
 31
0.0
  0
ARC
  8
0
  6
CONTINUOUS
 62
     6
 10
682.027026212
 20
655.1625
 30
0.0
 40
1.772973788
 50
325.174816769
 51
34.825183231
  0
LINE
  8
0
  6
CONTINUOUS
 62
     6
 10
681.0
 20
662.25
 30
0.0
 11
681.0
 21
654.15
 31
0.0
  0
LINE
  8
0
  6
CONTINUOUS
 62
     6
 10
683.8
 20
661.7
 30
0.0
 11
683.8
 21
654.7
 31
0.0
  0
ARC
  8
0
  6
CONTINUOUS
 62
     6
 10
677.184418819
 20
658.2
 30
0.0
 40
6.615581181
 50
342.175912681
 51
17.824087319
  0
LINE
  8
0
  6
CONTINUOUS
 62
     1
 10
694.5
 20
673.7
 30
0.0
 11
680.0
 21
673.7
 31
0.0
  0
ARC
  8
0
  6
CONTINUOUS
 62
     1
 10
694.5
 20
672.2
 30
0.0
 40
1.5
 50
0.0
 51
90.0
  0
LINE
  8
0
  6
CONTINUOUS
 62
     1
 10
694.5
 20
642.7
 30
0.0
 11
680.0
 21
642.7
 31
0.0
  0
LINE
  8
0
  6
CONTINUOUS
 62
     1
 10
696.0
 20
644.2
 30
0.0
 11
696.0
 21
672.2
 31
0.0
  0
ARC
  8
0
  6
CONTINUOUS
 62
     1
 10
694.5
 20
644.2
 30
0.0
 40
1.5
 50
270.0
 51
0.0
  0
LINE
  8
0
  6
LTYPE5
 62
     2
 10
697.349814745
 20
587.95
 30
0.0
 11
697.349814745
 21
508.45
 31
0.0
  0
LINE
  8
0
  6
LTYPE5
 62
     2
 10
703.349814745
 20
587.95
 30
0.0
 11
703.349814745
 21
508.45
 31
0.0
  0
LINE
  8
0
  6
CONTINUOUS
 62
     1
 10
703.349814745
 20
516.45
 30
0.0
 11
791.0
 21
516.45
 31
0.0
  0
LINE
  8
0
  6
CONTINUOUS
 62
     1
 10
703.349814745
 20
579.95
 30
0.0
 11
764.0
 21
579.95
 31
0.0
  0
LINE
  8
7
  6
CONTINUOUS
 62
     2
 10
738.469424461
 20
557.7
 30
0.0
 11
744.436000149
 21
565.724959474
 31
0.0
  0
LINE
  8
7
  6
CONTINUOUS
 62
     2
 10
738.469424461
 20
557.7
 30
0.0
 11
739.624150843
 21
567.633106613
 31
0.0
  0
LINE
  8
7
  6
CONTINUOUS
 62
     2
 10
738.469424461
 20
557.7
 30
0.0
 11
761.469424461
 21
615.7
 31
0.0
  0
LINE
  8
7
  6
CONTINUOUS
 62
     2
 10
696.0
 20
678.20001079
 30
0.0
 11
696.0
 21
821.2
 31
0.0
  0
LINE
  8
7
  6
CONTINUOUS
 62
     2
 10
696.0
 20
815.2
 30
0.0
 11
686.340741737
 21
817.788190451
 31
0.0
  0
LINE
  8
7
  6
CONTINUOUS
 62
     2
 10
696.0
 20
815.2
 30
0.0
 11
686.340741737
 21
812.611809549
 31
0.0
  0
LINE
  8
7
  6
CONTINUOUS
 62
     2
 10
696.0
 20
815.2
 30
0.0
 11
483.0
 21
815.2
 31
0.0
  0
LINE
  8
7
  6
CONTINUOUS
 62
     2
 10
483.0
 20
815.2
 30
0.0
 11
492.659258263
 21
812.611809549
 31
0.0
  0
LINE
  8
7
  6
CONTINUOUS
 62
     2
 10
483.0
 20
815.2
 30
0.0
 11
492.659258263
 21
817.788190451
 31
0.0
  0
POINT
  8
7
  6
CONTINUOUS
 62
     2
 10
483.0
 20
809.2
 30
0.0
  0
LINE
  8
7
  6
CONTINUOUS
 62
     2
 10
483.0
 20
815.2
 30
0.0
 11
473.340741737
 21
817.788190451
 31
0.0
  0
LINE
  8
7
  6
CONTINUOUS
 62
     2
 10
483.0
 20
815.2
 30
0.0
 11
473.340741737
 21
812.611809549
 31
0.0
  0
LINE
  8
7
  6
CONTINUOUS
 62
     2
 10
483.0
 20
815.2
 30
0.0
 11
423.0
 21
815.2
 31
0.0
  0
LINE
  8
7
  6
CONTINUOUS
 62
     2
 10
423.0
 20
815.2
 30
0.0
 11
432.659258263
 21
812.611809549
 31
0.0
  0
LINE
  8
7
  6
CONTINUOUS
 62
     2
 10
423.0
 20
815.2
 30
0.0
 11
432.659258263
 21
817.788190451
 31
0.0
  0
LINE
  8
7
  6
CONTINUOUS
 62
     2
 10
596.0
 20
753.2
 30
0.0
 11
604.564390096
 21
758.362482183
 31
0.0
  0
LINE
  8
7
  6
CONTINUOUS
 62
     2
 10
596.0
 20
753.2
 30
0.0
 11
600.835738299
 21
761.953035765
 31
0.0
  0
LINE
  8
7
  6
CONTINUOUS
 62
     2
 10
596.0
 20
753.2
 30
0.0
 11
622.0
 21
780.2
 31
0.0
  0
LINE
  8
7
  6
CONTINUOUS
 62
     2
 10
622.0
 20
780.2
 30
0.0
 11
680.8
 21
780.2
 31
0.0
  0
LINE
  8
7
  6
CONTINUOUS
 62
     2
 10
683.0
 20
516.45
 30
0.0
 11
685.588190451
 21
526.109258263
 31
0.0
  0
LINE
  8
7
  6
CONTINUOUS
 62
     2
 10
683.0
 20
516.45
 30
0.0
 11
680.411809549
 21
526.109258263
 31
0.0
  0
LINE
  8
7
  6
CONTINUOUS
 62
     2
 10
683.0
 20
516.45
 30
0.0
 11
683.0
 21
579.95
 31
0.0
  0
LINE
  8
7
  6
CONTINUOUS
 62
     2
 10
683.0
 20
579.95
 30
0.0
 11
680.411809549
 21
570.290741737
 31
0.0
  0
LINE
  8
7
  6
CONTINUOUS
 62
     2
 10
683.0
 20
579.95
 30
0.0
 11
685.588190451
 21
570.290741737
 31
0.0
  0
LINE
  8
0
  6
LTYPE3
 62
     2
 10
688.0
 20
548.2
 30
0.0
 11
893.0
 21
548.2
 31
0.0
  0
TEXT
  8
0
  6
CONTINUOUS
 62
     2
 10
648.588190451
 20
863.859258263
 30
0.0
 40
20.0
  1
ブレーキ解放装置はありません。
 50
0.0
 41
0.925
 51
0.0
  7
KANJI40
  0
TEXT
  8
0
  6
CONTINUOUS
 62
     2
 10
649.588190451
 20
838.859258263
 30
0.0
 40
20.0
  1
そのまま手動操作をして下さい．
 50
0.0
 41
0.925
 51
0.0
  7
KANJI40
  0
TEXT
  8
7
  6
CONTINUOUS
 62
     2
 10
622.0
 20
784.2
 30
0.0
 40
15.0
  1
ＰＦ３／４
 50
0.0
 41
0.9
 51
0.0
  7
KANJI23
  0
TEXT
  8
7
  6
CONTINUOUS
 62
     2
 10
572.1
 20
819.2
 30
0.0
 40
15.0
  1
２１３
 50
0.0
 41
0.9
 51
0.0
  7
KANJI23
  0
TEXT
  8
7
  6
CONTINUOUS
 62
     2
 10
441.6
 20
819.2
 30
0.0
 40
15.0
  1
６０
 50
0.0
 41
0.9
 51
0.0
  7
KANJI23
  0
TEXT
  8
7
  6
CONTINUOUS
 62
     2
 10
677.6
 20
358.2
 30
0.0
 40
15.0
  1
ｍｉｎ．Ｌ
 50
0.0
 41
0.9
 51
0.0
  7
KANJI23
  0
TEXT
  8
0
  6
CONTINUOUS
 62
     2
 10
468.5
 20
279.0
 30
0.0
 40
20.0
  1
推力リミッタの作動値は、約３６０ｋｇ（設計値）
 50
0.0
 41
0.925
 51
0.0
  7
KANJI40
  0
LINE
  8
0
  6
CONTINUOUS
 62
     1
 10
791.0
 20
516.45
 30
0.0
 11
791.0
 21
548.2
 31
0.0
  0
LINE
  8
0
  6
CONTINUOUS
 62
     1
 10
772.0
 20
516.45
 30
0.0
 11
772.0
 21
548.2
 31
0.0
  0
LINE
  8
0
  6
CONTINUOUS
 62
     1
 10
791.0
 20
529.2
 30
0.0
 11
826.0
 21
529.2
 31
0.0
  0
LINE
  8
0
  6
CONTINUOUS
 62
     1
 10
823.5
 20
583.95
 30
0.0
 11
813.5
 21
583.95
 31
0.0
  0
LINE
  8
0
  6
CONTINUOUS
 62
     1
 10
826.0
 20
581.95
 30
0.0
 11
823.5
 21
581.95
 31
0.0
  0
LINE
  8
0
  6
CONTINUOUS
 62
     1
 10
813.5
 20
581.95
 30
0.0
 11
811.0
 21
581.95
 31
0.0
  0
LINE
  8
0
  6
CONTINUOUS
 62
     1
 10
811.0
 20
581.95
 30
0.0
 11
811.0
 21
548.2
 31
0.0
  0
LINE
  8
0
  6
CONTINUOUS
 62
     1
 10
813.5
 20
583.95
 30
0.0
 11
813.5
 21
548.2
 31
0.0
  0
LINE
  8
0
  6
CONTINUOUS
 62
     1
 10
823.5
 20
583.95
 30
0.0
 11
823.5
 21
548.2
 31
0.0
  0
LINE
  8
0
  6
CONTINUOUS
 62
     1
 10
826.0
 20
581.95
 30
0.0
 11
826.0
 21
548.2
 31
0.0
  0
LINE
  8
0
  6
CONTINUOUS
 62
     1
 10
766.5
 20
583.95
 30
0.0
 11
776.5
 21
583.95
 31
0.0
  0
LINE
  8
0
  6
CONTINUOUS
 62
     1
 10
776.5
 20
581.95
 30
0.0
 11
779.0
 21
581.95
 31
0.0
  0
LINE
  8
0
  6
CONTINUOUS
 62
     1
 10
764.0
 20
581.95
 30
0.0
 11
766.5
 21
581.95
 31
0.0
  0
LINE
  8
0
  6
CONTINUOUS
 62
     1
 10
779.0
 20
581.95
 30
0.0
 11
779.0
 21
548.2
 31
0.0
  0
LINE
  8
0
  6
CONTINUOUS
 62
     1
 10
764.0
 20
581.95
 30
0.0
 11
764.0
 21
548.2
 31
0.0
  0
LINE
  8
0
  6
CONTINUOUS
 62
     1
 10
766.5
 20
583.95
 30
0.0
 11
766.5
 21
548.2
 31
0.0
  0
LINE
  8
0
  6
CONTINUOUS
 62
     1
 10
776.5
 20
583.95
 30
0.0
 11
776.5
 21
548.2
 31
0.0
  0
LINE
  8
0
  6
CONTINUOUS
 62
     1
 10
764.0
 20
514.45
 30
0.0
 11
764.0
 21
516.45
 31
0.0
  0
LINE
  8
0
  6
CONTINUOUS
 62
     1
 10
764.0
 20
514.45
 30
0.0
 11
779.0
 21
514.45
 31
0.0
  0
LINE
  8
0
  6
CONTINUOUS
 62
     1
 10
826.0
 20
514.45
 30
0.0
 11
811.0
 21
514.45
 31
0.0
  0
LINE
  8
0
  6
CONTINUOUS
 62
     1
 10
826.0
 20
514.45
 30
0.0
 11
826.0
 21
548.2
 31
0.0
  0
LINE
  8
0
  6
CONTINUOUS
 62
     1
 10
811.0
 20
514.45
 30
0.0
 11
811.0
 21
529.2
 31
0.0
  0
CIRCLE
  8
0
  6
CONTINUOUS
 62
     1
 10
861.0
 20
548.2
 30
0.0
 40
8.0
  0
LINE
  8
0
  6
LTYPE1
 62
     2
 10
836.0
 20
528.2
 30
0.0
 11
836.0
 21
568.2
 31
0.0
  0
LINE
  8
0
  6
CONTINUOUS
 62
     1
 10
826.0
 20
568.2
 30
0.0
 11
869.0
 21
568.2
 31
0.0
  0
LINE
  8
0
  6
CONTINUOUS
 62
     1
 10
869.0
 20
568.2
 30
0.0
 11
879.0
 21
558.2
 31
0.0
  0
LINE
  8
0
  6
CONTINUOUS
 62
     1
 10
826.0
 20
528.2
 30
0.0
 11
869.0
 21
528.2
 31
0.0
  0
LINE
  8
0
  6
CONTINUOUS
 62
     1
 10
879.0
 20
538.2
 30
0.0
 11
879.0
 21
558.2
 31
0.0
  0
LINE
  8
0
  6
CONTINUOUS
 62
     1
 10
869.0
 20
528.2
 30
0.0
 11
879.0
 21
538.2
 31
0.0
  0
LINE
  8
0
  6
CONTINUOUS
 62
     1
 10
823.5
 20
755.95
 30
0.0
 11
813.5
 21
755.95
 31
0.0
  0
LINE
  8
0
  6
CONTINUOUS
 62
     1
 10
826.0
 20
753.95
 30
0.0
 11
823.5
 21
753.95
 31
0.0
  0
LINE
  8
0
  6
CONTINUOUS
 62
     1
 10
813.5
 20
753.95
 30
0.0
 11
811.0
 21
753.95
 31
0.0
  0
LINE
  8
0
  6
CONTINUOUS
 62
     1
 10
823.5
 20
684.45
 30
0.0
 11
813.5
 21
684.45
 31
0.0
  0
LINE
  8
0
  6
CONTINUOUS
 62
     1
 10
826.0
 20
686.45
 30
0.0
 11
823.5
 21
686.45
 31
0.0
  0
LINE
  8
0
  6
CONTINUOUS
 62
     1
 10
813.5
 20
686.45
 30
0.0
 11
811.0
 21
686.45
 31
0.0
  0
LINE
  8
0
  6
CONTINUOUS
 62
     1
 10
813.5
 20
755.95
 30
0.0
 11
813.5
 21
684.45
 31
0.0
  0
LINE
  8
0
  6
CONTINUOUS
 62
     1
 10
823.5
 20
755.95
 30
0.0
 11
823.5
 21
684.45
 31
0.0
  0
LINE
  8
0
  6
CONTINUOUS
 62
     1
 10
811.0
 20
753.95
 30
0.0
 11
811.0
 21
686.45
 31
0.0
  0
LINE
  8
0
  6
CONTINUOUS
 62
     1
 10
826.0
 20
753.95
 30
0.0
 11
826.0
 21
686.45
 31
0.0
  0
LINE
  8
0
  6
CONTINUOUS
 62
     1
 10
836.0
 20
728.2
 30
0.0
 11
879.0
 21
728.2
 31
0.0
  0
LINE
  8
0
  6
CONTINUOUS
 62
     1
 10
826.0
 20
700.2
 30
0.0
 11
879.0
 21
700.2
 31
0.0
  0
LINE
  8
0
  6
CONTINUOUS
 62
     1
 10
879.0
 20
712.2
 30
0.0
 11
879.0
 21
700.2
 31
0.0
  0
LINE
  8
0
  6
CONTINUOUS
 62
     1
 10
836.0
 20
712.2
 30
0.0
 11
879.0
 21
712.2
 31
0.0
  0
LINE
  8
0
  6
CONTINUOUS
 62
     1
 10
836.0
 20
712.2
 30
0.0
 11
836.0
 21
728.2
 31
0.0
  0
LINE
  8
0
  6
CONTINUOUS
 62
     1
 10
853.0
 20
712.2
 30
0.0
 11
853.0
 21
728.2
 31
0.0
  0
LINE
  8
0
  6
CONTINUOUS
 62
     1
 10
869.0
 20
712.2
 30
0.0
 11
869.0
 21
728.2
 31
0.0
  0
LINE
  8
7
  6
CONTINUOUS
 62
     2
 10
875.0
 20
568.2
 30
0.0
 11
920.5
 21
568.2
 31
0.0
  0
LINE
  8
7
  6
CONTINUOUS
 62
     2
 10
914.5
 20
568.2
 30
0.0
 11
911.911809549
 21
558.540741737
 31
0.0
  0
LINE
  8
7
  6
CONTINUOUS
 62
     2
 10
914.5
 20
568.2
 30
0.0
 11
917.088190451
 21
558.540741737
 31
0.0
  0
LINE
  8
7
  6
CONTINUOUS
 62
     2
 10
914.5
 20
568.2
 30
0.0
 11
914.5
 21
528.2
 31
0.0
  0
LINE
  8
7
  6
CONTINUOUS
 62
     2
 10
914.5
 20
528.2
 30
0.0
 11
917.088190451
 21
537.859258263
 31
0.0
  0
LINE
  8
7
  6
CONTINUOUS
 62
     2
 10
914.5
 20
528.2
 30
0.0
 11
911.911809549
 21
537.859258263
 31
0.0
  0
LINE
  8
7
  6
CONTINUOUS
 62
     2
 10
875.0
 20
528.2
 30
0.0
 11
920.5
 21
528.2
 31
0.0
  0
LINE
  8
7
  6
CONTINUOUS
 62
     2
 10
885.0
 20
728.2
 30
0.0
 11
920.5
 21
728.2
 31
0.0
  0
LINE
  8
7
  6
CONTINUOUS
 62
     2
 10
885.0
 20
712.2
 30
0.0
 11
920.5
 21
712.2
 31
0.0
  0
LINE
  8
7
  6
CONTINUOUS
 62
     2
 10
885.0
 20
740.2
 30
0.0
 11
966.5
 21
740.2
 31
0.0
  0
LINE
  8
7
  6
CONTINUOUS
 62
     2
 10
885.0
 20
700.2
 30
0.0
 11
966.5
 21
700.2
 31
0.0
  0
LINE
  8
7
  6
CONTINUOUS
 62
     2
 10
912.0
 20
740.2
 30
0.0
 11
914.588190451
 21
749.859258263
 31
0.0
  0
LINE
  8
7
  6
CONTINUOUS
 62
     2
 10
912.0
 20
740.2
 30
0.0
 11
909.411809549
 21
749.859258263
 31
0.0
  0
LINE
  8
7
  6
CONTINUOUS
 62
     2
 10
912.0
 20
700.2
 30
0.0
 11
909.411809549
 21
690.540741737
 31
0.0
  0
LINE
  8
7
  6
CONTINUOUS
 62
     2
 10
912.0
 20
700.2
 30
0.0
 11
914.588190451
 21
690.540741737
 31
0.0
  0
LINE
  8
7
  6
CONTINUOUS
 62
     2
 10
916.0
 20
700.2
 30
0.0
 11
918.0
 21
700.2
 31
0.0
  0
LINE
  8
7
  6
CONTINUOUS
 62
     2
 10
912.0
 20
778.0
 30
0.0
 11
912.0
 21
712.2
 31
0.0
  0
LINE
  8
7
  6
CONTINUOUS
 62
     2
 10
912.0
 20
712.2
 30
0.0
 11
912.0
 21
662.4
 31
0.0
  0
LINE
  8
7
  6
CONTINUOUS
 62
     2
 10
853.0
 20
684.7
 30
0.0
 11
853.0
 21
629.2
 31
0.0
  0
LINE
  8
7
  6
CONTINUOUS
 62
     2
 10
853.0
 20
635.2
 30
0.0
 11
843.340741737
 21
637.788190451
 31
0.0
  0
LINE
  8
7
  6
CONTINUOUS
 62
     2
 10
853.0
 20
635.2
 30
0.0
 11
843.340741737
 21
632.611809549
 31
0.0
  0
LINE
  8
7
  6
CONTINUOUS
 62
     2
 10
838.0
 20
635.2
 30
0.0
 11
939.68
 21
635.2
 31
0.0
  0
LINE
  8
7
  6
CONTINUOUS
 62
     2
 10
869.0
 20
635.2
 30
0.0
 11
878.659258263
 21
632.611809549
 31
0.0
  0
LINE
  8
7
  6
CONTINUOUS
 62
     2
 10
869.0
 20
635.2
 30
0.0
 11
878.659258263
 21
637.788190451
 31
0.0
  0
LINE
  8
7
  6
CONTINUOUS
 62
     2
 10
869.0
 20
684.7
 30
0.0
 11
869.0
 21
629.2
 31
0.0
  0
LINE
  8
0
  6
LTYPE2
 62
     2
 10
861.0
 20
512.2
 30
0.0
 11
861.0
 21
757.2
 31
0.0
  0
LINE
  8
7
  6
CONTINUOUS
 62
     2
 10
861.0
 20
606.2
 30
0.0
 11
861.0
 21
608.2
 31
0.0
  0
LINE
  8
7
  6
CONTINUOUS
 62
     2
 10
861.0
 20
602.2
 30
0.0
 11
851.340741737
 21
604.788190451
 31
0.0
  0
LINE
  8
7
  6
CONTINUOUS
 62
     2
 10
861.0
 20
602.2
 30
0.0
 11
851.340741737
 21
599.611809549
 31
0.0
  0
LINE
  8
7
  6
CONTINUOUS
 62
     2
 10
861.0
 20
602.2
 30
0.0
 11
836.0
 21
602.2
 31
0.0
  0
LINE
  8
7
  6
CONTINUOUS
 62
     2
 10
836.0
 20
602.2
 30
0.0
 11
845.659258263
 21
599.611809549
 31
0.0
  0
LINE
  8
7
  6
CONTINUOUS
 62
     2
 10
836.0
 20
602.2
 30
0.0
 11
845.659258263
 21
604.788190451
 31
0.0
  0
LINE
  8
7
  6
CONTINUOUS
 62
     2
 10
836.0
 20
706.2
 30
0.0
 11
836.0
 21
596.2
 31
0.0
  0
ARC
  8
0
  6
CONTINUOUS
 62
     1
 10
805.878498635
 20
501.7
 30
0.0
 40
1.0
 50
270.0
 51
345.0
  0
ARC
  8
0
  6
CONTINUOUS
 62
     1
 10
805.878498635
 20
501.7
 30
0.0
 40
1.0
 50
195.0
 51
270.0
  0
LINE
  8
0
  6
CONTINUOUS
 62
     1
 10
802.630278561
 20
509.958819045
 30
0.0
 11
804.912572809
 21
501.441180955
 31
0.0
  0
ARC
  8
0
  6
CONTINUOUS
 62
     1
 10
801.664352735
 20
509.7
 30
0.0
 40
1.0
 50
15.0
 51
90.0
  0
ARC
  8
0
  6
CONTINUOUS
 62
     1
 10
784.121501365
 20
501.7
 30
0.0
 40
1.0
 50
195.0
 51
270.0
  0
ARC
  8
0
  6
CONTINUOUS
 62
     1
 10
784.121501365
 20
501.7
 30
0.0
 40
1.0
 50
270.0
 51
345.0
  0
LINE
  8
0
  6
CONTINUOUS
 62
     1
 10
787.369721439
 20
509.958819045
 30
0.0
 11
785.087427191
 21
501.441180955
 31
0.0
  0
ARC
  8
0
  6
CONTINUOUS
 62
     1
 10
788.335647265
 20
509.7
 30
0.0
 40
1.0
 50
90.0
 51
165.0
  0
LINE
  8
0
  6
LTYPE3
 62
     3
 10
788.335658055
 20
510.7
 30
0.0
 11
801.664352735
 21
510.7
 31
0.0
  0
LINE
  8
0
  6
LTYPE3
 62
     3
 10
784.121501365
 20
500.7
 30
0.0
 11
805.878498635
 21
500.7
 31
0.0
  0
ARC
  8
0
  6
CONTINUOUS
 62
     1
 10
805.878498635
 20
594.7
 30
0.0
 40
1.0
 50
15.0
 51
90.0
  0
ARC
  8
0
  6
CONTINUOUS
 62
     1
 10
805.878498635
 20
594.7
 30
0.0
 40
1.0
 50
90.0
 51
165.0
  0
LINE
  8
0
  6
CONTINUOUS
 62
     1
 10
802.630278561
 20
586.441180955
 30
0.0
 11
804.912572809
 21
594.958819045
 31
0.0
  0
ARC
  8
0
  6
CONTINUOUS
 62
     1
 10
801.664352735
 20
586.7
 30
0.0
 40
1.0
 50
270.0
 51
345.0
  0
ARC
  8
0
  6
CONTINUOUS
 62
     1
 10
784.121501365
 20
594.7
 30
0.0
 40
1.0
 50
90.0
 51
165.0
  0
ARC
  8
0
  6
CONTINUOUS
 62
     1
 10
784.121501365
 20
594.7
 30
0.0
 40
1.0
 50
15.0
 51
90.0
  0
LINE
  8
0
  6
CONTINUOUS
 62
     1
 10
787.369721439
 20
586.441180955
 30
0.0
 11
785.087427191
 21
594.958819045
 31
0.0
  0
ARC
  8
0
  6
CONTINUOUS
 62
     1
 10
788.335647265
 20
586.7
 30
0.0
 40
1.0
 50
195.0
 51
270.0
  0
LINE
  8
0
  6
LTYPE3
 62
     3
 10
788.335658055
 20
585.7
 30
0.0
 11
801.664352735
 21
585.7
 31
0.0
  0
LINE
  8
0
  6
LTYPE3
 62
     3
 10
784.121501365
 20
595.7
 30
0.0
 11
805.878498635
 21
595.7
 31
0.0
  0
LINE
  8
0
  6
CONTINUOUS
 62
     1
 10
783.155575539
 20
501.441180955
 30
0.0
 11
779.0
 21
514.45
 31
0.0
  0
LINE
  8
0
  6
CONTINUOUS
 62
     1
 10
806.844424461
 20
501.441180955
 30
0.0
 11
811.0
 21
514.45
 31
0.0
  0
LINE
  8
0
  6
CONTINUOUS
 62
     1
 10
783.155575539
 20
594.958819045
 30
0.0
 11
779.0
 21
581.95
 31
0.0
  0
LINE
  8
0
  6
CONTINUOUS
 62
     1
 10
806.844424461
 20
594.958819045
 30
0.0
 11
811.0
 21
581.95
 31
0.0
  0
LINE
  8
0
  6
CONTINUOUS
 62
     1
 10
801.664352735
 20
585.7
 30
0.0
 11
801.664352735
 21
548.2
 31
0.0
  0
LINE
  8
0
  6
CONTINUOUS
 62
     1
 10
788.335658055
 20
585.7
 30
0.0
 11
788.335658055
 21
548.2
 31
0.0
  0
LINE
  8
0
  6
CONTINUOUS
 62
     1
 10
805.878498635
 20
548.2
 30
0.0
 11
805.878498635
 21
595.7
 31
0.0
  0
LINE
  8
0
  6
CONTINUOUS
 62
     1
 10
784.121501365
 20
595.7
 30
0.0
 11
784.121501365
 21
548.2
 31
0.0
  0
ARC
  8
0
  6
CONTINUOUS
 62
     1
 10
805.878498635
 20
673.7
 30
0.0
 40
1.0
 50
270.0
 51
345.0
  0
ARC
  8
0
  6
CONTINUOUS
 62
     1
 10
805.878498635
 20
673.7
 30
0.0
 40
1.0
 50
195.0
 51
270.0
  0
LINE
  8
0
  6
CONTINUOUS
 62
     1
 10
802.630278561
 20
681.958819045
 30
0.0
 11
804.912572809
 21
673.441180955
 31
0.0
  0
ARC
  8
0
  6
CONTINUOUS
 62
     1
 10
801.664352735
 20
681.7
 30
0.0
 40
1.0
 50
15.0
 51
90.0
  0
LINE
  8
0
  6
LTYPE3
 62
     3
 10
771.0
 20
672.7
 30
0.0
 11
805.878498635
 21
672.7
 31
0.0
  0
ARC
  8
0
  6
CONTINUOUS
 62
     1
 10
805.878498635
 20
766.7
 30
0.0
 40
1.0
 50
15.0
 51
90.0
  0
ARC
  8
0
  6
CONTINUOUS
 62
     1
 10
805.878498635
 20
766.7
 30
0.0
 40
1.0
 50
90.0
 51
165.0
  0
LINE
  8
0
  6
CONTINUOUS
 62
     1
 10
802.630278561
 20
758.441180955
 30
0.0
 11
804.912572809
 21
766.958819045
 31
0.0
  0
ARC
  8
0
  6
CONTINUOUS
 62
     1
 10
801.664352735
 20
758.7
 30
0.0
 40
1.0
 50
270.0
 51
345.0
  0
LINE
  8
0
  6
LTYPE3
 62
     3
 10
771.0
 20
767.7
 30
0.0
 11
805.878498635
 21
767.7
 31
0.0
  0
LINE
  8
0
  6
CONTINUOUS
 62
     1
 10
801.664352735
 20
757.7
 30
0.0
 11
801.664352735
 21
682.7
 31
0.0
  0
LINE
  8
0
  6
CONTINUOUS
 62
     1
 10
805.878498635
 20
672.7
 30
0.0
 11
805.878498635
 21
767.7
 31
0.0
  0
LINE
  8
0
  6
CONTINUOUS
 62
     1
 10
811.0
 20
686.45
 30
0.0
 11
806.844424461
 21
673.441180955
 31
0.0
  0
LINE
  8
0
  6
CONTINUOUS
 62
     1
 10
811.0
 20
753.95
 30
0.0
 11
806.844424461
 21
766.958819045
 31
0.0
  0
LINE
  8
7
  6
CONTINUOUS
 62
     2
 10
776.969424461
 20
767.7
 30
0.0
 11
772.969424461
 21
767.7
 31
0.0
  0
LINE
  8
7
  6
CONTINUOUS
 62
     2
 10
778.969424461
 20
767.7
 30
0.0
 11
776.38123401
 21
758.040741737
 31
0.0
  0
LINE
  8
7
  6
CONTINUOUS
 62
     2
 10
778.969424461
 20
767.7
 30
0.0
 11
781.557614912
 21
758.040741737
 31
0.0
  0
LINE
  8
7
  6
CONTINUOUS
 62
     2
 10
778.969424461
 20
767.7
 30
0.0
 11
778.969424461
 21
672.7
 31
0.0
  0
LINE
  8
7
  6
CONTINUOUS
 62
     2
 10
778.969424461
 20
672.7
 30
0.0
 11
781.557614912
 21
682.359258263
 31
0.0
  0
LINE
  8
7
  6
CONTINUOUS
 62
     2
 10
778.969424461
 20
672.7
 30
0.0
 11
776.38123401
 21
682.359258263
 31
0.0
  0
LINE
  8
7
  6
CONTINUOUS
 62
     2
 10
784.469424461
 20
672.7
 30
0.0
 11
784.969424461
 21
672.7
 31
0.0
  0
LINE
  8
0
  6
LTYPE2
 62
     2
 10
785.469424461
 20
720.2
 30
0.0
 11
889.5
 21
720.2
 31
0.0
  0
LINE
  8
7
  6
CONTINUOUS
 62
     2
 10
761.469424461
 20
615.7
 30
0.0
 11
796.269424461
 21
615.7
 31
0.0
  0
LINE
  8
7
  6
CONTINUOUS
 62
     2
 10
791.0
 20
382.2
 30
0.0
 11
781.340741737
 21
384.788190451
 31
0.0
  0
LINE
  8
7
  6
CONTINUOUS
 62
     2
 10
791.0
 20
382.2
 30
0.0
 11
781.340741737
 21
379.611809549
 31
0.0
  0
LINE
  8
7
  6
CONTINUOUS
 62
     2
 10
791.0
 20
510.45
 30
0.0
 11
791.0
 21
376.2
 31
0.0
  0
LINE
  8
7
  6
CONTINUOUS
 62
     2
 10
861.0
 20
354.2
 30
0.0
 11
851.340741737
 21
356.788190451
 31
0.0
  0
LINE
  8
7
  6
CONTINUOUS
 62
     2
 10
861.0
 20
354.2
 30
0.0
 11
851.340741737
 21
351.611809549
 31
0.0
  0
LINE
  8
7
  6
CONTINUOUS
 62
     2
 10
861.0
 20
326.2
 30
0.0
 11
851.340741737
 21
328.788190451
 31
0.0
  0
LINE
  8
7
  6
CONTINUOUS
 62
     2
 10
861.0
 20
326.2
 30
0.0
 11
851.340741737
 21
323.611809549
 31
0.0
  0
LINE
  8
7
  6
CONTINUOUS
 62
     2
 10
861.0
 20
506.2
 30
0.0
 11
861.0
 21
320.2
 31
0.0
  0
LINE
  8
7
  6
CONTINUOUS
 62
     2
 10
791.0
 20
382.2
 30
0.0
 11
800.659258263
 21
379.611809549
 31
0.0
  0
LINE
  8
7
  6
CONTINUOUS
 62
     2
 10
791.0
 20
382.2
 30
0.0
 11
800.659258263
 21
384.788190451
 31
0.0
  0
LINE
  8
7
  6
CONTINUOUS
 62
     2
 10
791.0
 20
382.2
 30
0.0
 11
826.0
 21
382.2
 31
0.0
  0
LINE
  8
7
  6
CONTINUOUS
 62
     2
 10
826.0
 20
382.2
 30
0.0
 11
816.340741737
 21
384.788190451
 31
0.0
  0
LINE
  8
7
  6
CONTINUOUS
 62
     2
 10
826.0
 20
382.2
 30
0.0
 11
816.340741737
 21
379.611809549
 31
0.0
  0
LINE
  8
7
  6
CONTINUOUS
 62
     2
 10
826.0
 20
508.45
 30
0.0
 11
826.0
 21
376.2
 31
0.0
  0
POINT
  8
7
  6
CONTINUOUS
 62
     2
 10
826.0
 20
376.2
 30
0.0
  0
LINE
  8
7
  6
CONTINUOUS
 62
     2
 10
826.0
 20
382.2
 30
0.0
 11
835.659258263
 21
379.611809549
 31
0.0
  0
LINE
  8
7
  6
CONTINUOUS
 62
     2
 10
826.0
 20
382.2
 30
0.0
 11
835.659258263
 21
384.788190451
 31
0.0
  0
LINE
  8
7
  6
CONTINUOUS
 62
     2
 10
826.0
 20
382.2
 30
0.0
 11
861.0
 21
382.2
 31
0.0
  0
LINE
  8
7
  6
CONTINUOUS
 62
     2
 10
861.0
 20
382.2
 30
0.0
 11
851.340741737
 21
384.788190451
 31
0.0
  0
LINE
  8
7
  6
CONTINUOUS
 62
     2
 10
861.0
 20
382.2
 30
0.0
 11
851.340741737
 21
379.611809549
 31
0.0
  0
LINE
  8
7
  6
CONTINUOUS
 62
     2
 10
861.0
 20
377.2
 30
0.0
 11
861.0
 21
376.2
 31
0.0
  0
LINE
  8
7
  6
CONTINUOUS
 62
     2
 10
861.0
 20
326.2
 30
0.0
 11
851.340741737
 21
328.788190451
 31
0.0
  0
LINE
  8
7
  6
CONTINUOUS
 62
     2
 10
861.0
 20
326.2
 30
0.0
 11
851.340741737
 21
323.611809549
 31
0.0
  0
LINE
  8
7
  6
CONTINUOUS
 62
     2
 10
846.0
 20
326.2
 30
0.0
 11
916.8
 21
326.2
 31
0.0
  0
LINE
  8
7
  6
CONTINUOUS
 62
     2
 10
879.0
 20
326.2
 30
0.0
 11
888.659258263
 21
323.611809549
 31
0.0
  0
LINE
  8
7
  6
CONTINUOUS
 62
     2
 10
879.0
 20
326.2
 30
0.0
 11
888.659258263
 21
328.788190451
 31
0.0
  0
LINE
  8
7
  6
CONTINUOUS
 62
     2
 10
879.0
 20
532.2
 30
0.0
 11
879.0
 21
320.2
 31
0.0
  0
LINE
  8
0
  6
LTYPE3
 62
     3
 10
784.5
 20
757.7
 30
0.0
 11
801.664352735
 21
757.7
 31
0.0
  0
LINE
  8
0
  6
LTYPE3
 62
     3
 10
784.5
 20
682.7
 30
0.0
 11
801.664352735
 21
682.7
 31
0.0
  0
TEXT
  8
7
  6
CONTINUOUS
 62
     2
 10
761.469424461
 20
619.7
 30
0.0
 40
15.0
  1
給脂口
 50
0.0
 41
0.9
 51
0.0
  7
KANJI23
  0
TEXT
  8
7
  6
CONTINUOUS
 62
     2
 10
910.5
 20
536.8
 30
0.0
 40
15.0
  1
４０
 50
90.0
 41
0.9
 51
0.0
  7
KANJI23
  0
TEXT
  8
7
  6
CONTINUOUS
 62
     2
 10
956.5
 20
708.8
 30
0.0
 40
15.0
  1
４０
 50
90.0
 41
0.9
 51
0.0
  7
KANJI23
  0
TEXT
  8
7
  6
CONTINUOUS
 62
     2
 10
935.5
 20
708.8
 30
0.0
 40
15.0
  1
１６
 50
90.0
 41
0.9
 51
0.0
  7
KANJI23
  0
TEXT
  8
7
  6
CONTINUOUS
 62
     2
 10
908.0
 20
755.2
 30
0.0
 40
15.0
  1
１２
 50
90.0
 41
0.9
 51
0.0
  7
KANJI23
  0
TEXT
  8
7
  6
CONTINUOUS
 62
     2
 10
908.0
 20
662.4
 30
0.0
 40
15.0
  1
１２
 50
90.0
 41
0.9
 51
0.0
  7
KANJI23
  0
TEXT
  8
7
  6
CONTINUOUS
 62
     2
 10
774.969424461
 20
702.8
 30
0.0
 40
15.0
  1
φ９５
 50
90.0
 41
0.9
 51
0.0
  7
KANJI23
  0
LINE
  8
0
  6
CONTINUOUS
 62
     1
 10
869.0
 20
751.2
 30
0.0
 11
853.0
 21
751.2
 31
0.0
  0
LINE
  8
0
  6
CONTINUOUS
 62
     1
 10
846.0
 20
743.2
 30
0.0
 11
876.0
 21
743.2
 31
0.0
  0
LINE
  8
0
  6
LTYPE2
 62
     2
 10
856.6
 20
745.85
 30
0.0
 11
865.0
 21
745.85
 31
0.0
  0
CIRCLE
  8
0
  6
CONTINUOUS
 62
     1
 10
861.0
 20
745.85
 30
0.0
 40
2.0
  0
LINE
  8
0
  6
CONTINUOUS
 62
     1
 10
846.0
 20
740.2
 30
0.0
 11
846.0
 21
743.2
 31
0.0
  0
LINE
  8
0
  6
LTYPE1
 62
     2
 10
853.0
 20
743.2
 30
0.0
 11
853.0
 21
728.2
 31
0.0
  0
LINE
  8
0
  6
CONTINUOUS
 62
     1
 10
876.0
 20
740.2
 30
0.0
 11
876.0
 21
743.2
 31
0.0
  0
LINE
  8
0
  6
CONTINUOUS
 62
     1
 10
869.0
 20
743.2
 30
0.0
 11
869.0
 21
751.2
 31
0.0
  0
LINE
  8
0
  6
LTYPE1
 62
     2
 10
869.0
 20
728.2
 30
0.0
 11
869.0
 21
743.2
 31
0.0
  0
LINE
  8
0
  6
CONTINUOUS
 62
     1
 10
869.0
 20
689.2
 30
0.0
 11
853.0
 21
689.2
 31
0.0
  0
LINE
  8
0
  6
CONTINUOUS
 62
     1
 10
869.0
 20
689.2
 30
0.0
 11
853.0
 21
689.2
 31
0.0
  0
LINE
  8
0
  6
CONTINUOUS
 62
     1
 10
846.0
 20
697.2
 30
0.0
 11
876.0
 21
697.2
 31
0.0
  0
LINE
  8
0
  6
LTYPE2
 62
     2
 10
856.6
 20
694.55
 30
0.0
 11
865.0
 21
694.55
 31
0.0
  0
LINE
  8
0
  6
CONTINUOUS
 62
     1
 10
876.0
 20
700.2
 30
0.0
 11
876.0
 21
697.2
 31
0.0
  0
LINE
  8
0
  6
CONTINUOUS
 62
     1
 10
869.0
 20
697.2
 30
0.0
 11
869.0
 21
689.2
 31
0.0
  0
LINE
  8
0
  6
CONTINUOUS
 62
     1
 10
869.0
 20
697.2
 30
0.0
 11
869.0
 21
689.2
 31
0.0
  0
LINE
  8
0
  6
LTYPE1
 62
     2
 10
869.0
 20
712.2
 30
0.0
 11
869.0
 21
697.2
 31
0.0
  0
LINE
  8
0
  6
CONTINUOUS
 62
     1
 10
846.0
 20
700.2
 30
0.0
 11
846.0
 21
697.2
 31
0.0
  0
LINE
  8
0
  6
CONTINUOUS
 62
     1
 10
853.0
 20
689.2
 30
0.0
 11
853.0
 21
697.2
 31
0.0
  0
LINE
  8
0
  6
CONTINUOUS
 62
     1
 10
853.0
 20
689.2
 30
0.0
 11
853.0
 21
697.2
 31
0.0
  0
LINE
  8
0
  6
LTYPE1
 62
     2
 10
853.0
 20
697.2
 30
0.0
 11
853.0
 21
712.2
 31
0.0
  0
CIRCLE
  8
0
  6
CONTINUOUS
 62
     1
 10
861.0
 20
694.55
 30
0.0
 40
2.0
  0
LINE
  8
0
  6
CONTINUOUS
 62
     1
 10
853.0
 20
743.2
 30
0.0
 11
853.0
 21
751.2
 31
0.0
  0
LINE
  8
0
  6
CONTINUOUS
 62
     1
 10
879.0
 20
728.2
 30
0.0
 11
879.0
 21
740.2
 31
0.0
  0
LINE
  8
0
  6
CONTINUOUS
 62
     1
 10
826.0
 20
740.2
 30
0.0
 11
879.0
 21
740.2
 31
0.0
  0
TEXT
  8
0
  6
CONTINUOUS
 62
     3
 10
884.0
 20
640.2
 30
0.0
 40
15.0
  1
φ１６
 50
0.0
 41
0.9
 51
0.0
  7
KANJI23
  0
TEXT
  8
0
  6
CONTINUOUS
 62
     3
 10
924.5
 20
640.2
 30
0.0
 40
9.0
  1
ｄ９
 50
0.0
 41
0.9
 51
0.0
  7
KANJI41
  0
TEXT
  8
0
  6
CONTINUOUS
 62
     3
 10
924.5
 20
649.2
 30
0.0
 40
9.0
  1
Ｈ１０
 50
0.0
 41
0.9
 51
0.0
  7
KANJI41
  0
TEXT
  8
7
  6
CONTINUOUS
 62
     2
 10
835.1
 20
606.2
 30
0.0
 40
15.0
  1
２５
 50
0.0
 41
0.9
 51
0.0
  7
KANJI23
  0
CIRCLE
  8
0
  6
CONTINUOUS
 62
     1
 10
861.0
 20
548.2
 30
0.0
 40
15.0
  0
CIRCLE
  8
0
  6
CONTINUOUS
 62
     1
 10
860.999984741
 20
559.2
 30
0.0
 40
3.0
  0
LINE
  8
0
  6
CONTINUOUS
 62
     1
 10
856.8
 20
535.9
 30
0.0
 11
858.8
 21
535.6
 31
0.0
  0
LINE
  8
0
  6
CONTINUOUS
 62
     1
 10
859.064615385
 20
538.730769231
 30
0.0
 11
856.8
 21
535.9
 31
0.0
  0
LINE
  8
0
  6
CONTINUOUS
 62
     1
 10
861.0
 20
538.3
 30
0.0
 11
858.8
 21
535.6
 31
0.0
  0
LINE
  8
0
  6
CONTINUOUS
 62
     1
 10
859.3
 20
540.3
 30
0.0
 11
859.064615385
 21
538.730769231
 31
0.0
  0
LINE
  8
0
  6
CONTINUOUS
 62
     1
 10
865.2
 20
535.9
 30
0.0
 11
863.2
 21
535.6
 31
0.0
  0
LINE
  8
0
  6
CONTINUOUS
 62
     1
 10
862.935384615
 20
538.730769231
 30
0.0
 11
865.2
 21
535.9
 31
0.0
  0
LINE
  8
0
  6
CONTINUOUS
 62
     1
 10
861.0
 20
538.3
 30
0.0
 11
863.2
 21
535.6
 31
0.0
  0
LINE
  8
0
  6
CONTINUOUS
 62
     1
 10
862.7
 20
540.3
 30
0.0
 11
862.935384615
 21
538.730769231
 31
0.0
  0
TEXT
  8
7
  6
CONTINUOUS
 62
     2
 10
803.1
 20
386.2
 30
0.0
 40
15.0
  1
Ｐ
 50
0.0
 41
0.9
 51
0.0
  7
KANJI23
  0
TEXT
  8
7
  6
CONTINUOUS
 62
     2
 10
832.1
 20
386.2
 30
0.0
 40
15.0
  1
３５
 50
0.0
 41
0.9
 51
0.0
  7
KANJI23
  0
TEXT
  8
7
  6
CONTINUOUS
 62
     2
 10
894.0
 20
330.2
 30
0.0
 40
15.0
  1
１８
 50
0.0
 41
0.9
 51
0.0
  7
KANJI23
  0
LINE
  8
0
  6
CONTINUOUS
 62
     2
 10
956.833333
 20
585.833317
 30
0.0
 11
944.759260171
 21
589.068555064
 31
0.0
  0
LINE
  8
0
  6
CONTINUOUS
 62
     2
 10
956.833333
 20
585.833317
 30
0.0
 11
944.759260171
 21
582.598078936
 31
0.0
  0
LINE
  8
0
  6
CONTINUOUS
 62
     2
 10
956.833333
 20
585.833317
 30
0.0
 11
915.833333
 21
585.833317
 31
0.0
  0
TEXT
  8
0
  6
CONTINUOUS
 62
     3
 10
922.833333
 20
595.833317
 30
0.0
 40
20.0
  1
前進
 50
0.0
 41
0.925
 51
0.0
  7
KANJI40
  0
LINE
  8
7
  6
CONTINUOUS
 62
     2
 10
960.5
 20
740.2
 30
0.0
 11
957.911809549
 21
730.540741737
 31
0.0
  0
LINE
  8
7
  6
CONTINUOUS
 62
     2
 10
960.5
 20
740.2
 30
0.0
 11
963.088190451
 21
730.540741737
 31
0.0
  0
LINE
  8
7
  6
CONTINUOUS
 62
     2
 10
960.5
 20
740.2
 30
0.0
 11
960.5
 21
700.2
 31
0.0
  0
LINE
  8
7
  6
CONTINUOUS
 62
     2
 10
960.5
 20
700.2
 30
0.0
 11
963.088190451
 21
709.859258263
 31
0.0
  0
LINE
  8
7
  6
CONTINUOUS
 62
     2
 10
960.5
 20
700.2
 30
0.0
 11
957.911809549
 21
709.859258263
 31
0.0
  0
ARC
  8
0
  6
CONTINUOUS
 62
     1
 10
1000.0
 20
480.2
 30
0.0
 40
15.0
 50
180.0
 51
270.0
  0
ARC
  8
0
  6
CONTINUOUS
 62
     1
 10
1000.0
 20
506.7
 30
0.0
 40
15.0
 50
90.0
 51
180.0
  0
LINE
  8
0
  6
CONTINUOUS
 62
     1
 10
985.0
 20
480.2
 30
0.0
 11
985.0
 21
506.7
 31
0.0
  0
LINE
  8
7
  6
CONTINUOUS
 62
     2
 10
985.0
 20
474.200015259
 30
0.0
 11
985.0
 21
370.2
 31
0.0
  0
LINE
  8
7
  6
CONTINUOUS
 62
     2
 10
985.0
 20
376.2
 30
0.0
 11
994.659258263
 21
373.611809549
 31
0.0
  0
LINE
  8
7
  6
CONTINUOUS
 62
     2
 10
985.0
 20
376.2
 30
0.0
 11
994.659258263
 21
378.788190451
 31
0.0
  0
LINE
  8
7
  6
CONTINUOUS
 62
     2
 10
1045.0
 20
376.2
 30
0.0
 11
985.0
 21
376.2
 31
0.0
  0
ARC
  8
0
  6
CONTINUOUS
 62
     1
 10
1189.0
 20
494.2
 30
0.0
 40
6.0
 50
270.0
 51
0.0
  0
ARC
  8
0
  6
CONTINUOUS
 62
     1
 10
1081.0
 20
494.2
 30
0.0
 40
6.0
 50
180.0
 51
270.0
  0
LINE
  8
0
  6
CONTINUOUS
 62
     1
 10
1090.0
 20
525.2
 30
0.0
 11
1090.0
 21
503.2
 31
0.0
  0
LINE
  8
0
  6
CONTINUOUS
 62
     1
 10
1090.0
 20
525.412516539
 30
0.0
 11
1075.0
 21
528.2
 31
0.0
  0
LINE
  8
0
  6
CONTINUOUS
 62
     1
 10
1180.0
 20
525.2
 30
0.0
 11
1180.0
 21
503.2
 31
0.0
  0
LINE
  8
0
  6
CONTINUOUS
 62
     1
 10
1180.0
 20
525.412516539
 30
0.0
 11
1195.0
 21
528.2
 31
0.0
  0
CIRCLE
  8
0
  6
CONTINUOUS
 62
     1
 10
1096.0
 20
587.2
 30
0.0
 40
5.0
  0
ARC
  8
0
  6
CONTINUOUS
 62
     1
 10
1093.878679656
 20
589.321320344
 30
0.0
 40
7.0
 50
172.721057981
 51
180.0
  0
ARC
  8
0
  6
CONTINUOUS
 62
     1
 10
1093.878679656
 20
589.321320344
 30
0.0
 40
7.0
 50
105.275864075
 51
172.721057981
  0
LINE
  8
0
  6
CONTINUOUS
 62
     1
 10
1086.935092126
 20
590.208220679
 30
0.0
 11
1084.322453676
 21
569.753742279
 31
0.0
  0
CIRCLE
  8
0
  6
CONTINUOUS
 62
     1
 10
1174.0
 20
587.2
 30
0.0
 40
5.0
  0
ARC
  8
0
  6
CONTINUOUS
 62
     1
 10
1176.121320344
 20
589.321320344
 30
0.0
 40
7.0
 50
0.0
 51
7.278942019
  0
ARC
  8
0
  6
CONTINUOUS
 62
     1
 10
1176.121320344
 20
589.321320344
 30
0.0
 40
7.0
 50
7.278942019
 51
74.724135925
  0
LINE
  8
0
  6
CONTINUOUS
 62
     1
 10
1183.064907874
 20
590.208220679
 30
0.0
 11
1185.677546324
 21
569.753742279
 31
0.0
  0
ARC
  8
0
  6
CONTINUOUS
 62
     1
 10
1093.878679656
 20
507.078679656
 30
0.0
 40
7.0
 50
180.0
 51
187.278942019
  0
LINE
  8
0
  6
CONTINUOUS
 62
     1
 10
1086.935092126
 20
506.191779321
 30
0.0
 11
1084.322453676
 21
526.646257721
 31
0.0
  0
ARC
  8
0
  6
CONTINUOUS
 62
     1
 10
1176.121320344
 20
507.078679656
 30
0.0
 40
7.0
 50
352.721057981
 51
0.0
  0
LINE
  8
0
  6
CONTINUOUS
 62
     1
 10
1183.064907874
 20
506.191779321
 30
0.0
 11
1185.677546324
 21
526.646257721
 31
0.0
  0
CIRCLE
  8
0
  6
CONTINUOUS
 62
     1
 10
1135.0
 20
548.2
 30
0.0
 40
47.5
  0
LINE
  8
0
  6
CONTINUOUS
 62
     1
 10
1090.0
 20
525.2
 30
0.0
 11
1091.179176712
 21
529.870094207
 31
0.0
  0
LINE
  8
0
  6
CONTINUOUS
 62
     1
 10
1180.0
 20
525.2
 30
0.0
 11
1178.820823288
 21
529.870094207
 31
0.0
  0
LINE
  8
0
  6
CONTINUOUS
 62
     1
 10
1093.484603014
 20
571.280767169
 30
0.0
 11
1075.0
 21
568.2
 31
0.0
  0
LINE
  8
0
  6
CONTINUOUS
 62
     1
 10
1176.515396986
 20
571.280767169
 30
0.0
 11
1195.0
 21
568.2
 31
0.0
  0
ARC
  8
0
  6
CONTINUOUS
 62
     1
 10
1217.0
 20
481.2
 30
0.0
 40
8.0
 50
270.0
 51
0.0
  0
LINE
  8
0
  6
CONTINUOUS
 62
     1
 10
1225.0
 20
481.2
 30
0.0
 11
1225.0
 21
675.2
 31
0.0
  0
ARC
  8
0
  6
CONTINUOUS
 62
     1
 10
1217.0
 20
675.2
 30
0.0
 40
8.0
 50
0.0
 51
90.0
  0
ARC
  8
0
  6
CONTINUOUS
 62
     1
 10
1053.0
 20
675.2
 30
0.0
 40
8.0
 50
90.0
 51
180.0
  0
LINE
  8
0
  6
CONTINUOUS
 62
     1
 10
1045.0
 20
481.2
 30
0.0
 11
1045.0
 21
675.2
 31
0.0
  0
LINE
  8
0
  6
CONTINUOUS
 62
     1
 10
1115.0
 20
568.2
 30
0.0
 11
1155.0
 21
568.2
 31
0.0
  0
LINE
  8
0
  6
CONTINUOUS
 62
     1
 10
1155.0
 20
528.2
 30
0.0
 11
1155.0
 21
568.2
 31
0.0
  0
LINE
  8
0
  6
CONTINUOUS
 62
     1
 10
1115.0
 20
528.2
 30
0.0
 11
1155.0
 21
528.2
 31
0.0
  0
LINE
  8
0
  6
CONTINUOUS
 62
     1
 10
1115.0
 20
528.2
 30
0.0
 11
1115.0
 21
568.2
 31
0.0
  0
LINE
  8
0
  6
CONTINUOUS
 62
     1
 10
1127.0
 20
528.2
 30
0.0
 11
1127.0
 21
568.2
 31
0.0
  0
LINE
  8
0
  6
CONTINUOUS
 62
     1
 10
1143.0
 20
528.2
 30
0.0
 11
1143.0
 21
568.2
 31
0.0
  0
LINE
  8
0
  6
CONTINUOUS
 62
     1
 10
1127.0
 20
540.2
 30
0.0
 11
1143.0
 21
540.2
 31
0.0
  0
LINE
  8
0
  6
CONTINUOUS
 62
     1
 10
1115.0
 20
538.2
 30
0.0
 11
1127.0
 21
538.2
 31
0.0
  0
LINE
  8
0
  6
CONTINUOUS
 62
     1
 10
1127.0
 20
556.2
 30
0.0
 11
1143.0
 21
556.2
 31
0.0
  0
LINE
  8
0
  6
CONTINUOUS
 62
     1
 10
1115.0
 20
558.2
 30
0.0
 11
1127.0
 21
558.2
 31
0.0
  0
LINE
  8
0
  6
CONTINUOUS
 62
     1
 10
1155.0
 20
538.2
 30
0.0
 11
1143.0
 21
538.2
 31
0.0
  0
LINE
  8
0
  6
CONTINUOUS
 62
     1
 10
1155.0
 20
558.2
 30
0.0
 11
1143.0
 21
558.2
 31
0.0
  0
CIRCLE
  8
0
  6
CONTINUOUS
 62
     1
 10
1135.0
 20
548.2
 30
0.0
 40
31.75
  0
ARC
  8
0
  6
CONTINUOUS
 62
     1
 10
1185.0
 20
498.7
 30
0.0
 40
3.0
 50
0.0
 51
90.0
  0
LINE
  8
0
  6
CONTINUOUS
 62
     1
 10
1185.0
 20
503.2
 30
0.0
 11
1185.0
 21
501.7
 31
0.0
  0
LINE
  8
0
  6
CONTINUOUS
 62
     1
 10
1188.0
 20
451.2
 30
0.0
 11
1188.0
 21
498.7
 31
0.0
  0
ARC
  8
0
  6
CONTINUOUS
 62
     1
 10
1085.0
 20
498.7
 30
0.0
 40
3.0
 50
90.0
 51
180.0
  0
LINE
  8
0
  6
CONTINUOUS
 62
     1
 10
1082.0
 20
451.2
 30
0.0
 11
1082.0
 21
498.7
 31
0.0
  0
LINE
  8
0
  6
CONTINUOUS
 62
     1
 10
1082.0
 20
451.2
 30
0.0
 11
1188.0
 21
451.2
 31
0.0
  0
LINE
  8
0
  6
CONTINUOUS
 62
     1
 10
1082.0
 20
458.7
 30
0.0
 11
1188.0
 21
458.7
 31
0.0
  0
LINE
  8
0
  6
CONTINUOUS
 62
     1
 10
1082.0
 20
457.2
 30
0.0
 11
1188.0
 21
457.2
 31
0.0
  0
LINE
  8
0
  6
CONTINUOUS
 62
     1
 10
1188.0
 20
473.2
 30
0.0
 11
1217.0
 21
473.2
 31
0.0
  0
LINE
  8
0
  6
CONTINUOUS
 62
     1
 10
1188.0
 20
488.2
 30
0.0
 11
1189.0
 21
488.2
 31
0.0
  0
LINE
  8
0
  6
CONTINUOUS
 62
     1
 10
1081.0
 20
488.2
 30
0.0
 11
1082.0
 21
488.2
 31
0.0
  0
LINE
  8
0
  6
CONTINUOUS
 62
     1
 10
1085.0
 20
503.2
 30
0.0
 11
1085.0
 21
501.7
 31
0.0
  0
LINE
  8
0
  6
CONTINUOUS
 62
     1
 10
1119.793093674
 20
503.2
 30
0.0
 11
1085.0
 21
503.2
 31
0.0
  0
LINE
  8
0
  6
CONTINUOUS
 62
     1
 10
1150.206906326
 20
503.2
 30
0.0
 11
1185.0
 21
503.2
 31
0.0
  0
ARC
  8
0
  6
CONTINUOUS
 62
     1
 10
1176.121320344
 20
507.078679656
 30
0.0
 40
7.0
 50
326.35145266
 51
352.721057981
  0
ARC
  8
0
  6
CONTINUOUS
 62
     1
 10
1093.878679656
 20
507.078679656
 30
0.0
 40
7.0
 50
187.278942019
 51
213.64854734
  0
LINE
  8
0
  6
CONTINUOUS
 62
     1
 10
1144.695359715
 20
501.7
 30
0.0
 11
1185.0
 21
501.7
 31
0.0
  0
LINE
  8
0
  6
CONTINUOUS
 62
     1
 10
1085.0
 20
501.7
 30
0.0
 11
1125.304640285
 21
501.7
 31
0.0
  0
ARC
  8
0
  6
CONTINUOUS
 62
     1
 10
1053.0
 20
481.2
 30
0.0
 40
8.0
 50
180.0
 51
241.044975628
  0
ARC
  8
0
  6
CONTINUOUS
 62
     1
 10
1191.0
 20
714.2
 30
0.0
 40
5.0
 50
0.0
 51
90.0
  0
ARC
  8
0
  6
CONTINUOUS
 62
     1
 10
1079.0
 20
714.2
 30
0.0
 40
5.0
 50
90.0
 51
180.0
  0
LINE
  8
0
  6
CONTINUOUS
 62
     1
 10
1074.0
 20
602.2
 30
0.0
 11
1074.0
 21
714.2
 31
0.0
  0
ARC
  8
0
  6
CONTINUOUS
 62
     1
 10
1079.0
 20
602.2
 30
0.0
 40
5.0
 50
180.0
 51
270.0
  0
LINE
  8
0
  6
CONTINUOUS
 62
     1
 10
1196.0
 20
602.2
 30
0.0
 11
1196.0
 21
714.2
 31
0.0
  0
LINE
  8
0
  6
CONTINUOUS
 62
     1
 10
1079.0
 20
597.2
 30
0.0
 11
1191.0
 21
597.2
 31
0.0
  0
ARC
  8
0
  6
CONTINUOUS
 62
     1
 10
1191.0
 20
602.2
 30
0.0
 40
5.0
 50
270.0
 51
0.0
  0
CIRCLE
  8
0
  6
CONTINUOUS
 62
     1
 10
1135.0
 20
658.2
 30
0.0
 40
57.0
  0
CIRCLE
  8
0
  6
CONTINUOUS
 62
     1
 10
1135.0
 20
658.2
 30
0.0
 40
42.0
  0
CIRCLE
  8
0
  6
CONTINUOUS
 62
     1
 10
1135.0
 20
658.2
 30
0.0
 40
36.5
  0
CIRCLE
  8
0
  6
CONTINUOUS
 62
     1
 10
1135.0
 20
658.2
 30
0.0
 40
15.5
  0
LINE
  8
0
  6
CONTINUOUS
 62
     1
 10
1139.952830189
 20
674.984500979
 30
0.0
 11
1164.330188679
 21
667.791143417
 31
0.0
  0
LINE
  8
0
  6
CONTINUOUS
 62
     1
 10
1139.952830189
 20
641.415499021
 30
0.0
 11
1164.330188679
 21
648.608856583
 31
0.0
  0
ARC
  8
0
  6
CONTINUOUS
 62
     1
 10
1161.5
 20
658.2
 30
0.0
 40
10.0
 50
0.0
 51
150.0
  0
ARC
  8
0
  6
CONTINUOUS
 62
     1
 10
1161.5
 20
658.2
 30
0.0
 40
10.0
 50
210.0
 51
0.0
  0
LINE
  8
0
  6
CONTINUOUS
 62
     1
 10
1149.671400751
 20
653.2
 30
0.0
 11
1152.839745962
 21
653.2
 31
0.0
  0
LINE
  8
0
  6
CONTINUOUS
 62
     1
 10
1149.671400751
 20
663.2
 30
0.0
 11
1152.839745962
 21
663.2
 31
0.0
  0
ARC
  8
0
  6
LTYPE2
 62
     2
 10
1135.0
 20
658.2
 30
0.0
 40
26.5
 50
345.963756532
 51
14.715071651
  0
LINE
  8
0
  6
CONTINUOUS
 62
     1
 10
1130.047169811
 20
674.984500979
 30
0.0
 11
1105.669811321
 21
667.791143417
 31
0.0
  0
LINE
  8
0
  6
CONTINUOUS
 62
     1
 10
1130.047169811
 20
641.415499021
 30
0.0
 11
1105.669811321
 21
648.608856583
 31
0.0
  0
ARC
  8
0
  6
CONTINUOUS
 62
     1
 10
1108.5
 20
658.2
 30
0.0
 40
10.0
 50
30.0
 51
180.0
  0
ARC
  8
0
  6
CONTINUOUS
 62
     1
 10
1108.5
 20
658.2
 30
0.0
 40
10.0
 50
180.0
 51
330.0
  0
LINE
  8
0
  6
CONTINUOUS
 62
     1
 10
1120.328599249
 20
653.2
 30
0.0
 11
1117.160254038
 21
653.2
 31
0.0
  0
LINE
  8
0
  6
CONTINUOUS
 62
     1
 10
1120.328599249
 20
663.2
 30
0.0
 11
1117.160254038
 21
663.2
 31
0.0
  0
ARC
  8
0
  6
LTYPE2
 62
     2
 10
1135.0
 20
658.2
 30
0.0
 40
26.5
 50
165.284928349
 51
194.036243468
  0
ARC
  8
0
  6
CONTINUOUS
 62
     1
 10
1135.0
 20
658.2
 30
0.0
 40
17.5
 50
16.601549599
 51
163.398450401
  0
ARC
  8
0
  6
CONTINUOUS
 62
     1
 10
1135.0
 20
658.2
 30
0.0
 40
17.5
 50
196.601549599
 51
343.398450401
  0
ARC
  8
0
  6
LTYPE2
 62
     2
 10
1135.0
 20
658.2
 30
0.0
 40
51.0
 50
34.902495616
 51
52.696051722
  0
LINE
  8
0
  6
LTYPE2
 62
     2
 10
1167.0
 20
690.2
 30
0.0
 11
1176.0
 21
699.2
 31
0.0
  0
ARC
  8
0
  6
LTYPE2
 62
     2
 10
1135.0
 20
658.2
 30
0.0
 40
25.0
 50
63.434948823
 51
114.623564786
  0
ARC
  8
0
  6
LTYPE2
 62
     2
 10
1135.0
 20
658.2
 30
0.0
 40
25.0
 50
245.376435214
 51
296.565051177
  0
ARC
  8
0
  6
LTYPE2
 62
     2
 10
1135.0
 20
658.2
 30
0.0
 40
51.0
 50
124.902495616
 51
142.696051722
  0
LINE
  8
0
  6
LTYPE2
 62
     2
 10
1103.0
 20
690.2
 30
0.0
 11
1094.0
 21
699.2
 31
0.0
  0
ARC
  8
0
  6
LTYPE2
 62
     2
 10
1135.0
 20
658.2
 30
0.0
 40
51.0
 50
307.303948278
 51
325.097504384
  0
LINE
  8
0
  6
LTYPE2
 62
     2
 10
1167.0
 20
626.2
 30
0.0
 11
1176.0
 21
617.2
 31
0.0
  0
ARC
  8
0
  6
LTYPE2
 62
     2
 10
1135.0
 20
658.2
 30
0.0
 40
51.0
 50
217.303948278
 51
235.097504384
  0
LINE
  8
0
  6
LTYPE2
 62
     2
 10
1103.0
 20
626.2
 30
0.0
 11
1094.0
 21
617.2
 31
0.0
  0
LINE
  8
0
  6
LTYPE2
 62
     2
 10
1177.0
 20
709.2
 30
0.0
 11
1194.0
 21
709.2
 31
0.0
  0
LINE
  8
0
  6
LTYPE2
 62
     2
 10
1186.0
 20
717.2
 30
0.0
 11
1186.0
 21
700.7
 31
0.0
  0
LINE
  8
0
  6
LTYPE2
 62
     2
 10
1093.0
 20
709.2
 30
0.0
 11
1076.0
 21
709.2
 31
0.0
  0
LINE
  8
0
  6
LTYPE2
 62
     2
 10
1084.0
 20
717.2
 30
0.0
 11
1084.0
 21
700.7
 31
0.0
  0
LINE
  8
0
  6
LTYPE2
 62
     2
 10
1177.0
 20
607.2
 30
0.0
 11
1194.0
 21
607.2
 31
0.0
  0
LINE
  8
0
  6
LTYPE2
 62
     2
 10
1186.0
 20
599.2
 30
0.0
 11
1186.0
 21
615.7
 31
0.0
  0
LINE
  8
0
  6
LTYPE2
 62
     2
 10
1093.0
 20
607.2
 30
0.0
 11
1076.0
 21
607.2
 31
0.0
  0
LINE
  8
0
  6
LTYPE2
 62
     2
 10
1084.0
 20
599.2
 30
0.0
 11
1084.0
 21
615.7
 31
0.0
  0
LINE
  8
0
  6
CONTINUOUS
 62
     1
 10
1165.0
 20
728.2
 30
0.0
 11
1165.0
 21
731.2
 31
0.0
  0
ARC
  8
0
  6
CONTINUOUS
 62
     1
 10
1161.0
 20
725.2
 30
0.0
 40
3.0
 50
90.0
 51
180.0
  0
LINE
  8
0
  6
CONTINUOUS
 62
     1
 10
1158.0
 20
714.353619242
 30
0.0
 11
1158.0
 21
725.2
 31
0.0
  0
ARC
  8
0
  6
CONTINUOUS
 62
     1
 10
1154.0
 20
714.353619242
 30
0.0
 40
4.0
 50
304.936144888
 51
0.0
  0
ARC
  8
0
  6
CONTINUOUS
 62
     1
 10
1109.0
 20
725.2
 30
0.0
 40
3.0
 50
0.0
 51
90.0
  0
LINE
  8
0
  6
CONTINUOUS
 62
     1
 10
1112.0
 20
714.353619242
 30
0.0
 11
1112.0
 21
725.2
 31
0.0
  0
ARC
  8
0
  6
CONTINUOUS
 62
     1
 10
1116.0
 20
714.353619242
 30
0.0
 40
4.0
 50
180.0
 51
235.063855112
  0
LINE
  8
0
  6
CONTINUOUS
 62
     1
 10
1158.0
 20
719.2
 30
0.0
 11
1191.0
 21
719.2
 31
0.0
  0
LINE
  8
0
  6
CONTINUOUS
 62
     1
 10
1079.0
 20
719.2
 30
0.0
 11
1112.0
 21
719.2
 31
0.0
  0
CIRCLE
  8
0
  6
CONTINUOUS
 62
     1
 10
1135.0
 20
753.2
 30
0.0
 40
17.0
  0
LINE
  8
0
  6
LTYPE2
 62
     2
 10
1112.0
 20
753.2
 30
0.0
 11
1158.0
 21
753.2
 31
0.0
  0
ARC
  8
0
  6
CONTINUOUS
 62
     1
 10
1093.0
 20
775.220045888
 30
0.0
 40
2.0
 50
90.0
 51
180.0
  0
ARC
  8
0
  6
CONTINUOUS
 62
     1
 10
1101.0
 20
781.2
 30
0.0
 40
2.0
 50
90.0
 51
180.0
  0
LINE
  8
0
  6
CONTINUOUS
 62
     1
 10
1101.0
 20
783.2
 30
0.0
 11
1169.0
 21
783.2
 31
0.0
  0
ARC
  8
0
  6
CONTINUOUS
 62
     1
 10
1169.0
 20
781.2
 30
0.0
 40
2.0
 50
0.0
 51
90.0
  0
LINE
  8
0
  6
CONTINUOUS
 62
     1
 10
1177.0
 20
777.220045888
 30
0.0
 11
1093.0
 21
777.220045888
 31
0.0
  0
ARC
  8
0
  6
CONTINUOUS
 62
     1
 10
1177.0
 20
775.220045888
 30
0.0
 40
2.0
 50
0.0
 51
90.0
  0
ARC
  8
0
  6
CONTINUOUS
 62
     1
 10
1093.0
 20
779.220045888
 30
0.0
 40
2.0
 50
90.0
 51
180.0
  0
ARC
  8
0
  6
CONTINUOUS
 62
     1
 10
1101.0
 20
772.2
 30
0.0
 40
2.0
 50
90.0
 51
180.0
  0
LINE
  8
0
  6
CONTINUOUS
 62
     1
 10
1101.0
 20
774.2
 30
0.0
 11
1169.0
 21
774.2
 31
0.0
  0
ARC
  8
0
  6
CONTINUOUS
 62
     1
 10
1169.0
 20
772.2
 30
0.0
 40
2.0
 50
0.0
 51
90.0
  0
LINE
  8
0
  6
CONTINUOUS
 62
     1
 10
1177.0
 20
781.220045888
 30
0.0
 11
1093.0
 21
781.220045888
 31
0.0
  0
ARC
  8
0
  6
CONTINUOUS
 62
     1
 10
1177.0
 20
779.220045888
 30
0.0
 40
2.0
 50
0.0
 51
90.0
  0
LINE
  8
0
  6
CONTINUOUS
 62
     1
 10
1105.0
 20
728.2
 30
0.0
 11
1165.0
 21
728.2
 31
0.0
  0
LINE
  8
0
  6
CONTINUOUS
 62
     1
 10
1105.0
 20
728.2
 30
0.0
 11
1105.0
 21
731.2
 31
0.0
  0
LINE
  8
0
  6
CONTINUOUS
 62
     1
 10
1171.0
 20
733.2
 30
0.0
 11
1177.0
 21
733.2
 31
0.0
  0
LINE
  8
0
  6
CONTINUOUS
 62
     1
 10
1179.0
 20
735.2
 30
0.0
 11
1179.0
 21
779.220045888
 31
0.0
  0
ARC
  8
0
  6
CONTINUOUS
 62
     1
 10
1177.0
 20
735.2
 30
0.0
 40
2.0
 50
270.0
 51
0.0
  0
LINE
  8
0
  6
CONTINUOUS
 62
     1
 10
1171.0
 20
733.2
 30
0.0
 11
1171.0
 21
772.2
 31
0.0
  0
ARC
  8
0
  6
CONTINUOUS
 62
     1
 10
1169.0
 20
733.2
 30
0.0
 40
2.0
 50
270.0
 51
0.0
  0
LINE
  8
0
  6
CONTINUOUS
 62
     1
 10
1099.0
 20
733.2
 30
0.0
 11
1099.0
 21
772.2
 31
0.0
  0
LINE
  8
0
  6
CONTINUOUS
 62
     1
 10
1101.0
 20
731.2
 30
0.0
 11
1169.0
 21
731.2
 31
0.0
  0
ARC
  8
0
  6
CONTINUOUS
 62
     1
 10
1101.0
 20
733.2
 30
0.0
 40
2.0
 50
180.0
 51
270.0
  0
LINE
  8
0
  6
CONTINUOUS
 62
     1
 10
1099.0
 20
733.2
 30
0.0
 11
1093.0
 21
733.2
 31
0.0
  0
LINE
  8
0
  6
CONTINUOUS
 62
     1
 10
1091.0
 20
735.2
 30
0.0
 11
1091.0
 21
779.220045888
 31
0.0
  0
ARC
  8
0
  6
CONTINUOUS
 62
     1
 10
1093.0
 20
735.2
 30
0.0
 40
2.0
 50
180.0
 51
270.0
  0
CIRCLE
  8
0
  6
CONTINUOUS
 62
     2
 10
1135.0
 20
753.2
 30
0.0
 40
15.0
  0
CIRCLE
  8
0
  6
CONTINUOUS
 62
     6
 10
1135.0
 20
683.2
 30
0.0
 40
3.999998
  0
LINE
  8
0
  6
CONTINUOUS
 62
     6
 10
1138.999998
 20
685.5058812
 30
0.0
 11
1138.999998
 21
680.8941188
 31
0.0
  0
LINE
  8
0
  6
CONTINUOUS
 62
     6
 10
1138.999998
 20
680.8941188
 30
0.0
 11
1135.0
 21
678.5882376
 31
0.0
  0
LINE
  8
0
  6
CONTINUOUS
 62
     6
 10
1131.000002
 20
685.5058812
 30
0.0
 11
1131.000002
 21
680.8941188
 31
0.0
  0
LINE
  8
0
  6
CONTINUOUS
 62
     6
 10
1131.000002
 20
680.8941188
 30
0.0
 11
1135.0
 21
678.5882376
 31
0.0
  0
LINE
  8
0
  6
CONTINUOUS
 62
     6
 10
1138.999998
 20
685.5058812
 30
0.0
 11
1135.0
 21
687.8117624
 31
0.0
  0
LINE
  8
0
  6
CONTINUOUS
 62
     6
 10
1131.000002
 20
685.5058812
 30
0.0
 11
1135.0
 21
687.8117624
 31
0.0
  0
CIRCLE
  8
0
  6
CONTINUOUS
 62
     6
 10
1135.0
 20
633.2
 30
0.0
 40
3.999998
  0
LINE
  8
0
  6
CONTINUOUS
 62
     6
 10
1138.999998
 20
630.8941188
 30
0.0
 11
1138.999998
 21
635.5058812
 31
0.0
  0
LINE
  8
0
  6
CONTINUOUS
 62
     6
 10
1138.999998
 20
635.5058812
 30
0.0
 11
1135.0
 21
637.8117624
 31
0.0
  0
LINE
  8
0
  6
CONTINUOUS
 62
     6
 10
1131.000002
 20
630.8941188
 30
0.0
 11
1131.000002
 21
635.5058812
 31
0.0
  0
LINE
  8
0
  6
CONTINUOUS
 62
     6
 10
1131.000002
 20
635.5058812
 30
0.0
 11
1135.0
 21
637.8117624
 31
0.0
  0
LINE
  8
0
  6
CONTINUOUS
 62
     6
 10
1138.999998
 20
630.8941188
 30
0.0
 11
1135.0
 21
628.5882376
 31
0.0
  0
LINE
  8
0
  6
CONTINUOUS
 62
     6
 10
1131.000002
 20
630.8941188
 30
0.0
 11
1135.0
 21
628.5882376
 31
0.0
  0
CIRCLE
  8
0
  6
CONTINUOUS
 62
     6
 10
1108.5
 20
658.2
 30
0.0
 40
3.5
  0
LINE
  8
0
  6
CONTINUOUS
 62
     6
 10
1104.992597115
 20
660.225
 30
0.0
 11
1108.5
 21
662.25
 31
0.0
  0
LINE
  8
0
  6
CONTINUOUS
 62
     6
 10
1108.5
 20
662.25
 30
0.0
 11
1112.007402885
 21
660.225
 31
0.0
  0
LINE
  8
0
  6
CONTINUOUS
 62
     6
 10
1112.007402885
 20
660.225
 30
0.0
 11
1112.007402885
 21
656.175
 31
0.0
  0
LINE
  8
0
  6
CONTINUOUS
 62
     6
 10
1104.992597115
 20
656.175
 30
0.0
 11
1104.992597115
 21
660.225
 31
0.0
  0
LINE
  8
0
  6
CONTINUOUS
 62
     6
 10
1112.007402885
 20
656.175
 30
0.0
 11
1108.5
 21
654.15
 31
0.0
  0
LINE
  8
0
  6
CONTINUOUS
 62
     6
 10
1108.5
 20
654.15
 30
0.0
 11
1104.992597115
 21
656.175
 31
0.0
  0
LINE
  8
0
  6
CONTINUOUS
 62
     6
 10
1077.50005
 20
712.94703
 30
0.0
 11
1077.50005
 21
705.45297
 31
0.0
  0
LINE
  8
0
  6
CONTINUOUS
 62
     6
 10
1090.49995
 20
712.94703
 30
0.0
 11
1090.49995
 21
705.45297
 31
0.0
  0
LINE
  8
0
  6
CONTINUOUS
 62
     6
 10
1077.50005
 20
712.94703
 30
0.0
 11
1084.0
 21
716.69406
 31
0.0
  0
LINE
  8
0
  6
CONTINUOUS
 62
     6
 10
1090.49995
 20
712.94703
 30
0.0
 11
1084.0
 21
716.69406
 31
0.0
  0
LINE
  8
0
  6
CONTINUOUS
 62
     6
 10
1077.50005
 20
705.45297
 30
0.0
 11
1084.0
 21
701.70594
 31
0.0
  0
CIRCLE
  8
0
  6
CONTINUOUS
 62
     6
 10
1161.5
 20
658.2
 30
0.0
 40
3.5
  0
LINE
  8
0
  6
CONTINUOUS
 62
     6
 10
1165.007402885
 20
660.225
 30
0.0
 11
1161.5
 21
662.25
 31
0.0
  0
LINE
  8
0
  6
CONTINUOUS
 62
     6
 10
1161.5
 20
662.25
 30
0.0
 11
1157.992597115
 21
660.225
 31
0.0
  0
LINE
  8
0
  6
CONTINUOUS
 62
     6
 10
1157.992597115
 20
660.225
 30
0.0
 11
1157.992597115
 21
656.175
 31
0.0
  0
LINE
  8
0
  6
CONTINUOUS
 62
     6
 10
1157.992597115
 20
656.175
 30
0.0
 11
1161.5
 21
654.15
 31
0.0
  0
LINE
  8
0
  6
CONTINUOUS
 62
     6
 10
1161.5
 20
654.15
 30
0.0
 11
1165.007402885
 21
656.175
 31
0.0
  0
LINE
  8
0
  6
CONTINUOUS
 62
     6
 10
1165.007402885
 20
656.175
 30
0.0
 11
1165.007402885
 21
660.225
 31
0.0
  0
LINE
  8
0
  6
CONTINUOUS
 62
     6
 10
1167.062447841
 20
619.831672959
 30
0.0
 11
1167.062447841
 21
624.443435359
 31
0.0
  0
LINE
  8
0
  6
CONTINUOUS
 62
     6
 10
1175.062443841
 20
624.443435359
 30
0.0
 11
1171.062445841
 21
626.749316559
 31
0.0
  0
LINE
  8
0
  6
CONTINUOUS
 62
     6
 10
1167.062447841
 20
624.443435359
 30
0.0
 11
1171.062445841
 21
626.749316559
 31
0.0
  0
LINE
  8
0
  6
CONTINUOUS
 62
     6
 10
1175.062443841
 20
619.831672959
 30
0.0
 11
1171.062445841
 21
617.525791759
 31
0.0
  0
LINE
  8
0
  6
CONTINUOUS
 62
     6
 10
1167.062447841
 20
619.831672959
 30
0.0
 11
1171.062445841
 21
617.525791759
 31
0.0
  0
LINE
  8
0
  6
CONTINUOUS
 62
     6
 10
1175.062443841
 20
619.831672959
 30
0.0
 11
1175.062443841
 21
624.443435359
 31
0.0
  0
CIRCLE
  8
0
  6
CONTINUOUS
 62
     6
 10
1171.062445841
 20
622.137554159
 30
0.0
 40
3.999998
  0
CIRCLE
  8
0
  6
CONTINUOUS
 62
     6
 10
1084.0
 20
709.2
 30
0.0
 40
6.49995
  0
LINE
  8
0
  6
CONTINUOUS
 62
     6
 10
1090.49995
 20
705.45297
 30
0.0
 11
1084.0
 21
701.70594
 31
0.0
  0
LINE
  8
0
  6
CONTINUOUS
 62
     6
 10
1096.631672959
 20
698.262443841
 30
0.0
 11
1101.243435359
 21
698.262443841
 31
0.0
  0
LINE
  8
0
  6
CONTINUOUS
 62
     6
 10
1101.243435359
 20
698.262443841
 30
0.0
 11
1103.549316559
 21
694.262445841
 31
0.0
  0
LINE
  8
0
  6
CONTINUOUS
 62
     6
 10
1101.243435359
 20
690.262447841
 30
0.0
 11
1103.549316559
 21
694.262445841
 31
0.0
  0
LINE
  8
0
  6
CONTINUOUS
 62
     6
 10
1096.631672959
 20
698.262443841
 30
0.0
 11
1094.325791759
 21
694.262445841
 31
0.0
  0
LINE
  8
0
  6
CONTINUOUS
 62
     6
 10
1096.631672959
 20
690.262447841
 30
0.0
 11
1094.325791759
 21
694.262445841
 31
0.0
  0
LINE
  8
0
  6
CONTINUOUS
 62
     6
 10
1096.631672959
 20
690.262447841
 30
0.0
 11
1101.243435359
 21
690.262447841
 31
0.0
  0
CIRCLE
  8
0
  6
CONTINUOUS
 62
     6
 10
1098.937554159
 20
694.262445841
 30
0.0
 40
3.999998
  0
LINE
  8
0
  6
CONTINUOUS
 62
     6
 10
1175.062443841
 20
696.568327041
 30
0.0
 11
1171.062445841
 21
698.874208241
 31
0.0
  0
LINE
  8
0
  6
CONTINUOUS
 62
     6
 10
1167.062447841
 20
696.568327041
 30
0.0
 11
1171.062445841
 21
698.874208241
 31
0.0
  0
LINE
  8
0
  6
CONTINUOUS
 62
     6
 10
1175.062443841
 20
696.568327041
 30
0.0
 11
1175.062443841
 21
691.956564641
 31
0.0
  0
LINE
  8
0
  6
CONTINUOUS
 62
     6
 10
1175.062443841
 20
691.956564641
 30
0.0
 11
1171.062445841
 21
689.650683441
 31
0.0
  0
LINE
  8
0
  6
CONTINUOUS
 62
     6
 10
1167.062447841
 20
691.956564641
 30
0.0
 11
1171.062445841
 21
689.650683441
 31
0.0
  0
LINE
  8
0
  6
CONTINUOUS
 62
     6
 10
1167.062447841
 20
696.568327041
 30
0.0
 11
1167.062447841
 21
691.956564641
 31
0.0
  0
CIRCLE
  8
0
  6
CONTINUOUS
 62
     6
 10
1171.062445841
 20
694.262445841
 30
0.0
 40
3.999998
  0
LINE
  8
0
  6
CONTINUOUS
 62
     6
 10
1179.50005
 20
712.94703
 30
0.0
 11
1179.50005
 21
705.45297
 31
0.0
  0
LINE
  8
0
  6
CONTINUOUS
 62
     6
 10
1179.50005
 20
705.45297
 30
0.0
 11
1186.0
 21
701.70594
 31
0.0
  0
LINE
  8
0
  6
CONTINUOUS
 62
     6
 10
1192.49995
 20
712.94703
 30
0.0
 11
1192.49995
 21
705.45297
 31
0.0
  0
LINE
  8
0
  6
CONTINUOUS
 62
     6
 10
1192.49995
 20
712.94703
 30
0.0
 11
1186.0
 21
716.69406
 31
0.0
  0
LINE
  8
0
  6
CONTINUOUS
 62
     6
 10
1179.50005
 20
712.94703
 30
0.0
 11
1186.0
 21
716.69406
 31
0.0
  0
LINE
  8
0
  6
CONTINUOUS
 62
     6
 10
1192.49995
 20
705.45297
 30
0.0
 11
1186.0
 21
701.70594
 31
0.0
  0
CIRCLE
  8
0
  6
CONTINUOUS
 62
     6
 10
1186.0
 20
709.2
 30
0.0
 40
6.49995
  0
LINE
  8
0
  6
CONTINUOUS
 62
     6
 10
1096.631672959
 20
618.137556159
 30
0.0
 11
1101.243435359
 21
618.137556159
 31
0.0
  0
LINE
  8
0
  6
CONTINUOUS
 62
     6
 10
1101.243435359
 20
618.137556159
 30
0.0
 11
1103.549316559
 21
622.137554159
 31
0.0
  0
LINE
  8
0
  6
CONTINUOUS
 62
     6
 10
1101.243435359
 20
626.137552159
 30
0.0
 11
1103.549316559
 21
622.137554159
 31
0.0
  0
LINE
  8
0
  6
CONTINUOUS
 62
     6
 10
1096.631672959
 20
626.137552159
 30
0.0
 11
1101.243435359
 21
626.137552159
 31
0.0
  0
LINE
  8
0
  6
CONTINUOUS
 62
     6
 10
1096.631672959
 20
618.137556159
 30
0.0
 11
1094.325791759
 21
622.137554159
 31
0.0
  0
LINE
  8
0
  6
CONTINUOUS
 62
     6
 10
1096.631672959
 20
626.137552159
 30
0.0
 11
1094.325791759
 21
622.137554159
 31
0.0
  0
CIRCLE
  8
0
  6
CONTINUOUS
 62
     6
 10
1098.937554159
 20
622.137554159
 30
0.0
 40
3.999998
  0
LINE
  8
0
  6
CONTINUOUS
 62
     6
 10
1090.49995
 20
603.45297
 30
0.0
 11
1090.49995
 21
610.94703
 31
0.0
  0
LINE
  8
0
  6
CONTINUOUS
 62
     6
 10
1090.49995
 20
610.94703
 30
0.0
 11
1084.0
 21
614.69406
 31
0.0
  0
LINE
  8
0
  6
CONTINUOUS
 62
     6
 10
1077.50005
 20
603.45297
 30
0.0
 11
1084.0
 21
599.70594
 31
0.0
  0
LINE
  8
0
  6
CONTINUOUS
 62
     6
 10
1090.49995
 20
603.45297
 30
0.0
 11
1084.0
 21
599.70594
 31
0.0
  0
LINE
  8
0
  6
CONTINUOUS
 62
     6
 10
1077.50005
 20
610.94703
 30
0.0
 11
1084.0
 21
614.69406
 31
0.0
  0
LINE
  8
0
  6
CONTINUOUS
 62
     6
 10
1077.50005
 20
603.45297
 30
0.0
 11
1077.50005
 21
610.94703
 31
0.0
  0
CIRCLE
  8
0
  6
CONTINUOUS
 62
     6
 10
1084.0
 20
607.2
 30
0.0
 40
6.49995
  0
LINE
  8
0
  6
CONTINUOUS
 62
     6
 10
1179.50005
 20
603.45297
 30
0.0
 11
1179.50005
 21
610.94703
 31
0.0
  0
LINE
  8
0
  6
CONTINUOUS
 62
     6
 10
1179.50005
 20
603.45297
 30
0.0
 11
1186.0
 21
599.70594
 31
0.0
  0
LINE
  8
0
  6
CONTINUOUS
 62
     6
 10
1192.49995
 20
603.45297
 30
0.0
 11
1192.49995
 21
610.94703
 31
0.0
  0
LINE
  8
0
  6
CONTINUOUS
 62
     6
 10
1192.49995
 20
603.45297
 30
0.0
 11
1186.0
 21
599.70594
 31
0.0
  0
LINE
  8
0
  6
CONTINUOUS
 62
     6
 10
1192.49995
 20
610.94703
 30
0.0
 11
1186.0
 21
614.69406
 31
0.0
  0
LINE
  8
0
  6
CONTINUOUS
 62
     6
 10
1179.50005
 20
610.94703
 30
0.0
 11
1186.0
 21
614.69406
 31
0.0
  0
CIRCLE
  8
0
  6
CONTINUOUS
 62
     6
 10
1186.0
 20
607.2
 30
0.0
 40
6.49995
  0
LINE
  8
0
  6
CONTINUOUS
 62
     1
 10
1195.0
 20
494.2
 30
0.0
 11
1195.0
 21
599.2
 31
0.0
  0
LINE
  8
0
  6
CONTINUOUS
 62
     1
 10
1177.008220679
 20
596.264907874
 30
0.0
 11
1169.68733719
 21
597.2
 31
0.0
  0
LINE
  8
0
  6
CONTINUOUS
 62
     1
 10
1092.991779321
 20
596.264907874
 30
0.0
 11
1100.31266281
 21
597.2
 31
0.0
  0
LINE
  8
0
  6
CONTINUOUS
 62
     1
 10
1075.0
 20
494.2
 30
0.0
 11
1075.0
 21
599.2
 31
0.0
  0
LINE
  8
0
  6
LTYPE2
 62
     2
 10
1165.915102543
 20
587.2
 30
0.0
 11
1182.415102543
 21
587.2
 31
0.0
  0
LINE
  8
0
  6
LTYPE2
 62
     2
 10
1174.0
 20
594.872877017
 30
0.0
 11
1174.0
 21
578.572877017
 31
0.0
  0
LINE
  8
0
  6
LTYPE2
 62
     2
 10
1104.084897457
 20
587.2
 30
0.0
 11
1087.584897457
 21
587.2
 31
0.0
  0
LINE
  8
0
  6
LTYPE2
 62
     2
 10
1096.0
 20
594.872877017
 30
0.0
 11
1096.0
 21
578.572877017
 31
0.0
  0
LINE
  8
0
  6
CONTINUOUS
 62
     1
 10
1196.0
 20
683.2
 30
0.0
 11
1217.0
 21
683.2
 31
0.0
  0
LINE
  8
0
  6
CONTINUOUS
 62
     1
 10
1053.0
 20
683.2
 30
0.0
 11
1074.0
 21
683.2
 31
0.0
  0
LINE
  8
0
  6
LTYPE1
 62
     2
 10
1173.0
 20
540.2
 30
0.0
 11
1173.0
 21
556.2
 31
0.0
  0
LINE
  8
0
  6
LTYPE1
 62
     2
 10
1173.0
 20
540.2
 30
0.0
 11
1195.0
 21
540.2
 31
0.0
  0
LINE
  8
0
  6
LTYPE1
 62
     2
 10
1173.0
 20
556.2
 30
0.0
 11
1195.0
 21
556.2
 31
0.0
  0
LINE
  8
0
  6
LTYPE1
 62
     2
 10
1097.0
 20
540.2
 30
0.0
 11
1097.0
 21
556.2
 31
0.0
  0
LINE
  8
0
  6
LTYPE1
 62
     2
 10
1097.0
 20
540.2
 30
0.0
 11
1075.0
 21
540.2
 31
0.0
  0
LINE
  8
0
  6
LTYPE1
 62
     2
 10
1097.0
 20
556.2
 30
0.0
 11
1075.0
 21
556.2
 31
0.0
  0
LINE
  8
0
  6
LTYPE3
 62
     2
 10
1063.0
 20
658.2
 30
0.0
 11
1202.517857143
 21
658.2
 31
0.0
  0
LINE
  8
0
  6
LTYPE3
 62
     2
 10
1063.0
 20
548.2
 30
0.0
 11
1206.0
 21
548.2
 31
0.0
  0
LINE
  8
0
  6
LTYPE2
 62
     2
 10
1135.0
 20
447.153571429
 30
0.0
 11
1135.0
 21
791.153571429
 31
0.0
  0
LINE
  8
0
  6
CONTINUOUS
 62
     1
 10
1040.2
 20
531.05
 30
0.0
 11
1040.2
 21
503.35
 31
0.0
  0
LINE
  8
0
  6
CONTINUOUS
 62
     1
 10
1045.0
 20
503.35
 30
0.0
 11
1040.2
 21
503.35
 31
0.0
  0
LINE
  8
0
  6
CONTINUOUS
 62
     1
 10
1045.0
 20
531.05
 30
0.0
 11
1040.2
 21
531.05
 31
0.0
  0
LINE
  8
0
  6
CONTINUOUS
 62
     1
 10
1035.0
 20
531.85
 30
0.0
 11
1035.0
 21
502.55
 31
0.0
  0
LINE
  8
0
  6
CONTINUOUS
 62
     1
 10
1035.0
 20
531.85
 30
0.0
 11
1022.0
 21
531.85
 31
0.0
  0
ARC
  8
0
  6
CONTINUOUS
 62
     1
 10
1022.0
 20
529.85
 30
0.0
 40
2.0
 50
90.0
 51
180.0
  0
LINE
  8
0
  6
CONTINUOUS
 62
     1
 10
1035.0
 20
502.55
 30
0.0
 11
1022.0
 21
502.55
 31
0.0
  0
LINE
  8
0
  6
CONTINUOUS
 62
     1
 10
1020.0
 20
529.85
 30
0.0
 11
1020.0
 21
504.55
 31
0.0
  0
ARC
  8
0
  6
CONTINUOUS
 62
     1
 10
1022.0
 20
504.55
 30
0.0
 40
2.0
 50
180.0
 51
270.0
  0
LINE
  8
0
  6
CONTINUOUS
 62
     6
 10
1045.0
 20
524.1
 30
0.0
 11
1040.2
 21
524.1
 31
0.0
  0
LINE
  8
0
  6
CONTINUOUS
 62
     6
 10
1045.0
 20
510.3
 30
0.0
 11
1040.2
 21
510.3
 31
0.0
  0
LINE
  8
0
  6
CONTINUOUS
 62
     6
 10
1024.0
 20
529.85
 30
0.0
 11
1035.0
 21
529.85
 31
0.0
  0
LINE
  8
0
  6
CONTINUOUS
 62
     6
 10
1024.0
 20
520.95
 30
0.0
 11
1035.0
 21
520.95
 31
0.0
  0
LINE
  8
0
  6
CONTINUOUS
 62
     6
 10
1024.0
 20
525.05
 30
0.0
 11
1035.0
 21
525.05
 31
0.0
  0
LINE
  8
0
  6
CONTINUOUS
 62
     6
 10
1024.0
 20
525.05
 30
0.0
 11
1024.0
 21
529.85
 31
0.0
  0
LINE
  8
0
  6
CONTINUOUS
 62
     6
 10
1024.0
 20
504.55
 30
0.0
 11
1035.0
 21
504.55
 31
0.0
  0
LINE
  8
0
  6
CONTINUOUS
 62
     6
 10
1024.0
 20
513.45
 30
0.0
 11
1035.0
 21
513.45
 31
0.0
  0
LINE
  8
0
  6
CONTINUOUS
 62
     6
 10
1024.0
 20
509.35
 30
0.0
 11
1035.0
 21
509.35
 31
0.0
  0
LINE
  8
0
  6
CONTINUOUS
 62
     6
 10
1024.0
 20
509.35
 30
0.0
 11
1024.0
 21
504.55
 31
0.0
  0
LINE
  8
0
  6
CONTINUOUS
 62
     6
 10
1040.2
 20
529.1
 30
0.0
 11
1035.0
 21
529.1
 31
0.0
  0
LINE
  8
0
  6
CONTINUOUS
 62
     6
 10
1040.2
 20
529.9
 30
0.0
 11
1035.0
 21
529.9
 31
0.0
  0
LINE
  8
0
  6
CONTINUOUS
 62
     6
 10
1040.2
 20
505.3
 30
0.0
 11
1035.0
 21
505.3
 31
0.0
  0
LINE
  8
0
  6
CONTINUOUS
 62
     6
 10
1040.2
 20
504.5
 30
0.0
 11
1035.0
 21
504.5
 31
0.0
  0
LINE
  8
0
  6
CONTINUOUS
 62
     6
 10
1024.0
 20
513.45
 30
0.0
 11
1024.0
 21
520.95
 31
0.0
  0
LINE
  8
0
  6
LTYPE3
 62
     2
 10
1037.5
 20
562.2
 30
0.0
 11
1057.75
 21
562.2
 31
0.0
  0
LINE
  8
7
  6
CONTINUOUS
 62
     2
 10
1201.0
 20
556.2
 30
0.0
 11
1255.0
 21
556.2
 31
0.0
  0
LINE
  8
7
  6
CONTINUOUS
 62
     2
 10
1249.0
 20
556.2
 30
0.0
 11
1251.588190451
 21
565.859258263
 31
0.0
  0
LINE
  8
7
  6
CONTINUOUS
 62
     2
 10
1249.0
 20
556.2
 30
0.0
 11
1246.411809549
 21
565.859258263
 31
0.0
  0
LINE
  8
7
  6
CONTINUOUS
 62
     2
 10
1249.0
 20
540.2
 30
0.0
 11
1246.411809549
 21
530.540741737
 31
0.0
  0
LINE
  8
7
  6
CONTINUOUS
 62
     2
 10
1249.0
 20
540.2
 30
0.0
 11
1251.588190451
 21
530.540741737
 31
0.0
  0
LINE
  8
7
  6
CONTINUOUS
 62
     2
 10
1201.0
 20
540.2
 30
0.0
 11
1255.0
 21
540.2
 31
0.0
  0
LINE
  8
7
  6
CONTINUOUS
 62
     2
 10
1212.0
 20
548.2
 30
0.0
 11
1287.0
 21
548.2
 31
0.0
  0
LINE
  8
7
  6
CONTINUOUS
 62
     2
 10
1281.0
 20
548.2
 30
0.0
 11
1283.588190451
 21
557.859258263
 31
0.0
  0
LINE
  8
7
  6
CONTINUOUS
 62
     2
 10
1281.0
 20
548.2
 30
0.0
 11
1278.411809549
 21
557.859258263
 31
0.0
  0
LINE
  8
7
  6
CONTINUOUS
 62
     2
 10
1281.0
 20
548.2
 30
0.0
 11
1281.0
 21
658.2
 31
0.0
  0
LINE
  8
7
  6
CONTINUOUS
 62
     2
 10
1281.0
 20
658.2
 30
0.0
 11
1278.411809549
 21
648.540741737
 31
0.0
  0
LINE
  8
7
  6
CONTINUOUS
 62
     2
 10
1281.0
 20
658.2
 30
0.0
 11
1283.588190451
 21
648.540741737
 31
0.0
  0
LINE
  8
7
  6
CONTINUOUS
 62
     2
 10
1175.0
 20
783.2
 30
0.0
 11
1319.0
 21
783.2
 31
0.0
  0
LINE
  8
7
  6
CONTINUOUS
 62
     2
 10
1313.0
 20
783.2
 30
0.0
 11
1310.411809549
 21
773.540741737
 31
0.0
  0
LINE
  8
7
  6
CONTINUOUS
 62
     2
 10
1313.0
 20
783.2
 30
0.0
 11
1315.588190451
 21
773.540741737
 31
0.0
  0
LINE
  8
7
  6
CONTINUOUS
 62
     2
 10
1313.0
 20
783.2
 30
0.0
 11
1313.0
 21
445.70039
 31
0.0
  0
LINE
  8
7
  6
CONTINUOUS
 62
     2
 10
1313.0
 20
445.70039
 30
0.0
 11
1315.588190451
 21
455.359648263
 31
0.0
  0
LINE
  8
7
  6
CONTINUOUS
 62
     2
 10
1313.0
 20
445.70039
 30
0.0
 11
1310.411809549
 21
455.359648263
 31
0.0
  0
LINE
  8
7
  6
CONTINUOUS
 62
     2
 10
1192.352902
 20
445.70039
 30
0.0
 11
1319.0
 21
445.70039
 31
0.0
  0
LINE
  8
7
  6
CONTINUOUS
 62
     2
 10
1281.0
 20
548.2
 30
0.0
 11
1278.411809549
 21
538.540741737
 31
0.0
  0
LINE
  8
7
  6
CONTINUOUS
 62
     2
 10
1281.0
 20
548.2
 30
0.0
 11
1283.588190451
 21
538.540741737
 31
0.0
  0
LINE
  8
7
  6
CONTINUOUS
 62
     2
 10
1281.0
 20
548.2
 30
0.0
 11
1281.0
 21
445.70039
 31
0.0
  0
LINE
  8
7
  6
CONTINUOUS
 62
     2
 10
1281.0
 20
445.70039
 30
0.0
 11
1283.588190451
 21
455.359648263
 31
0.0
  0
LINE
  8
7
  6
CONTINUOUS
 62
     2
 10
1281.0
 20
445.70039
 30
0.0
 11
1278.411809549
 21
455.359648263
 31
0.0
  0
LINE
  8
7
  6
CONTINUOUS
 62
     2
 10
1284.0
 20
445.70039
 30
0.0
 11
1287.0
 21
445.70039
 31
0.0
  0
LINE
  8
7
  6
CONTINUOUS
 62
     2
 10
1281.0
 20
658.2
 30
0.0
 11
1283.588190451
 21
667.859258263
 31
0.0
  0
LINE
  8
7
  6
CONTINUOUS
 62
     2
 10
1281.0
 20
658.2
 30
0.0
 11
1278.411809549
 21
667.859258263
 31
0.0
  0
LINE
  8
7
  6
CONTINUOUS
 62
     2
 10
1281.0
 20
658.2
 30
0.0
 11
1281.0
 21
783.2
 31
0.0
  0
LINE
  8
7
  6
CONTINUOUS
 62
     2
 10
1281.0
 20
783.2
 30
0.0
 11
1278.411809549
 21
773.540741737
 31
0.0
  0
LINE
  8
7
  6
CONTINUOUS
 62
     2
 10
1281.0
 20
783.2
 30
0.0
 11
1283.588190451
 21
773.540741737
 31
0.0
  0
LINE
  8
7
  6
CONTINUOUS
 62
     2
 10
1276.0
 20
783.2
 30
0.0
 11
1275.0
 21
783.2
 31
0.0
  0
LINE
  8
7
  6
CONTINUOUS
 62
     2
 10
1208.517857143
 20
658.2
 30
0.0
 11
1229.0
 21
658.2
 31
0.0
  0
LINE
  8
7
  6
CONTINUOUS
 62
     2
 10
1249.0
 20
671.2
 30
0.0
 11
1249.0
 21
525.2
 31
0.0
  0
LINE
  8
7
  6
CONTINUOUS
 62
     2
 10
1252.0
 20
658.2
 30
0.0
 11
1287.0
 21
658.2
 31
0.0
  0
LINE
  8
7
  6
CONTINUOUS
 62
     2
 10
1225.0
 20
475.200007629
 30
0.0
 11
1225.0
 21
370.2
 31
0.0
  0
LINE
  8
7
  6
CONTINUOUS
 62
     2
 10
1045.0
 20
475.200007629
 30
0.0
 11
1045.0
 21
370.2
 31
0.0
  0
ARC
  8
0
  6
CONTINUOUS
 62
     1
 10
1000.0
 20
480.2
 30
0.0
 40
6.0
 50
180.0
 51
270.0
  0
ARC
  8
0
  6
LTYPE2
 62
     2
 10
1000.0
 20
480.2
 30
0.0
 40
10.5
 50
180.0
 51
270.0
  0
ARC
  8
0
  6
CONTINUOUS
 62
     1
 10
1000.0
 20
506.7
 30
0.0
 40
6.0
 50
90.0
 51
180.0
  0
ARC
  8
0
  6
LTYPE2
 62
     2
 10
1000.0
 20
506.7
 30
0.0
 40
10.5
 50
90.0
 51
180.0
  0
LINE
  8
0
  6
CONTINUOUS
 62
     1
 10
994.0
 20
480.2
 30
0.0
 11
994.0
 21
506.7
 31
0.0
  0
LINE
  8
0
  6
LTYPE2
 62
     2
 10
989.5
 20
480.2
 30
0.0
 11
989.5
 21
506.7
 31
0.0
  0
LINE
  8
0
  6
CONTINUOUS
 62
     1
 10
1020.0
 20
521.7
 30
0.0
 11
1000.0
 21
521.7
 31
0.0
  0
LINE
  8
0
  6
LTYPE2
 62
     2
 10
1000.0
 20
517.2
 30
0.0
 11
1050.9
 21
517.2
 31
0.0
  0
LINE
  8
0
  6
CONTINUOUS
 62
     1
 10
1020.0
 20
512.7
 30
0.0
 11
1000.0
 21
512.7
 31
0.0
  0
LINE
  8
0
  6
LTYPE2
 62
     2
 10
1080.4
 20
469.7
 30
0.0
 11
1000.0
 21
469.7
 31
0.0
  0
LINE
  8
0
  6
CONTINUOUS
 62
     1
 10
1082.0
 20
474.2
 30
0.0
 11
1000.0
 21
474.2
 31
0.0
  0
LINE
  8
0
  6
CONTINUOUS
 62
     1
 10
1082.0
 20
465.2
 30
0.0
 11
1000.0
 21
465.2
 31
0.0
  0
LINE
  8
7
  6
CONTINUOUS
 62
     2
 10
1195.0
 20
410.2
 30
0.0
 11
1185.340741737
 21
412.788190451
 31
0.0
  0
LINE
  8
7
  6
CONTINUOUS
 62
     2
 10
1195.0
 20
410.2
 30
0.0
 11
1185.340741737
 21
407.611809549
 31
0.0
  0
LINE
  8
7
  6
CONTINUOUS
 62
     2
 10
1195.0
 20
410.2
 30
0.0
 11
1075.0
 21
410.2
 31
0.0
  0
LINE
  8
7
  6
CONTINUOUS
 62
     2
 10
1075.0
 20
410.2
 30
0.0
 11
1084.659258263
 21
407.611809549
 31
0.0
  0
LINE
  8
7
  6
CONTINUOUS
 62
     2
 10
1075.0
 20
410.2
 30
0.0
 11
1084.659258263
 21
412.788190451
 31
0.0
  0
LINE
  8
7
  6
CONTINUOUS
 62
     2
 10
1225.0
 20
376.2
 30
0.0
 11
1215.340741737
 21
378.788190451
 31
0.0
  0
LINE
  8
7
  6
CONTINUOUS
 62
     2
 10
1225.0
 20
376.2
 30
0.0
 11
1215.340741737
 21
373.611809549
 31
0.0
  0
LINE
  8
7
  6
CONTINUOUS
 62
     2
 10
1225.0
 20
376.2
 30
0.0
 11
1045.0
 21
376.2
 31
0.0
  0
LINE
  8
7
  6
CONTINUOUS
 62
     2
 10
1045.0
 20
376.2
 30
0.0
 11
1054.659258263
 21
373.611809549
 31
0.0
  0
LINE
  8
7
  6
CONTINUOUS
 62
     2
 10
1045.0
 20
376.2
 30
0.0
 11
1054.659258263
 21
378.788190451
 31
0.0
  0
LINE
  8
7
  6
CONTINUOUS
 62
     2
 10
1045.0
 20
382.2
 30
0.0
 11
1045.0
 21
382.2
 31
0.0
  0
LINE
  8
7
  6
CONTINUOUS
 62
     2
 10
1045.0
 20
376.2
 30
0.0
 11
1035.340741737
 21
378.788190451
 31
0.0
  0
LINE
  8
7
  6
CONTINUOUS
 62
     2
 10
1045.0
 20
376.2
 30
0.0
 11
1035.340741737
 21
373.611809549
 31
0.0
  0
LINE
  8
0
  6
CONTINUOUS
 62
     1
 10
1187.3
 20
451.2
 30
0.0
 11
1176.7
 21
451.2
 31
0.0
  0
ARC
  8
0
  6
CONTINUOUS
 62
     1
 10
1182.4
 20
452.2
 30
0.0
 40
5.0
 50
272.3
 51
348.5
  0
ARC
  8
0
  6
CONTINUOUS
 62
     1
 10
1181.6
 20
452.2
 30
0.0
 40
5.0
 50
191.5
 51
267.7
  0
LINE
  8
0
  6
CONTINUOUS
 62
     1
 10
1182.6
 20
447.2
 30
0.0
 11
1181.4
 21
447.2
 31
0.0
  0
LINE
  8
0
  6
LTYPE4
 62
     2
 10
1182.0
 20
443.8
 30
0.0
 11
1182.0
 21
457.2
 31
0.0
  0
LINE
  8
0
  6
CONTINUOUS
 62
     1
 10
1093.3
 20
451.2
 30
0.0
 11
1082.7
 21
451.2
 31
0.0
  0
ARC
  8
0
  6
CONTINUOUS
 62
     1
 10
1088.4
 20
452.2
 30
0.0
 40
5.0
 50
272.3
 51
348.5
  0
ARC
  8
0
  6
CONTINUOUS
 62
     1
 10
1087.6
 20
452.2
 30
0.0
 40
5.0
 50
191.5
 51
267.7
  0
LINE
  8
0
  6
CONTINUOUS
 62
     1
 10
1088.6
 20
447.2
 30
0.0
 11
1087.4
 21
447.2
 31
0.0
  0
LINE
  8
0
  6
LTYPE4
 62
     2
 10
1088.0
 20
443.8
 30
0.0
 11
1088.0
 21
457.2
 31
0.0
  0
LINE
  8
0
  6
CONTINUOUS
 62
     1
 10
1104.0
 20
556.2
 30
0.0
 11
1104.0
 21
540.2
 31
0.0
  0
LINE
  8
0
  6
CONTINUOUS
 62
     1
 10
1112.0
 20
533.2
 30
0.0
 11
1112.0
 21
563.2
 31
0.0
  0
LINE
  8
0
  6
LTYPE2
 62
     2
 10
1109.35
 20
543.8
 30
0.0
 11
1109.35
 21
552.2
 31
0.0
  0
CIRCLE
  8
0
  6
CONTINUOUS
 62
     1
 10
1109.35
 20
548.2
 30
0.0
 40
2.0
  0
LINE
  8
0
  6
CONTINUOUS
 62
     1
 10
1115.0
 20
533.2
 30
0.0
 11
1112.0
 21
533.2
 31
0.0
  0
LINE
  8
0
  6
LTYPE1
 62
     2
 10
1112.0
 20
540.2
 30
0.0
 11
1127.0
 21
540.2
 31
0.0
  0
LINE
  8
0
  6
CONTINUOUS
 62
     1
 10
1115.0
 20
563.2
 30
0.0
 11
1112.0
 21
563.2
 31
0.0
  0
LINE
  8
0
  6
CONTINUOUS
 62
     1
 10
1112.0
 20
556.2
 30
0.0
 11
1104.0
 21
556.2
 31
0.0
  0
LINE
  8
0
  6
LTYPE1
 62
     2
 10
1127.0
 20
556.2
 30
0.0
 11
1112.0
 21
556.2
 31
0.0
  0
LINE
  8
0
  6
CONTINUOUS
 62
     1
 10
1166.0
 20
556.2
 30
0.0
 11
1166.0
 21
540.2
 31
0.0
  0
LINE
  8
0
  6
CONTINUOUS
 62
     1
 10
1166.0
 20
556.2
 30
0.0
 11
1166.0
 21
540.2
 31
0.0
  0
LINE
  8
0
  6
CONTINUOUS
 62
     1
 10
1158.0
 20
533.2
 30
0.0
 11
1158.0
 21
563.2
 31
0.0
  0
LINE
  8
0
  6
LTYPE2
 62
     2
 10
1160.65
 20
543.8
 30
0.0
 11
1160.65
 21
552.2
 31
0.0
  0
LINE
  8
0
  6
CONTINUOUS
 62
     1
 10
1155.0
 20
563.2
 30
0.0
 11
1158.0
 21
563.2
 31
0.0
  0
LINE
  8
0
  6
CONTINUOUS
 62
     1
 10
1158.0
 20
556.2
 30
0.0
 11
1166.0
 21
556.2
 31
0.0
  0
LINE
  8
0
  6
CONTINUOUS
 62
     1
 10
1158.0
 20
556.2
 30
0.0
 11
1166.0
 21
556.2
 31
0.0
  0
LINE
  8
0
  6
LTYPE1
 62
     2
 10
1143.0
 20
556.2
 30
0.0
 11
1158.0
 21
556.2
 31
0.0
  0
LINE
  8
0
  6
CONTINUOUS
 62
     1
 10
1155.0
 20
533.2
 30
0.0
 11
1158.0
 21
533.2
 31
0.0
  0
LINE
  8
0
  6
CONTINUOUS
 62
     1
 10
1166.0
 20
540.2
 30
0.0
 11
1158.0
 21
540.2
 31
0.0
  0
LINE
  8
0
  6
CONTINUOUS
 62
     1
 10
1166.0
 20
540.2
 30
0.0
 11
1158.0
 21
540.2
 31
0.0
  0
LINE
  8
0
  6
LTYPE1
 62
     2
 10
1158.0
 20
540.2
 30
0.0
 11
1143.0
 21
540.2
 31
0.0
  0
CIRCLE
  8
0
  6
CONTINUOUS
 62
     1
 10
1160.65
 20
548.2
 30
0.0
 40
2.0
  0
LINE
  8
0
  6
CONTINUOUS
 62
     1
 10
1112.0
 20
540.2
 30
0.0
 11
1104.0
 21
540.2
 31
0.0
  0
LINE
  8
7
  6
CONTINUOUS
 62
     2
 10
1075.0
 20
488.2
 30
0.0
 11
1075.0
 21
404.2
 31
0.0
  0
LINE
  8
7
  6
CONTINUOUS
 62
     2
 10
1195.0
 20
488.2
 30
0.0
 11
1195.0
 21
404.2
 31
0.0
  0
LINE
  8
0
  6
CONTINUOUS
 62
     1
 10
1115.0
 20
458.7
 30
0.0
 11
1115.0
 21
501.7
 31
0.0
  0
LINE
  8
0
  6
LTYPE2
 62
     2
 10
1119.0
 20
475.7
 30
0.0
 11
1150.0
 21
475.7
 31
0.0
  0
CIRCLE
  8
0
  6
CONTINUOUS
 62
     2
 10
1135.0
 20
475.7
 30
0.0
 40
11.0
  0
CIRCLE
  8
0
  6
CONTINUOUS
 62
     2
 10
1135.0
 20
475.7
 30
0.0
 40
9.5
  0
LINE
  8
0
  6
CONTINUOUS
 62
     1
 10
1155.0
 20
458.7
 30
0.0
 11
1155.0
 21
501.7
 31
0.0
  0
TEXT
  8
7
  6
CONTINUOUS
 62
     2
 10
1117.6
 20
414.2
 30
0.0
 40
15.0
  1
１２０
 50
0.0
 41
0.9
 51
0.0
  7
KANJI23
  0
TEXT
  8
7
  6
CONTINUOUS
 62
     2
 10
1117.6
 20
380.2
 30
0.0
 40
15.0
  1
１８０
 50
0.0
 41
0.9
 51
0.0
  7
KANJI23
  0
TEXT
  8
7
  6
CONTINUOUS
 62
     2
 10
1008.6
 20
380.2
 30
0.0
 40
15.0
  1
６０
 50
0.0
 41
0.9
 51
0.0
  7
KANJI23
  0
TEXT
  8
7
  6
CONTINUOUS
 62
     2
 10
1277.0
 20
585.8
 30
0.0
 40
15.0
  1
１１０
 50
90.0
 41
0.9
 51
0.0
  7
KANJI23
  0
TEXT
  8
7
  6
CONTINUOUS
 62
     2
 10
1309.0
 20
597.050195
 30
0.0
 40
15.0
  1
３３８
 50
90.0
 41
0.9
 51
0.0
  7
KANJI23
  0
TEXT
  8
7
  6
CONTINUOUS
 62
     2
 10
1277.0
 20
479.550195
 30
0.0
 40
15.0
  1
１０３
 50
90.0
 41
0.9
 51
0.0
  7
KANJI23
  0
TEXT
  8
7
  6
CONTINUOUS
 62
     2
 10
1277.0
 20
703.3
 30
0.0
 40
15.0
  1
１２５
 50
90.0
 41
0.9
 51
0.0
  7
KANJI23
  0
TEXT
  8
7
  6
CONTINUOUS
 62
     2
 10
1245.0
 20
566.2
 30
0.0
 40
15.0
  1
φ１６Ｈ１０深２２
 50
90.0
 41
0.9
 51
0.0
  7
KANJI23
  0
LINE
  8
0
  6
CONTINUOUS
 62
     2
 10
1074.0
 20
719.20001706
 30
0.0
 11
1074.0
 21
823.5
 31
0.0
  0
LINE
  8
0
  6
CONTINUOUS
 62
     2
 10
1074.0
 20
818.5
 30
0.0
 11
1083.659258263
 21
815.911809549
 31
0.0
  0
LINE
  8
0
  6
CONTINUOUS
 62
     2
 10
1074.0
 20
818.5
 30
0.0
 11
1083.659258263
 21
821.088190451
 31
0.0
  0
LINE
  8
0
  6
CONTINUOUS
 62
     2
 10
1074.0
 20
818.5
 30
0.0
 11
1196.0
 21
818.5
 31
0.0
  0
LINE
  8
0
  6
CONTINUOUS
 62
     2
 10
1196.0
 20
818.5
 30
0.0
 11
1186.340741737
 21
821.088190451
 31
0.0
  0
LINE
  8
0
  6
CONTINUOUS
 62
     2
 10
1196.0
 20
818.5
 30
0.0
 11
1186.340741737
 21
815.911809549
 31
0.0
  0
LINE
  8
0
  6
CONTINUOUS
 62
     2
 10
1196.0
 20
719.20001706
 30
0.0
 11
1196.0
 21
823.5
 31
0.0
  0
TEXT
  8
0
  6
CONTINUOUS
 62
     3
 10
1114.75
 20
823.5
 30
0.0
 40
15.0
  1
１２２
 50
0.0
 41
0.9
 51
0.0
  7
KANJI23
  0
LINE
  8
0
  6
CONTINUOUS
 62
     2
 10
1427.0
 20
565.25
 30
0.0
 11
1547.0
 21
565.25
 31
0.0
  0
TEXT
  8
0
  6
CONTINUOUS
 62
     2
 10
1432.5
 20
453.75
 30
4.9875
 40
17.5
  1
　　カム式位置リミットスイッチ：　４点　　　２点
 50
0.0
 41
0.857222222
 51
0.0
  7
KANJI42
  0
TEXT
  8
0
  6
CONTINUOUS
 62
     2
 10
1437.5
 20
572.25
 30
10.0
 40
20.0
  1
特記事項
 50
0.0
 41
0.9
 51
0.0
  7
KANJI43
  0
TEXT
  8
0
  6
CONTINUOUS
 62
     2
 10
1432.5
 20
541.25
 30
5.0
 40
17.5
  1
１．運転時は必ずピストンロッドの回転防止を行って下さい。
 50
0.0
 41
0.857142857
 51
0.0
  7
KANJI44
  0
TEXT
  8
0
  6
CONTINUOUS
 62
     2
 10
1432.5
 20
478.75
 30
4.9875
 40
17.5
  1
３．ポジショナ
 50
0.0
 41
0.857222222
 51
0.0
  7
KANJI42
  0
TEXT
  8
0
  6
CONTINUOUS
 62
     2
 10
1432.5
 20
510.0
 30
4.9875
 40
17.5
  1
２．モートル：全閉自冷かご形３０分定格
 50
0.0
 41
0.857222222
 51
0.0
  7
KANJI42
  0
TEXT
  8
0
  6
CONTINUOUS
 62
     2
 10
1432.5
 20
427.25
 30
4.9875
 40
17.5
  1
４．呼称ストロークは、機械的ストロークです。
 50
0.0
 41
0.857222222
 51
0.0
  7
KANJI42
  0
TEXT
  8
0
  6
CONTINUOUS
 62
     2
 10
885.1775
 20
1263.575
 30
1.3475
 40
13.475
  1
注意：サーマルリレー等の選定は、上記の値で選定して下さい。
 50
0.0
 41
0.9
 51
0.0
  7
KANJI45
  0
TEXT
  8
0
  6
CONTINUOUS
 62
     2
 10
1432.5
 20
372.25
 30
4.9875
 40
17.5
  1
　　前後の推奨余裕寸法は、各々１０ｍｍです。
 50
0.0
 41
0.857222222
 51
0.0
  7
KANJI42
  0
LINE
  8
0
  6
CONTINUOUS
 62
     2
 10
877.4775
 20
1259.725
 30
0.0
 11
1276.0
 21
1259.725
 31
0.0
  0
TEXT
  8
0
  6
CONTINUOUS
 62
     2
 10
1437.0
 20
1094.65
 30
1.2
 40
12.0
  1
　　４３
 50
0.0
 41
0.9
 51
0.0
  7
KANJI18
  0
TEXT
  8
0
  6
CONTINUOUS
 62
     2
 10
1437.0
 20
1066.65
 30
1.2
 40
12.0
  1
　　４４
 50
0.0
 41
0.9
 51
0.0
  7
KANJI18
  0
TEXT
  8
0
  6
CONTINUOUS
 62
     2
 10
1437.0
 20
1038.65
 30
1.2
 40
12.0
  1
　　４６
 50
0.0
 41
0.9
 51
0.0
  7
KANJI18
  0
TEXT
  8
0
  6
CONTINUOUS
 62
     2
 10
1437.0
 20
1010.65
 30
1.2
 40
12.0
  1
　　４８
 50
0.0
 41
0.9
 51
0.0
  7
KANJI18
  0
TEXT
  8
0
  6
CONTINUOUS
 62
     3
 10
441.32575754
 20
1059.542144047
 30
0.0
 40
12.0
  1
　　　　　　　　４０　４１　１　　２　　　３　　　４　　　５　　　６
 50
0.0
 41
0.911
 51
0.0
  7
KANJI31
  0
LINE
  8
0
  6
CONTINUOUS
 62
     2
 10
486.083333
 20
187.133315
 30
0.0
 11
493.81073961
 21
185.062762639
 31
0.0
  0
LINE
  8
0
  6
CONTINUOUS
 62
     2
 10
486.083333
 20
187.133315
 30
0.0
 11
493.81073961
 21
189.203867361
 31
0.0
  0
LINE
  8
0
  6
CONTINUOUS
 62
     2
 10
486.083333
 20
187.133315
 30
0.0
 11
623.683333
 21
187.133315
 31
0.0
  0
LINE
  8
0
  6
CONTINUOUS
 62
     2
 10
623.683333
 20
187.133315
 30
0.0
 11
615.95592639
 21
189.203867361
 31
0.0
  0
LINE
  8
0
  6
CONTINUOUS
 62
     2
 10
623.683333
 20
187.133315
 30
0.0
 11
615.95592639
 21
185.062762639
 31
0.0
  0
LINE
  8
0
  6
CONTINUOUS
 62
     2
 10
623.683333
 20
185.933315
 30
0.0
 11
623.683333
 21
183.133315
 31
0.0
  0
LINE
  8
0
  6
CONTINUOUS
 62
     2
 10
623.683333
 20
187.133315
 30
0.0
 11
631.41073961
 21
185.062762639
 31
0.0
  0
LINE
  8
0
  6
CONTINUOUS
 62
     2
 10
623.683333
 20
187.133315
 30
0.0
 11
631.41073961
 21
189.203867361
 31
0.0
  0
LINE
  8
0
  6
CONTINUOUS
 62
     2
 10
623.683333
 20
187.133315
 30
0.0
 11
826.083333
 21
187.133315
 31
0.0
  0
LINE
  8
0
  6
CONTINUOUS
 62
     2
 10
826.083333
 20
187.133315
 30
0.0
 11
818.35592639
 21
189.203867361
 31
0.0
  0
LINE
  8
0
  6
CONTINUOUS
 62
     2
 10
826.083333
 20
187.133315
 30
0.0
 11
818.35592639
 21
185.062762639
 31
0.0
  0
LINE
  8
0
  6
CONTINUOUS
 62
     2
 10
623.683333
 20
160.803867361
 30
0.0
 11
615.95592639
 21
162.874419722
 31
0.0
  0
LINE
  8
0
  6
CONTINUOUS
 62
     2
 10
623.683333
 20
160.803867361
 30
0.0
 11
615.95592639
 21
158.733315
 31
0.0
  0
LINE
  8
0
  6
CONTINUOUS
 62
     2
 10
611.683333
 20
160.803867361
 30
0.0
 11
623.683333
 21
160.803867361
 31
0.0
  0
LINE
  8
0
  6
CONTINUOUS
 62
     2
 10
623.683333
 20
160.803867361
 30
0.0
 11
644.483333
 21
160.803867361
 31
0.0
  0
LINE
  8
0
  6
CONTINUOUS
 62
     2
 10
644.483333
 20
160.803867361
 30
0.0
 11
652.21073961
 21
158.733315
 31
0.0
  0
LINE
  8
0
  6
CONTINUOUS
 62
     2
 10
644.483333
 20
160.803867361
 30
0.0
 11
652.21073961
 21
162.874419722
 31
0.0
  0
LINE
  8
0
  6
CONTINUOUS
 62
     2
 10
486.083333
 20
135.533315
 30
0.0
 11
486.083333
 21
129.533315
 31
0.0
  0
LINE
  8
0
  6
CONTINUOUS
 62
     2
 10
486.083333
 20
133.533315
 30
0.0
 11
493.81073961
 21
131.462762639
 31
0.0
  0
LINE
  8
0
  6
CONTINUOUS
 62
     2
 10
486.083333
 20
133.533315
 30
0.0
 11
493.81073961
 21
135.603867361
 31
0.0
  0
LINE
  8
0
  6
CONTINUOUS
 62
     2
 10
486.083333
 20
133.533315
 30
0.0
 11
644.483333
 21
133.533315
 31
0.0
  0
LINE
  8
0
  6
CONTINUOUS
 62
     2
 10
644.483333
 20
133.533315
 30
0.0
 11
636.75592639
 21
135.603867361
 31
0.0
  0
LINE
  8
0
  6
CONTINUOUS
 62
     2
 10
644.483333
 20
133.533315
 30
0.0
 11
636.75592639
 21
131.462762639
 31
0.0
  0
LINE
  8
0
  6
CONTINUOUS
 62
     2
 10
644.483333
 20
134.733315
 30
0.0
 11
644.483333
 21
129.533315
 31
0.0
  0
LINE
  8
0
  6
CONTINUOUS
 62
     2
 10
644.483333
 20
133.533315
 30
0.0
 11
652.21073961
 21
131.462762639
 31
0.0
  0
LINE
  8
0
  6
CONTINUOUS
 62
     2
 10
644.483333
 20
133.533315
 30
0.0
 11
652.21073961
 21
135.603867361
 31
0.0
  0
LINE
  8
0
  6
CONTINUOUS
 62
     2
 10
826.083333
 20
129.933315
 30
0.0
 11
826.083333
 21
129.533315
 31
0.0
  0
LINE
  8
0
  6
CONTINUOUS
 62
     2
 10
486.083333
 20
104.333315
 30
0.0
 11
493.81073961
 21
102.262762639
 31
0.0
  0
LINE
  8
0
  6
CONTINUOUS
 62
     2
 10
486.083333
 20
104.333315
 30
0.0
 11
493.81073961
 21
106.403867361
 31
0.0
  0
LINE
  8
0
  6
CONTINUOUS
 62
     2
 10
486.083333
 20
104.333315
 30
0.0
 11
803.683333
 21
104.333315
 31
0.0
  0
LINE
  8
0
  6
CONTINUOUS
 62
     2
 10
803.683333
 20
104.333315
 30
0.0
 11
795.95592639
 21
106.403867361
 31
0.0
  0
LINE
  8
0
  6
CONTINUOUS
 62
     2
 10
803.683333
 20
104.333315
 30
0.0
 11
795.95592639
 21
102.262762639
 31
0.0
  0
LINE
  8
0
  6
CONTINUOUS
 62
     2
 10
803.683333
 20
105.133315
 30
0.0
 11
803.683333
 21
100.333315
 31
0.0
  0
LINE
  8
0
  6
CONTINUOUS
 62
     2
 10
803.683333
 20
104.333315
 30
0.0
 11
795.95592639
 21
106.403867361
 31
0.0
  0
LINE
  8
0
  6
CONTINUOUS
 62
     2
 10
803.683333
 20
104.333315
 30
0.0
 11
795.95592639
 21
102.262762639
 31
0.0
  0
LINE
  8
0
  6
CONTINUOUS
 62
     2
 10
791.683333
 20
104.333315
 30
0.0
 11
803.683333
 21
104.333315
 31
0.0
  0
LINE
  8
0
  6
CONTINUOUS
 62
     2
 10
803.683333
 20
104.333315
 30
0.0
 11
826.083333
 21
104.333315
 31
0.0
  0
LINE
  8
0
  6
CONTINUOUS
 62
     2
 10
826.083333
 20
104.333315
 30
0.0
 11
833.81073961
 21
102.262762639
 31
0.0
  0
LINE
  8
0
  6
CONTINUOUS
 62
     2
 10
826.083333
 20
104.333315
 30
0.0
 11
833.81073961
 21
106.403867361
 31
0.0
  0
LINE
  8
0
  6
CONTINUOUS
 62
     2
 10
486.083333
 20
197.933315
 30
0.0
 11
486.083333
 21
183.133315
 31
0.0
  0
LINE
  8
0
  6
CONTINUOUS
 62
     2
 10
826.083333
 20
197.933315
 30
0.0
 11
826.083333
 21
183.133315
 31
0.0
  0
LINE
  8
0
  6
CONTINUOUS
 62
     2
 10
623.683333
 20
186.733315
 30
0.0
 11
623.683333
 21
197.933315
 31
0.0
  0
LINE
  8
0
  6
CONTINUOUS
 62
     2
 10
644.483333
 20
173.603867361
 30
0.0
 11
644.483333
 21
156.803867361
 31
0.0
  0
LINE
  8
0
  6
CONTINUOUS
 62
     2
 10
486.083333
 20
183.133315
 30
0.0
 11
486.083333
 21
91.133315
 31
0.0
  0
LINE
  8
0
  6
CONTINUOUS
 62
     2
 10
826.083333
 20
187.133315
 30
0.0
 11
826.083333
 21
92.333315
 31
0.0
  0
LINE
  8
0
  6
CONTINUOUS
 62
     2
 10
644.483333
 20
160.803867361
 30
0.0
 11
644.483333
 21
124.333315
 31
0.0
  0
LINE
  8
0
  6
CONTINUOUS
 62
     2
 10
623.683333
 20
187.133315
 30
0.0
 11
623.683333
 21
151.533315
 31
0.0
  0
TEXT
  8
0
  6
CONTINUOUS
 62
     3
 10
527.883333
 20
189.133315
 30
0.0
 40
15.0
  1
ｍｉｎ．Ｌ
 50
0.0
 41
0.9
 51
0.0
  7
KANJI23
  0
TEXT
  8
0
  6
CONTINUOUS
 62
     3
 10
681.683333
 20
189.133315
 30
0.0
 40
15.0
  1
機械的ストローク
 50
0.0
 41
0.9
 51
0.0
  7
KANJI23
  0
TEXT
  8
0
  6
CONTINUOUS
 62
     3
 10
656.483333
 20
162.803867361
 30
0.0
 40
15.0
  1
余裕
 50
0.0
 41
0.9
 51
0.0
  7
KANJI23
  0
TEXT
  8
0
  6
CONTINUOUS
 62
     3
 10
538.283333
 20
135.533315
 30
0.0
 40
15.0
  1
常用ｍｉｎ
 50
0.0
 41
0.9
 51
0.0
  7
KANJI23
  0
TEXT
  8
0
  6
CONTINUOUS
 62
     3
 10
617.883333
 20
106.333315
 30
0.0
 40
15.0
  1
常用ｍａｘ
 50
0.0
 41
0.9
 51
0.0
  7
KANJI23
  0
TEXT
  8
0
  6
CONTINUOUS
 62
     3
 10
838.083333
 20
106.333315
 30
0.0
 40
15.0
  1
余裕
 50
0.0
 41
0.9
 51
0.0
  7
KANJI23
  0
LINE
  8
0
  6
CONTINUOUS
 62
     2
 10
644.483333
 20
160.803867361
 30
0.0
 11
684.583333
 21
160.803867361
 31
0.0
  0
LINE
  8
0
  6
CONTINUOUS
 62
     2
 10
826.083333
 20
104.333315
 30
0.0
 11
868.583333
 21
104.333315
 31
0.0
  0
LINE
  8
0
  6
CONTINUOUS
 62
     1
 10
851.0
 20
975.95
 30
0.0
 11
1499.0
 21
975.95
 31
0.0
  0
LINE
  8
0
  6
CONTINUOUS
 62
     1
 10
851.0
 20
1227.95
 30
0.0
 11
851.0
 21
975.95
 31
0.0
  0
LINE
  8
0
  6
CONTINUOUS
 62
     1
 10
1019.0
 20
1227.95
 30
0.0
 11
1019.0
 21
975.95
 31
0.0
  0
LINE
  8
0
  6
CONTINUOUS
 62
     2
 10
1099.0
 20
1227.95
 30
0.0
 11
1099.0
 21
975.95
 31
0.0
  0
LINE
  8
0
  6
CONTINUOUS
 62
     2
 10
1179.0
 20
1227.95
 30
0.0
 11
1179.0
 21
975.95
 31
0.0
  0
LINE
  8
0
  6
CONTINUOUS
 62
     2
 10
1259.0
 20
1227.95
 30
0.0
 11
1259.0
 21
975.95
 31
0.0
  0
LINE
  8
0
  6
CONTINUOUS
 62
     2
 10
1339.0
 20
1227.95
 30
0.0
 11
1339.0
 21
975.95
 31
0.0
  0
LINE
  8
0
  6
CONTINUOUS
 62
     2
 10
1419.0
 20
1227.95
 30
0.0
 11
1419.0
 21
975.95
 31
0.0
  0
LINE
  8
0
  6
CONTINUOUS
 62
     1
 10
1499.0
 20
1227.95
 30
0.0
 11
1499.0
 21
975.95
 31
0.0
  0
TEXT
  8
0
  6
CONTINUOUS
 62
     2
 10
864.0
 20
982.35
 30
0.8
 40
12.0
  1
ＭＤ０３　　－　　　ＪＮ
 50
0.0
 41
0.833333333
 51
0.0
  7
KANJI27
  0
LINE
  8
0
  6
CONTINUOUS
 62
     2
 10
803.683333
 20
148.333315
 30
0.0
 11
803.683333
 21
91.533315
 31
0.0
  0
LINE
  8
0
  6
CONTINUOUS
 62
     2
 10
644.483333
 20
133.533315
 30
0.0
 11
803.683333
 21
133.533315
 31
0.0
  0
LINE
  8
0
  6
CONTINUOUS
 62
     2
 10
803.683333
 20
133.533315
 30
0.0
 11
795.95592639
 21
135.603867361
 31
0.0
  0
LINE
  8
0
  6
CONTINUOUS
 62
     2
 10
803.683333
 20
133.533315
 30
0.0
 11
795.95592639
 21
131.462762639
 31
0.0
  0
TEXT
  8
0
  6
CONTINUOUS
 62
     3
 10
684.483333
 20
135.533315
 30
0.0
 40
15.0
  1
常用ストローク
 50
0.0
 41
0.9
 51
0.0
  7
KANJI23
  0
TEXT
  8
7
  6
CONTINUOUS
 62
     2
 10
319.45
 20
431.2
 30
0.0
 40
15.0
  1
ＰＦ１
 50
0.0
 41
0.9
 51
0.0
  7
KANJI23
  0
LINE
  8
7
  6
CONTINUOUS
 62
     2
 10
362.25
 20
427.2
 30
0.0
 11
317.25
 21
427.2
 31
0.0
  0
LINE
  8
0
  6
CONTINUOUS
 62
     1
 10
1567.5
 20
1342.5
 30
0.0
 11
2005.0
 21
1342.5
 31
0.0
  0
TEXT
  8
0
  6
CONTINUOUS
 62
     2
 10
1630.0
 20
1306.0
 30
14.2497
 40
22.5
  1
マイティシリンダ仕様
 50
0.0
 41
0.9
 51
0.0
  7
KANJI46
  0
LINE
  8
0
  6
CONTINUOUS
 62
     2
 10
1567.5
 20
732.5
 30
0.0
 11
2005.0
 21
732.5
 31
0.0
  0
LINE
  8
0
  6
CONTINUOUS
 62
     2
 10
1567.5
 20
697.5
 30
0.0
 11
2005.0
 21
697.5
 31
0.0
  0
LINE
  8
0
  6
CONTINUOUS
 62
     2
 10
1607.5
 20
767.5
 30
0.0
 11
2005.0
 21
767.5
 31
0.0
  0
LINE
  8
0
  6
CONTINUOUS
 62
     2
 10
1607.5
 20
1012.5
 30
0.0
 11
1607.5
 21
732.5
 31
0.0
  0
LINE
  8
0
  6
CONTINUOUS
 62
     2
 10
1607.5
 20
872.5
 30
0.0
 11
2005.0
 21
872.5
 31
0.0
  0
LINE
  8
0
  6
CONTINUOUS
 62
     2
 10
1607.5
 20
907.5
 30
0.0
 11
2005.0
 21
907.5
 31
0.0
  0
LINE
  8
0
  6
CONTINUOUS
 62
     2
 10
1567.5
 20
1082.5
 30
0.0
 11
2005.0
 21
1082.5
 31
0.0
  0
LINE
  8
0
  6
CONTINUOUS
 62
     2
 10
1567.5
 20
1047.5
 30
0.0
 11
2005.0
 21
1047.5
 31
0.0
  0
LINE
  8
0
  6
CONTINUOUS
 62
     2
 10
1567.5
 20
1012.5
 30
0.0
 11
2005.0
 21
1012.5
 31
0.0
  0
LINE
  8
0
  6
CONTINUOUS
 62
     2
 10
1607.5
 20
942.5
 30
0.0
 11
2005.0
 21
942.5
 31
0.0
  0
LINE
  8
0
  6
CONTINUOUS
 62
     2
 10
1607.5
 20
977.5
 30
0.0
 11
2005.0
 21
977.5
 31
0.0
  0
LINE
  8
0
  6
CONTINUOUS
 62
     2
 10
1567.5
 20
1257.5
 30
0.0
 11
2005.0
 21
1257.5
 31
0.0
  0
LINE
  8
0
  6
CONTINUOUS
 62
     2
 10
1567.5
 20
1222.5
 30
0.0
 11
2005.0
 21
1222.5
 31
0.0
  0
LINE
  8
0
  6
CONTINUOUS
 62
     2
 10
1567.5
 20
1187.5
 30
0.0
 11
2005.0
 21
1187.5
 31
0.0
  0
LINE
  8
0
  6
CONTINUOUS
 62
     2
 10
1567.5
 20
1152.5
 30
0.0
 11
2005.0
 21
1152.5
 31
0.0
  0
LINE
  8
0
  6
CONTINUOUS
 62
     2
 10
1567.5
 20
1117.5
 30
0.0
 11
2005.0
 21
1117.5
 31
0.0
  0
LINE
  8
0
  6
CONTINUOUS
 62
     2
 10
1567.5
 20
1292.5
 30
0.0
 11
2005.0
 21
1292.5
 31
0.0
  0
TEXT
  8
0
  6
CONTINUOUS
 62
     2
 10
1630.0
 20
951.5
 30
27.866485714
 40
19.0
  1
電源電圧
 50
0.0
 41
0.9
 51
0.0
  7
KANJI47
  0
TEXT
  8
0
  6
CONTINUOUS
 62
     2
 10
1630.0
 20
916.5
 30
50.35
 40
19.0
  1
周波数
 50
0.0
 41
0.9
 51
0.0
  7
KANJI48
  0
TEXT
  8
0
  6
CONTINUOUS
 62
     2
 10
1630.0
 20
881.5
 30
117.8
 40
19.0
  1
電流
 50
0.0
 41
0.9
 51
0.0
  7
KANJI49
  0
TEXT
  8
0
  6
CONTINUOUS
 62
     2
 10
1630.0
 20
846.5
 30
50.35
 40
19.0
  1
絶縁級
 50
0.0
 41
0.9
 51
0.0
  7
KANJI48
  0
TEXT
  8
0
  6
CONTINUOUS
 62
     2
 10
1595.0
 20
1266.5
 30
150.371428571
 40
19.0
  1
形式
 50
0.0
 41
0.9
 51
0.0
  7
KANJI50
  0
TEXT
  8
0
  6
CONTINUOUS
 62
     2
 10
1595.0
 20
1231.5
 30
150.371428571
 40
19.0
  1
推力
 50
0.0
 41
0.9
 51
0.0
  7
KANJI50
  0
TEXT
  8
0
  6
CONTINUOUS
 62
     2
 10
1595.0
 20
1196.5
 30
24.767857143
 40
19.0
  1
ストローク
 50
0.0
 41
0.9
 51
0.0
  7
KANJI51
  0
TEXT
  8
0
  6
CONTINUOUS
 62
     2
 10
1595.0
 20
1091.5
 30
150.371428571
 40
19.0
  1
構造
 50
0.0
 41
0.9
 51
0.0
  7
KANJI50
  0
TEXT
  8
0
  6
CONTINUOUS
 62
     2
 10
1595.0
 20
1056.5
 30
10.811542857
 40
19.0
  1
過負荷安全装置
 50
0.0
 41
0.9
 51
0.0
  7
KANJI52
  0
TEXT
  8
0
  6
CONTINUOUS
 62
     2
 10
1595.0
 20
1021.5
 30
66.635714286
 40
19.0
  1
塗装色
 50
0.0
 41
0.9
 51
0.0
  7
KANJI53
  0
TEXT
  8
0
  6
CONTINUOUS
 62
     2
 10
1575.0
 20
1126.5
 30
1.628571429
 40
19.0
  1
ピストンロッド回転トルク
 50
0.0
 41
0.9
 51
0.0
  7
KANJI54
  0
TEXT
  8
0
  6
CONTINUOUS
 62
     2
 10
1595.0
 20
706.5
 30
66.635714286
 40
19.0
  1
付属品
 50
0.0
 41
0.9
 51
0.0
  7
KANJI53
  0
TEXT
  8
0
  6
CONTINUOUS
 62
     2
 10
1595.0
 20
671.5
 30
150.371428571
 40
19.0
  1
台数
 50
0.0
 41
0.9
 51
0.0
  7
KANJI50
  0
LINE
  8
0
  6
CONTINUOUS
 62
     2
 10
1567.5
 20
837.5
 30
0.0
 11
2005.0
 21
837.5
 31
0.0
  0
LINE
  8
0
  6
CONTINUOUS
 62
     2
 10
1607.5
 20
802.5
 30
0.0
 11
2005.0
 21
802.5
 31
0.0
  0
TEXT
  8
0
  6
CONTINUOUS
 62
     2
 10
1587.875
 20
1007.5
 30
11.0
 40
17.5
  1
モ　トル仕様
 50
0.0
 41
0.9
 51
0.0
  7
KANJI55
  0
TEXT
  8
0
  6
CONTINUOUS
 62
     2
 10
1587.875
 20
822.5
 30
1.0
 40
17.5
  1
ブレ　キ
 50
0.0
 41
0.9
 51
0.0
  7
KANJI56
  0
LINE
  8
0
  6
CONTINUOUS
 62
     2
 10
1586.5
 20
781.0
 30
0.0
 11
1586.5
 21
770.5
 31
0.0
  0
TEXT
  8
0
  6
CONTINUOUS
 62
     2
 10
1846.25
 20
1057.5
 30
7.5
 40
17.5
  1
推力リミッタ
 50
0.0
 41
0.9
 51
0.0
  7
KANJI57
  0
TEXT
  8
0
  6
CONTINUOUS
 62
     2
 10
1893.75
 20
847.5
 30
1.5
 40
15.0
  1
Ｅ
 50
0.0
 41
0.9
 51
0.0
  7
KANJI58
  0
TEXT
  8
0
  6
CONTINUOUS
 62
     2
 10
1857.5
 20
776.5
 30
10.0
 40
17.5
  1
同時切り
 50
0.0
 41
0.9
 51
0.0
  7
KANJI59
  0
TEXT
  8
0
  6
CONTINUOUS
 62
     2
 10
1630.0
 20
811.5
 30
117.8
 40
19.0
  1
形式
 50
0.0
 41
0.9
 51
0.0
  7
KANJI49
  0
TEXT
  8
0
  6
CONTINUOUS
 62
     2
 10
1630.0
 20
776.5
 30
27.866485714
 40
19.0
  1
操作方式
 50
0.0
 41
0.9
 51
0.0
  7
KANJI47
  0
LINE
  8
0
  6
CONTINUOUS
 62
     2
 10
1586.5
 20
977.0
 30
0.0
 11
1586.5
 21
965.5
 31
0.0
  0
TEXT
  8
0
  6
CONTINUOUS
 62
     2
 10
1630.0
 20
986.5
 30
2.5
 40
19.0
  1
出力　相数　極数
 50
0.0
 41
0.9
 51
0.0
  7
KANJI60
  0
TEXT
  8
0
  6
CONTINUOUS
 62
     2
 10
1846.25
 20
1092.5
 30
7.5
 40
17.5
  1
全閉屋外形
 50
0.0
 41
0.9
 51
0.0
  7
KANJI57
  0
TEXT
  8
0
  6
CONTINUOUS
 62
     2
 10
1595.0
 20
1161.5
 30
10.0
 40
19.0
  1
公称速度
 50
0.0
 41
0.9
 51
0.0
  7
KANJI61
  0
TEXT
  8
0
  6
CONTINUOUS
 62
     2
 10
1698.25
 20
1160.5
 30
0.0
 40
17.5
  1
（５０／６０Ｈｚ）
 50
0.0
 41
0.628571429
 51
0.0
  7
KANJI62
  0
TEXT
  8
0
  6
CONTINUOUS
 62
     2
 10
1801.875
 20
704.375
 30
1.5
 40
15.0
  1
手動ハンドル
 50
0.0
 41
0.9
 51
0.0
  7
KANJI58
  0
TEXT
  8
0
  6
CONTINUOUS
 62
     2
 10
1798.75
 20
811.875
 30
2.75
 40
17.0
  1
スプリング制動式電磁ブレーキ
 50
0.0
 41
0.705882353
 51
0.0
  7
KANJI63
  0
TEXT
  8
0
  6
CONTINUOUS
 62
     2
 10
1981.25
 20
951.5
 30
0.18
 40
15.0
  1
Ｖ
 50
0.0
 41
0.8
 51
0.0
  7
KANJI64
  0
TEXT
  8
0
  6
CONTINUOUS
 62
     2
 10
1972.25
 20
916.5
 30
0.18
 40
15.0
  1
Ｈｚ
 50
0.0
 41
0.8
 51
0.0
  7
KANJI64
  0
TEXT
  8
0
  6
CONTINUOUS
 62
     2
 10
1981.25
 20
881.5
 30
0.18
 40
15.0
  1
Ａ
 50
0.0
 41
0.8
 51
0.0
  7
KANJI64
  0
TEXT
  8
0
  6
CONTINUOUS
 62
     2
 10
1915.5
 20
987.5
 30
1.5
 40
15.0
  1
３φ
 50
0.0
 41
0.9
 51
0.0
  7
KANJI58
  0
TEXT
  8
0
  6
CONTINUOUS
 62
     2
 10
1965.5
 20
987.5
 30
1.5
 40
15.0
  1
４Ｐ
 50
0.0
 41
0.9
 51
0.0
  7
KANJI58
  0
TEXT
  8
0
  6
CONTINUOUS
 62
     2
 10
1797.5
 20
1022.5
 30
1.0
 40
16.0
  1
マンセル　７．５ＧＹ　５／４．５
 50
0.0
 41
0.71875
 51
0.0
  7
KANJI65
  0
TEXT
  8
0
  6
CONTINUOUS
 62
     2
 10
1797.5
 20
952.5
 30
1.5
 40
15.0
  1
　　　　　　　／　　　
 50
0.0
 41
0.9
 51
0.0
  7
KANJI58
  0
TEXT
  8
0
  6
CONTINUOUS
 62
     2
 10
1797.5
 20
917.5
 30
1.5
 40
15.0
  1
　　　　５０／　６０
 50
0.0
 41
0.9
 51
0.0
  7
KANJI58
  0
TEXT
  8
0
  6
CONTINUOUS
 62
     2
 10
1797.5
 20
882.5
 30
1.5
 40
15.0
  1
　　　　　　　／　　　
 50
0.0
 41
0.9
 51
0.0
  7
KANJI58
  0
TEXT
  8
0
  6
CONTINUOUS
 62
     2
 10
1968.0
 20
1198.5
 30
0.128
 40
16.0
  1
ｍｍ
 50
0.0
 41
0.8
 51
0.0
  7
KANJI66
  0
TEXT
  8
0
  6
CONTINUOUS
 62
     2
 10
1802.5
 20
987.5
 30
1.5
 40
15.0
  1
　０．３ＫＷ
 50
0.0
 41
0.9
 51
0.0
  7
KANJI58
  0
TEXT
  8
0
  6
CONTINUOUS
 62
     2
 10
1822.0
 20
1232.5
 30
1.5
 40
15.0
  1
２９４０Ｎ（３００ｋｇ）
 50
0.0
 41
0.9
 51
0.0
  7
KANJI58
  0
TEXT
  8
0
  6
CONTINUOUS
 62
     2
 10
1800.0
 20
1162.0
 30
0.0
 40
15.0
  1
　９．７／１１．６　ｍｍ／ｓｅｃ
 50
0.0
 41
0.833333333
 51
0.0
  7
KANJI67
  0
TEXT
  8
0
  6
CONTINUOUS
 62
     2
 10
1808.75
 20
1265.75
 30
1.0
 40
15.0
  1
ＭＤ０３－　　ＪＮ
 50
0.0
 41
0.833333333
 51
0.0
  7
KANJI68
  0
LINE
  8
0
  6
CONTINUOUS
 62
     1
 10
1567.5
 20
627.5
 30
0.0
 11
2005.0
 21
627.5
 31
0.0
  0
TEXT
  8
0
  6
CONTINUOUS
 62
     2
 10
1594.0
 20
636.5
 30
5.0
 40
17.5
  1
概算重量（１台当り）
 50
0.0
 41
0.857142857
 51
0.0
  7
KANJI14
  0
TEXT
  8
0
  6
CONTINUOUS
 62
     2
 10
1959.0
 20
637.65
 30
0.0
 40
17.5
  1
ｋｇ
 50
0.0
 41
0.9
 51
0.0
  7
KANJI69
  0
LINE
  8
0
  6
CONTINUOUS
 62
     2
 10
1567.5
 20
662.5
 30
0.0
 11
2005.0
 21
662.5
 31
0.0
  0
TEXT
  8
0
  6
CONTINUOUS
 62
     2
 10
1814.625
 20
1126.375
 30
0.0
 40
15.0
  1
８．３Ｎ・ｍ（０．８５ｋｇ・ｍ）
 50
0.0
 41
0.766666667
 51
0.0
  7
KANJI70
  0
LINE
  8
0
  6
CONTINUOUS
 62
     1
 10
1567.5
 20
1342.5
 30
0.0
 11
1567.5
 21
627.5
 31
0.0
  0
LINE
  8
0
  6
CONTINUOUS
 62
     2
 10
1797.5
 20
1292.5
 30
0.0
 11
1797.5
 21
627.5
 31
0.0
  0
LINE
  8
0
  6
CONTINUOUS
 62
     1
 10
2005.0
 20
1342.5
 30
0.0
 11
2005.0
 21
627.5
 31
0.0
  0
TEXT
  8
0
  6
CONTINUOUS
 62
     2
 10
1379.6666945
 20
90.999995
 30
1.5
 40
17.5
  1
０７．０９．２７
 50
0.0
 41
0.571428571
 51
0.0
  7
KANJI71
  0
TEXT
  8
7
  6
CONTINUOUS
 62
     2
 10
792.1
 20
401.2
 30
-2.5
 40
15.0
  1
ｍｉｎ
 50
0.0
 41
0.9
 51
0.0
  7
KANJI72
  0
TEXT
  8
0
  6
CONTINUOUS
 62
     6
 10
453.5
 20
1363.5
 30
0.0
 40
150.0
  1
｝
 50
0.0
 41
0.216666667
 51
0.0
  7
KANJI73
  0
TEXT
  8
0
  6
CONTINUOUS
 62
     6
 10
441.007114987
 20
1299.686421523
 30
1.4790204
 40
15.8184
  1
電気定格　　　
 50
0.0
 41
0.85
 51
0.0
  7
KANJI74
  0
TEXT
  8
0
  6
CONTINUOUS
 62
     6
 10
456.368899509
 20
1262.998278967
 30
0.0
 40
14.0
  1
ＤＣ１２５Ｖ　０．６Ａ　，ＤＣ２５０Ｖ　０．３Ａ　
 50
0.0
 41
0.714285714
 51
0.0
  7
KANJI75
  0
TEXT
  8
0
  6
CONTINUOUS
 62
     6
 10
456.368899509
 20
1281.892246788
 30
0.0
 40
14.0
  1
ＡＣ１００Ｖ　１２５Ｖ　２５０Ｖ　－１０Ａ
 50
0.0
 41
0.714285714
 51
0.0
  7
KANJI75
  0
TEXT
  8
0
  6
CONTINUOUS
 62
     2
 10
1432.5
 20
398.75
 30
4.9875
 40
17.5
  1
　　必ず、常用はストローク両端に余裕を取って下さい。
 50
0.0
 41
0.857222222
 51
0.0
  7
KANJI42
  0
ENDSEC
  0
EOF
