  0
SECTION
  2
HEADER
  9
$ACADVER
  1
AC1009
  9
$DWGCODEPAGE
  3
dos932
  9
$EXTMIN
 10
0.0
 20
0.0
 30
0.0
  9
$EXTMAX
 10
2100.0
 20
1485.0
 30
0.0
  9
$LIMMIN
 10
0.0
 20
0.0
  9
$LIMMAX
 10
2100.0
 20
1485.0
  9
$LTSCALE
 40
1.0
  9
$PDMODE
 70
     0
  0
ENDSEC
  0
SECTION
  2
TABLES
  0
TABLE
  2
VPORT
 70
     1
  0
VPORT
  2
*ACTIVE
 70
     0
 10
0.0
 20
0.0
 11
1.0
 21
1.0
 12
1050.0
 22
742.5
 13
0.0
 23
0.0
 14
10.0
 24
10.0
 15
10.0
 25
10.0
 16
0.0
 26
0.0
 36
1.0
 17
0.0
 27
0.0
 37
0.0
 40
2100.0
 41
1.414141414
 42
50.0
 43
0.0
 44
0.0
 50
0.0
 51
0.0
 71
     0
 72
  1000
 73
     1
 74
     3
 75
     0
 76
     0
 77
     0
 78
     0
  0
ENDTAB
  0
TABLE
  2
LTYPE
 70
     6
  0
LTYPE
  2
CONTINUOUS
 70
    64
  3
Solid line
 72
    65
 73
     0
 40
0.0
  0
LTYPE
  2
LTYPE1
 70
    64
  3
HIDDEN
 72
    65
 73
     2
 40
15.0
 49
9.0
 49
-6.0
  0
LTYPE
  2
LTYPE2
 70
    64
  3
CENTER
 72
    65
 73
     4
 40
75.0
 49
52.5
 49
-7.5
 49
7.5
 49
-7.5
  0
LTYPE
  2
LTYPE3
 70
    64
  3
CENTER
 72
    65
 73
     4
 40
50.0
 49
35.0
 49
-5.0
 49
5.0
 49
-5.0
  0
LTYPE
  2
LTYPE4
 70
    64
  3
PHANTOM
 72
    65
 73
     6
 40
50.0
 49
37.5
 49
-2.5
 49
2.5
 49
-2.5
 49
2.5
 49
-2.5
  0
LTYPE
  2
LTYPE5
 70
    64
  3
CENTER
 72
    65
 73
     4
 40
45.0
 49
31.5
 49
-4.5
 49
4.5
 49
-4.5
  0
ENDTAB
  0
TABLE
  2
LAYER
 70
   128
  0
LAYER
  2
0
 70
     0
 62
     7
  6
CONTINUOUS
  0
LAYER
  2
2
 70
     0
 62
     7
  6
CONTINUOUS
  0
LAYER
  2
3
 70
     0
 62
     7
  6
CONTINUOUS
  0
LAYER
  2
4
 70
     0
 62
     7
  6
CONTINUOUS
  0
LAYER
  2
5
 70
     0
 62
     7
  6
CONTINUOUS
  0
LAYER
  2
6
 70
     0
 62
     7
  6
CONTINUOUS
  0
LAYER
  2
7
 70
     0
 62
     7
  6
CONTINUOUS
  0
LAYER
  2
8
 70
     0
 62
     7
  6
CONTINUOUS
  0
LAYER
  2
9
 70
     0
 62
     7
  6
CONTINUOUS
  0
LAYER
  2
10
 70
     0
 62
     7
  6
CONTINUOUS
  0
LAYER
  2
11
 70
     0
 62
     7
  6
CONTINUOUS
  0
LAYER
  2
12
 70
     0
 62
     7
  6
CONTINUOUS
  0
LAYER
  2
13
 70
     0
 62
     7
  6
CONTINUOUS
  0
LAYER
  2
14
 70
     0
 62
     7
  6
CONTINUOUS
  0
LAYER
  2
15
 70
     0
 62
     7
  6
CONTINUOUS
  0
LAYER
  2
16
 70
     0
 62
     7
  6
CONTINUOUS
  0
LAYER
  2
17
 70
     0
 62
     7
  6
CONTINUOUS
  0
LAYER
  2
18
 70
     0
 62
     7
  6
CONTINUOUS
  0
LAYER
  2
19
 70
     0
 62
     7
  6
CONTINUOUS
  0
LAYER
  2
20
 70
     0
 62
     7
  6
CONTINUOUS
  0
LAYER
  2
21
 70
     0
 62
     7
  6
CONTINUOUS
  0
LAYER
  2
22
 70
     0
 62
     7
  6
CONTINUOUS
  0
LAYER
  2
23
 70
     0
 62
     7
  6
CONTINUOUS
  0
LAYER
  2
24
 70
     0
 62
     7
  6
CONTINUOUS
  0
LAYER
  2
25
 70
     0
 62
     7
  6
CONTINUOUS
  0
LAYER
  2
26
 70
     0
 62
     7
  6
CONTINUOUS
  0
LAYER
  2
27
 70
     0
 62
     7
  6
CONTINUOUS
  0
LAYER
  2
28
 70
     0
 62
     7
  6
CONTINUOUS
  0
LAYER
  2
29
 70
     0
 62
     7
  6
CONTINUOUS
  0
LAYER
  2
30
 70
     0
 62
     7
  6
CONTINUOUS
  0
LAYER
  2
31
 70
     0
 62
     7
  6
CONTINUOUS
  0
LAYER
  2
32
 70
     0
 62
     7
  6
CONTINUOUS
  0
LAYER
  2
33
 70
     0
 62
     7
  6
CONTINUOUS
  0
LAYER
  2
34
 70
     0
 62
     7
  6
CONTINUOUS
  0
LAYER
  2
35
 70
     0
 62
     7
  6
CONTINUOUS
  0
LAYER
  2
36
 70
     0
 62
     7
  6
CONTINUOUS
  0
LAYER
  2
37
 70
     0
 62
     7
  6
CONTINUOUS
  0
LAYER
  2
38
 70
     0
 62
     7
  6
CONTINUOUS
  0
LAYER
  2
39
 70
     0
 62
     7
  6
CONTINUOUS
  0
LAYER
  2
40
 70
     0
 62
     7
  6
CONTINUOUS
  0
LAYER
  2
41
 70
     0
 62
     7
  6
CONTINUOUS
  0
LAYER
  2
42
 70
     0
 62
     7
  6
CONTINUOUS
  0
LAYER
  2
43
 70
     0
 62
     7
  6
CONTINUOUS
  0
LAYER
  2
44
 70
     0
 62
     7
  6
CONTINUOUS
  0
LAYER
  2
45
 70
     0
 62
     7
  6
CONTINUOUS
  0
LAYER
  2
46
 70
     0
 62
     7
  6
CONTINUOUS
  0
LAYER
  2
47
 70
     0
 62
     7
  6
CONTINUOUS
  0
LAYER
  2
48
 70
     0
 62
     7
  6
CONTINUOUS
  0
LAYER
  2
49
 70
     0
 62
     7
  6
CONTINUOUS
  0
LAYER
  2
50
 70
     0
 62
     7
  6
CONTINUOUS
  0
LAYER
  2
51
 70
     0
 62
     7
  6
CONTINUOUS
  0
LAYER
  2
52
 70
     0
 62
     7
  6
CONTINUOUS
  0
LAYER
  2
53
 70
     0
 62
     7
  6
CONTINUOUS
  0
LAYER
  2
54
 70
     0
 62
     7
  6
CONTINUOUS
  0
LAYER
  2
55
 70
     0
 62
     7
  6
CONTINUOUS
  0
LAYER
  2
56
 70
     0
 62
     7
  6
CONTINUOUS
  0
LAYER
  2
57
 70
     0
 62
     7
  6
CONTINUOUS
  0
LAYER
  2
58
 70
     0
 62
     7
  6
CONTINUOUS
  0
LAYER
  2
59
 70
     0
 62
     7
  6
CONTINUOUS
  0
LAYER
  2
60
 70
     0
 62
     7
  6
CONTINUOUS
  0
LAYER
  2
61
 70
     0
 62
     7
  6
CONTINUOUS
  0
LAYER
  2
62
 70
     0
 62
     7
  6
CONTINUOUS
  0
LAYER
  2
63
 70
     0
 62
     7
  6
CONTINUOUS
  0
LAYER
  2
64
 70
     0
 62
     7
  6
CONTINUOUS
  0
LAYER
  2
65
 70
     0
 62
     7
  6
CONTINUOUS
  0
LAYER
  2
66
 70
     0
 62
     7
  6
CONTINUOUS
  0
LAYER
  2
67
 70
     0
 62
     7
  6
CONTINUOUS
  0
LAYER
  2
68
 70
     0
 62
     7
  6
CONTINUOUS
  0
LAYER
  2
69
 70
     0
 62
     7
  6
CONTINUOUS
  0
LAYER
  2
70
 70
     0
 62
     7
  6
CONTINUOUS
  0
LAYER
  2
71
 70
     0
 62
     7
  6
CONTINUOUS
  0
LAYER
  2
72
 70
     0
 62
     7
  6
CONTINUOUS
  0
LAYER
  2
73
 70
     0
 62
     7
  6
CONTINUOUS
  0
LAYER
  2
74
 70
     0
 62
     7
  6
CONTINUOUS
  0
LAYER
  2
75
 70
     0
 62
     7
  6
CONTINUOUS
  0
LAYER
  2
76
 70
     0
 62
     7
  6
CONTINUOUS
  0
LAYER
  2
77
 70
     0
 62
     7
  6
CONTINUOUS
  0
LAYER
  2
78
 70
     0
 62
     7
  6
CONTINUOUS
  0
LAYER
  2
79
 70
     0
 62
     7
  6
CONTINUOUS
  0
LAYER
  2
80
 70
     0
 62
     7
  6
CONTINUOUS
  0
LAYER
  2
81
 70
     0
 62
     7
  6
CONTINUOUS
  0
LAYER
  2
82
 70
     0
 62
     7
  6
CONTINUOUS
  0
LAYER
  2
83
 70
     0
 62
     7
  6
CONTINUOUS
  0
LAYER
  2
84
 70
     0
 62
     7
  6
CONTINUOUS
  0
LAYER
  2
85
 70
     0
 62
     7
  6
CONTINUOUS
  0
LAYER
  2
86
 70
     0
 62
     7
  6
CONTINUOUS
  0
LAYER
  2
87
 70
     0
 62
     7
  6
CONTINUOUS
  0
LAYER
  2
88
 70
     0
 62
     7
  6
CONTINUOUS
  0
LAYER
  2
89
 70
     0
 62
     7
  6
CONTINUOUS
  0
LAYER
  2
90
 70
     0
 62
     7
  6
CONTINUOUS
  0
LAYER
  2
91
 70
     0
 62
     7
  6
CONTINUOUS
  0
LAYER
  2
92
 70
     0
 62
     7
  6
CONTINUOUS
  0
LAYER
  2
93
 70
     0
 62
     7
  6
CONTINUOUS
  0
LAYER
  2
94
 70
     0
 62
     7
  6
CONTINUOUS
  0
LAYER
  2
95
 70
     0
 62
     7
  6
CONTINUOUS
  0
LAYER
  2
96
 70
     0
 62
     7
  6
CONTINUOUS
  0
LAYER
  2
97
 70
     0
 62
     7
  6
CONTINUOUS
  0
LAYER
  2
98
 70
     0
 62
     7
  6
CONTINUOUS
  0
LAYER
  2
99
 70
     0
 62
     7
  6
CONTINUOUS
  0
LAYER
  2
100
 70
     0
 62
     7
  6
CONTINUOUS
  0
LAYER
  2
101
 70
     0
 62
     7
  6
CONTINUOUS
  0
LAYER
  2
102
 70
     0
 62
     7
  6
CONTINUOUS
  0
LAYER
  2
103
 70
     0
 62
     7
  6
CONTINUOUS
  0
LAYER
  2
104
 70
     0
 62
     7
  6
CONTINUOUS
  0
LAYER
  2
105
 70
     0
 62
     7
  6
CONTINUOUS
  0
LAYER
  2
106
 70
     0
 62
     7
  6
CONTINUOUS
  0
LAYER
  2
107
 70
     0
 62
     7
  6
CONTINUOUS
  0
LAYER
  2
108
 70
     0
 62
     7
  6
CONTINUOUS
  0
LAYER
  2
109
 70
     0
 62
     7
  6
CONTINUOUS
  0
LAYER
  2
110
 70
     0
 62
     7
  6
CONTINUOUS
  0
LAYER
  2
111
 70
     0
 62
     7
  6
CONTINUOUS
  0
LAYER
  2
112
 70
     0
 62
     7
  6
CONTINUOUS
  0
LAYER
  2
113
 70
     0
 62
     7
  6
CONTINUOUS
  0
LAYER
  2
114
 70
     0
 62
     7
  6
CONTINUOUS
  0
LAYER
  2
115
 70
     0
 62
     7
  6
CONTINUOUS
  0
LAYER
  2
116
 70
     0
 62
     7
  6
CONTINUOUS
  0
LAYER
  2
117
 70
     0
 62
     7
  6
CONTINUOUS
  0
LAYER
  2
118
 70
     0
 62
     7
  6
CONTINUOUS
  0
LAYER
  2
119
 70
     0
 62
     7
  6
CONTINUOUS
  0
LAYER
  2
120
 70
     0
 62
     7
  6
CONTINUOUS
  0
LAYER
  2
121
 70
     0
 62
     7
  6
CONTINUOUS
  0
LAYER
  2
122
 70
     0
 62
     7
  6
CONTINUOUS
  0
LAYER
  2
123
 70
     0
 62
     7
  6
CONTINUOUS
  0
LAYER
  2
124
 70
     0
 62
     7
  6
CONTINUOUS
  0
LAYER
  2
125
 70
     0
 62
     7
  6
CONTINUOUS
  0
LAYER
  2
126
 70
     0
 62
     7
  6
CONTINUOUS
  0
LAYER
  2
127
 70
     0
 62
     7
  6
CONTINUOUS
  0
LAYER
  2
128
 70
     0
 62
     7
  6
CONTINUOUS
  0
ENDTAB
  0
TABLE
  2
STYLE
 70
    76
  0
STYLE
  2
STANDARD
 70
     0
 40
0.0
 41
1.0
 50
0.0
 71
     0
 42
0.2
  3
txt.shx
  4
extfont.shx
  0
STYLE
  2
KANJI0
 70
     0
 40
12.8
 41
0.9
 50
0.0
 71
     0
 42
12.8
  3
txt.shx
  4
extfont.shx
  0
STYLE
  2
KANJI1
 70
     0
 40
12.0
 41
0.9
 50
0.0
 71
     0
 42
12.0
  3
txt.shx
  4
extfont.shx
  0
STYLE
  2
KANJI2
 70
     0
 40
12.0
 41
0.9
 50
0.0
 71
     0
 42
12.0
  3
txt.shx
  4
extfont.shx
  0
STYLE
  2
KANJI3
 70
     0
 40
14.0
 41
0.9
 50
0.0
 71
     0
 42
14.0
  3
txt.shx
  4
extfont.shx
  0
STYLE
  2
KANJI4
 70
     0
 40
10.8
 41
0.740740741
 50
0.0
 71
     0
 42
10.8
  3
txt.shx
  4
extfont.shx
  0
STYLE
  2
KANJI5
 70
     0
 40
14.0
 41
0.857142857
 50
0.0
 71
     0
 42
14.0
  3
txt.shx
  4
extfont.shx
  0
STYLE
  2
KANJI6
 70
     0
 40
9.999997897
 41
0.6
 50
0.0
 71
     0
 42
9.999997897
  3
txt.shx
  4
extfont.shx
  0
STYLE
  2
KANJI7
 70
     0
 40
11.999997477
 41
0.9
 50
0.0
 71
     0
 42
11.999997477
  3
txt.shx
  4
extfont.shx
  0
STYLE
  2
KANJI8
 70
     0
 40
14.999996846
 41
0.9
 50
0.0
 71
     0
 42
14.999996846
  3
txt.shx
  4
extfont.shx
  0
STYLE
  2
KANJI9
 70
     0
 40
12.999999
 41
0.75
 50
0.0
 71
     0
 42
12.999999
  3
txt.shx
  4
extfont.shx
  0
STYLE
  2
KANJI10
 70
     0
 40
8.666666
 41
0.6
 50
0.0
 71
     0
 42
8.666666
  3
txt.shx
  4
extfont.shx
  0
STYLE
  2
KANJI11
 70
     0
 40
10.3999992
 41
0.6
 50
0.0
 71
     0
 42
10.3999992
  3
txt.shx
  4
extfont.shx
  0
STYLE
  2
KANJI12
 70
     0
 40
15.1666655
 41
0.42031746
 50
0.0
 71
     0
 42
15.1666655
  3
txt.shx
  4
extfont.shx
  0
STYLE
  2
KANJI13
 70
     0
 40
25.999998
 41
0.9
 50
0.0
 71
     0
 42
25.999998
  3
txt.shx
  4
extfont.shx
  0
STYLE
  2
KANJI14
 70
     0
 40
22.5
 41
0.666666667
 50
0.0
 71
     0
 42
22.5
  3
txt.shx
  4
extfont.shx
  0
STYLE
  2
KANJI15
 70
     0
 40
18.0
 41
1.111111111
 50
0.0
 71
     0
 42
18.0
  3
txt.shx
  4
extfont.shx
  0
STYLE
  2
KANJI16
 70
     0
 40
8.666666
 41
0.8
 50
0.0
 71
     0
 42
8.666666
  3
txt.shx
  4
extfont.shx
  0
STYLE
  2
KANJI17
 70
     0
 40
10.3999992
 41
0.8
 50
0.0
 71
     0
 42
10.3999992
  3
txt.shx
  4
extfont.shx
  0
STYLE
  2
KANJI18
 70
     0
 40
25.0
 41
1.0
 50
0.0
 71
     0
 42
25.0
  3
txt.shx
  4
extfont.shx
  0
STYLE
  2
KANJI19
 70
     0
 40
25.0
 41
1.0
 50
0.0
 71
     0
 42
25.0
  3
txt.shx
  4
extfont.shx
  0
STYLE
  2
KANJI20
 70
     0
 40
25.0
 41
0.8
 50
0.0
 71
     0
 42
25.0
  3
txt.shx
  4
extfont.shx
  0
STYLE
  2
KANJI21
 70
     0
 40
20.0
 41
1.0
 50
0.0
 71
     0
 42
20.0
  3
txt.shx
  4
extfont.shx
  0
STYLE
  2
KANJI22
 70
     0
 40
17.5
 41
0.857142857
 50
0.0
 71
     0
 42
17.5
  3
txt.shx
  4
extfont.shx
  0
STYLE
  2
KANJI23
 70
     0
 40
12.0
 41
0.833333333
 50
0.0
 71
     0
 42
12.0
  3
txt.shx
  4
extfont.shx
  0
STYLE
  2
KANJI24
 70
     0
 40
15.0
 41
0.9
 50
0.0
 71
     0
 42
15.0
  3
txt.shx
  4
extfont.shx
  0
STYLE
  2
KANJI25
 70
     0
 40
17.5
 41
0.793650794
 50
0.0
 71
     0
 42
17.5
  3
txt.shx
  4
extfont.shx
  0
STYLE
  2
KANJI26
 70
     0
 40
25.0
 41
0.8
 50
0.0
 71
     0
 42
25.0
  3
txt.shx
  4
extfont.shx
  0
STYLE
  2
KANJI27
 70
     0
 40
11.55
 41
0.9
 50
0.0
 71
     0
 42
11.55
  3
txt.shx
  4
extfont.shx
  0
STYLE
  2
KANJI28
 70
     0
 40
13.182
 41
0.85
 50
0.0
 71
     0
 42
13.182
  3
txt.shx
  4
extfont.shx
  0
STYLE
  2
KANJI29
 70
     0
 40
11.661
 41
0.822608696
 50
0.0
 71
     0
 42
11.661
  3
txt.shx
  4
extfont.shx
  0
STYLE
  2
KANJI30
 70
     0
 40
11.8638
 41
0.726495726
 50
0.0
 71
     0
 42
11.8638
  3
txt.shx
  4
extfont.shx
  0
STYLE
  2
KANJI31
 70
     4
 40
45.0
 41
0.538166667
 50
0.0
 71
     0
 42
45.0
  3
txt.shx
  4
extfont.shx
  0
STYLE
  2
KANJI32
 70
     0
 40
17.740702234
 41
0.880962996
 50
0.0
 71
     0
 42
17.740702234
  3
txt.shx
  4
extfont.shx
  0
STYLE
  2
KANJI33
 70
     0
 40
11.7
 41
0.8
 50
0.0
 71
     0
 42
11.7
  3
txt.shx
  4
extfont.shx
  0
STYLE
  2
KANJI34
 70
     0
 40
15.0
 41
0.911
 50
0.0
 71
     0
 42
15.0
  3
txt.shx
  4
extfont.shx
  0
STYLE
  2
KANJI35
 70
     0
 40
10.933904043
 41
0.9
 50
0.0
 71
     0
 42
10.933904043
  3
txt.shx
  4
extfont.shx
  0
STYLE
  2
KANJI36
 70
     0
 40
15.185977837
 41
0.66671875
 50
0.0
 71
     0
 42
15.185977837
  3
txt.shx
  4
extfont.shx
  0
STYLE
  2
KANJI37
 70
     0
 40
18.223173404
 41
0.9
 50
0.0
 71
     0
 42
18.223173404
  3
txt.shx
  4
extfont.shx
  0
STYLE
  2
KANJI38
 70
     0
 40
15.6
 41
0.925
 50
0.0
 71
     0
 42
15.6
  3
txt.shx
  4
extfont.shx
  0
STYLE
  2
KANJI39
 70
     0
 40
14.578538724
 41
0.9
 50
0.0
 71
     0
 42
14.578538724
  3
txt.shx
  4
extfont.shx
  0
STYLE
  2
KANJI40
 70
     0
 40
15.0
 41
0.9
 50
0.0
 71
     0
 42
15.0
  3
txt.shx
  4
extfont.shx
  0
STYLE
  2
KANJI41
 70
     0
 40
20.0
 41
0.925
 50
0.0
 71
     0
 42
20.0
  3
txt.shx
  4
extfont.shx
  0
STYLE
  2
KANJI42
 70
     0
 40
20.0
 41
0.925
 50
0.0
 71
     0
 42
20.0
  3
txt.shx
  4
extfont.shx
  0
STYLE
  2
KANJI43
 70
     0
 40
15.0
 41
0.9
 50
0.0
 71
     0
 42
15.0
  3
txt.shx
  4
extfont.shx
  0
STYLE
  2
KANJI44
 70
     0
 40
9.0
 41
0.9
 50
0.0
 71
     0
 42
9.0
  3
txt.shx
  4
extfont.shx
  0
STYLE
  2
KANJI45
 70
     0
 40
20.0
 41
0.9
 50
0.0
 71
     0
 42
20.0
  3
txt.shx
  4
extfont.shx
  0
STYLE
  2
KANJI46
 70
     0
 40
18.0
 41
0.857142857
 50
0.0
 71
     0
 42
18.0
  3
txt.shx
  4
extfont.shx
  0
STYLE
  2
KANJI47
 70
     0
 40
18.0
 41
0.857222222
 50
0.0
 71
     0
 42
18.0
  3
txt.shx
  4
extfont.shx
  0
STYLE
  2
KANJI48
 70
     0
 40
13.475
 41
0.9
 50
0.0
 71
     0
 42
13.475
  3
txt.shx
  4
extfont.shx
  0
STYLE
  2
KANJI49
 70
     0
 40
17.5
 41
0.571428571
 50
0.0
 71
     0
 42
17.5
  3
txt.shx
  4
extfont.shx
  0
STYLE
  2
KANJI50
 70
     0
 40
22.5
 41
0.9
 50
0.0
 71
     0
 42
22.5
  3
txt.shx
  4
extfont.shx
  0
STYLE
  2
KANJI51
 70
     0
 40
19.0
 41
0.9
 50
0.0
 71
     0
 42
19.0
  3
txt.shx
  4
extfont.shx
  0
STYLE
  2
KANJI52
 70
     0
 40
19.0
 41
0.9
 50
0.0
 71
     0
 42
19.0
  3
txt.shx
  4
extfont.shx
  0
STYLE
  2
KANJI53
 70
     0
 40
19.0
 41
0.9
 50
0.0
 71
     0
 42
19.0
  3
txt.shx
  4
extfont.shx
  0
STYLE
  2
KANJI54
 70
     0
 40
19.0
 41
0.9
 50
0.0
 71
     0
 42
19.0
  3
txt.shx
  4
extfont.shx
  0
STYLE
  2
KANJI55
 70
     0
 40
19.0
 41
0.9
 50
0.0
 71
     0
 42
19.0
  3
txt.shx
  4
extfont.shx
  0
STYLE
  2
KANJI56
 70
     0
 40
19.0
 41
0.9
 50
0.0
 71
     0
 42
19.0
  3
txt.shx
  4
extfont.shx
  0
STYLE
  2
KANJI57
 70
     0
 40
19.0
 41
0.9
 50
0.0
 71
     0
 42
19.0
  3
txt.shx
  4
extfont.shx
  0
STYLE
  2
KANJI58
 70
     0
 40
19.0
 41
0.9
 50
0.0
 71
     0
 42
19.0
  3
txt.shx
  4
extfont.shx
  0
STYLE
  2
KANJI59
 70
     4
 40
17.5
 41
0.9
 50
0.0
 71
     0
 42
17.5
  3
txt.shx
  4
extfont.shx
  0
STYLE
  2
KANJI60
 70
     4
 40
17.5
 41
0.9
 50
0.0
 71
     0
 42
17.5
  3
txt.shx
  4
extfont.shx
  0
STYLE
  2
KANJI61
 70
     0
 40
17.5
 41
0.9
 50
0.0
 71
     0
 42
17.5
  3
txt.shx
  4
extfont.shx
  0
STYLE
  2
KANJI62
 70
     0
 40
15.0
 41
0.9
 50
0.0
 71
     0
 42
15.0
  3
txt.shx
  4
extfont.shx
  0
STYLE
  2
KANJI63
 70
     0
 40
17.5
 41
0.9
 50
0.0
 71
     0
 42
17.5
  3
txt.shx
  4
extfont.shx
  0
STYLE
  2
KANJI64
 70
     0
 40
19.0
 41
0.9
 50
0.0
 71
     0
 42
19.0
  3
txt.shx
  4
extfont.shx
  0
STYLE
  2
KANJI65
 70
     0
 40
19.0
 41
0.9
 50
0.0
 71
     0
 42
19.0
  3
txt.shx
  4
extfont.shx
  0
STYLE
  2
KANJI66
 70
     0
 40
17.5
 41
0.628571429
 50
0.0
 71
     0
 42
17.5
  3
txt.shx
  4
extfont.shx
  0
STYLE
  2
KANJI67
 70
     0
 40
17.0
 41
0.705882353
 50
0.0
 71
     0
 42
17.0
  3
txt.shx
  4
extfont.shx
  0
STYLE
  2
KANJI68
 70
     0
 40
15.0
 41
0.8
 50
0.0
 71
     0
 42
15.0
  3
txt.shx
  4
extfont.shx
  0
STYLE
  2
KANJI69
 70
     0
 40
16.0
 41
0.71875
 50
0.0
 71
     0
 42
16.0
  3
txt.shx
  4
extfont.shx
  0
STYLE
  2
KANJI70
 70
     0
 40
16.0
 41
0.8
 50
0.0
 71
     0
 42
16.0
  3
txt.shx
  4
extfont.shx
  0
STYLE
  2
KANJI71
 70
     0
 40
17.5
 41
0.571428571
 50
0.0
 71
     0
 42
17.5
  3
txt.shx
  4
extfont.shx
  0
STYLE
  2
KANJI72
 70
     0
 40
15.0
 41
0.833333333
 50
0.0
 71
     0
 42
15.0
  3
txt.shx
  4
extfont.shx
  0
STYLE
  2
KANJI73
 70
     0
 40
17.5
 41
0.9
 50
0.0
 71
     0
 42
17.5
  3
txt.shx
  4
extfont.shx
  0
STYLE
  2
KANJI74
 70
     0
 40
15.0
 41
0.766666667
 50
0.0
 71
     0
 42
15.0
  3
txt.shx
  4
extfont.shx
  0
ENDTAB
  0
TABLE
  2
VIEW
 70
     0
  0
ENDTAB
  0
ENDSEC
  0
SECTION
  2
BLOCKS
  0
ENDSEC
  0
SECTION
  2
ENTITIES
  0
LINE
  8
0
  6
CONTINUOUS
 62
     6
 10
70.25
 20
34.75
 30
0.0
 11
70.25
 21
1379.75
 31
0.0
  0
LINE
  8
0
  6
CONTINUOUS
 62
     6
 10
70.25
 20
1379.75
 30
0.0
 11
2005.25
 21
1379.75
 31
0.0
  0
LINE
  8
0
  6
CONTINUOUS
 62
     1
 10
846.25
 20
1217.7
 30
0.0
 11
1494.25
 21
1217.7
 31
0.0
  0
LINE
  8
0
  6
CONTINUOUS
 62
     1
 10
846.25
 20
1189.7
 30
0.0
 11
1494.25
 21
1189.7
 31
0.0
  0
TEXT
  8
0
  6
CONTINUOUS
 62
     2
 10
886.25
 20
1197.7
 30
1.28
 40
12.8
  1
形
 50
0.0
 41
0.9
 51
0.0
  7
KANJI0
  0
TEXT
  8
0
  6
CONTINUOUS
 62
     2
 10
964.25
 20
1197.7
 30
1.28
 40
12.8
  1
式
 50
0.0
 41
0.9
 51
0.0
  7
KANJI0
  0
TEXT
  8
0
  6
CONTINUOUS
 62
     2
 10
1024.65
 20
1196.9
 30
1.2
 40
12.0
  1
ストローク
 50
0.0
 41
0.9
 51
0.0
  7
KANJI1
  0
TEXT
  8
0
  6
CONTINUOUS
 62
     2
 10
1101.45
 20
1196.1
 30
0.0
 40
12.0
  1
ｍｉｎ　
 50
0.0
 41
0.9
 51
0.0
  7
KANJI2
  0
TEXT
  8
0
  6
CONTINUOUS
 62
     2
 10
1181.45
 20
1196.1
 30
0.0
 40
12.0
  1
ｍｉｎ　
 50
0.0
 41
0.9
 51
0.0
  7
KANJI2
  0
TEXT
  8
0
  6
CONTINUOUS
 62
     2
 10
1341.45
 20
1196.1
 30
0.0
 40
12.0
  1
ｍｉｎ　
 50
0.0
 41
0.9
 51
0.0
  7
KANJI2
  0
TEXT
  8
0
  6
CONTINUOUS
 62
     2
 10
1142.25
 20
1196.9
 30
1.4
 40
14.0
  1
ＡＬ
 50
0.0
 41
0.9
 51
0.0
  7
KANJI3
  0
TEXT
  8
0
  6
CONTINUOUS
 62
     2
 10
1222.25
 20
1196.9
 30
1.4
 40
14.0
  1
Ｌ
 50
0.0
 41
0.9
 51
0.0
  7
KANJI3
  0
TEXT
  8
0
  6
CONTINUOUS
 62
     2
 10
1290.25
 20
1196.9
 30
1.4
 40
14.0
  1
Ｃ
 50
0.0
 41
0.9
 51
0.0
  7
KANJI3
  0
TEXT
  8
0
  6
CONTINUOUS
 62
     2
 10
1382.25
 20
1196.9
 30
1.4
 40
14.0
  1
Ｐ
 50
0.0
 41
0.9
 51
0.0
  7
KANJI3
  0
TEXT
  8
0
  6
CONTINUOUS
 62
     2
 10
1464.55
 20
1196.6
 30
0.0
 40
10.8
  1
（ｋｇ）
 50
0.0
 41
0.740740741
 51
0.0
  7
KANJI4
  0
TEXT
  8
0
  6
CONTINUOUS
 62
     2
 10
1416.55
 20
1196.4
 30
1.2
 40
14.0
  1
概算重量
 50
0.0
 41
0.857142857
 51
0.0
  7
KANJI5
  0
TEXT
  8
0
  6
CONTINUOUS
 62
     2
 10
1032.25
 20
1168.4
 30
1.2
 40
12.0
  1
　１００
 50
0.0
 41
0.9
 51
0.0
  7
KANJI1
  0
TEXT
  8
0
  6
CONTINUOUS
 62
     2
 10
1032.25
 20
1140.4
 30
1.2
 40
12.0
  1
　２００
 50
0.0
 41
0.9
 51
0.0
  7
KANJI1
  0
TEXT
  8
0
  6
CONTINUOUS
 62
     2
 10
1032.25
 20
1112.4
 30
1.2
 40
12.0
  1
　３００
 50
0.0
 41
0.9
 51
0.0
  7
KANJI1
  0
TEXT
  8
0
  6
CONTINUOUS
 62
     2
 10
1192.25
 20
1112.4
 30
1.2
 40
12.0
  1
　５０８
 50
0.0
 41
0.9
 51
0.0
  7
KANJI1
  0
TEXT
  8
0
  6
CONTINUOUS
 62
     2
 10
1192.25
 20
1140.4
 30
1.2
 40
12.0
  1
　４０８
 50
0.0
 41
0.9
 51
0.0
  7
KANJI1
  0
TEXT
  8
0
  6
CONTINUOUS
 62
     2
 10
1272.25
 20
1168.4
 30
1.2
 40
12.0
  1
　２３８
 50
0.0
 41
0.9
 51
0.0
  7
KANJI1
  0
TEXT
  8
0
  6
CONTINUOUS
 62
     2
 10
1272.25
 20
1140.4
 30
1.2
 40
12.0
  1
　３３８
 50
0.0
 41
0.9
 51
0.0
  7
KANJI1
  0
TEXT
  8
0
  6
CONTINUOUS
 62
     2
 10
1272.25
 20
1112.4
 30
1.2
 40
12.0
  1
　４３８
 50
0.0
 41
0.9
 51
0.0
  7
KANJI1
  0
TEXT
  8
0
  6
CONTINUOUS
 62
     2
 10
1352.25
 20
1112.4
 30
1.2
 40
12.0
  1
　　３５
 50
0.0
 41
0.9
 51
0.0
  7
KANJI1
  0
TEXT
  8
0
  6
CONTINUOUS
 62
     2
 10
1352.25
 20
1140.4
 30
1.2
 40
12.0
  1
　　３５
 50
0.0
 41
0.9
 51
0.0
  7
KANJI1
  0
TEXT
  8
0
  6
CONTINUOUS
 62
     2
 10
1352.25
 20
1168.4
 30
1.2
 40
12.0
  1
　　３５
 50
0.0
 41
0.9
 51
0.0
  7
KANJI1
  0
TEXT
  8
0
  6
CONTINUOUS
 62
     2
 10
1032.25
 20
1000.4
 30
1.2
 40
12.0
  1
　７００
 50
0.0
 41
0.9
 51
0.0
  7
KANJI1
  0
TEXT
  8
0
  6
CONTINUOUS
 62
     2
 10
1192.25
 20
1000.4
 30
1.2
 40
12.0
  1
１０６１
 50
0.0
 41
0.9
 51
0.0
  7
KANJI1
  0
TEXT
  8
0
  6
CONTINUOUS
 62
     2
 10
1272.25
 20
1000.4
 30
1.2
 40
12.0
  1
　８７８
 50
0.0
 41
0.9
 51
0.0
  7
KANJI1
  0
TEXT
  8
0
  6
CONTINUOUS
 62
     2
 10
1352.25
 20
1000.4
 30
1.2
 40
12.0
  1
　１４８
 50
0.0
 41
0.9
 51
0.0
  7
KANJI1
  0
TEXT
  8
0
  6
CONTINUOUS
 62
     2
 10
1032.25
 20
1056.4
 30
1.2
 40
12.0
  1
　５００
 50
0.0
 41
0.9
 51
0.0
  7
KANJI1
  0
TEXT
  8
0
  6
CONTINUOUS
 62
     2
 10
1192.25
 20
1056.4
 30
1.2
 40
12.0
  1
　７８５
 50
0.0
 41
0.9
 51
0.0
  7
KANJI1
  0
TEXT
  8
0
  6
CONTINUOUS
 62
     2
 10
1272.25
 20
1056.4
 30
1.2
 40
12.0
  1
　６３８
 50
0.0
 41
0.9
 51
0.0
  7
KANJI1
  0
TEXT
  8
0
  6
CONTINUOUS
 62
     2
 10
1352.25
 20
1056.4
 30
1.2
 40
12.0
  1
　１１２
 50
0.0
 41
0.9
 51
0.0
  7
KANJI1
  0
TEXT
  8
0
  6
CONTINUOUS
 62
     2
 10
1032.25
 20
1084.4
 30
1.2
 40
12.0
  1
　４００
 50
0.0
 41
0.9
 51
0.0
  7
KANJI1
  0
TEXT
  8
0
  6
CONTINUOUS
 62
     2
 10
1032.25
 20
1028.4
 30
1.2
 40
12.0
  1
　６００
 50
0.0
 41
0.9
 51
0.0
  7
KANJI1
  0
TEXT
  8
0
  6
CONTINUOUS
 62
     2
 10
1352.25
 20
1084.4
 30
1.2
 40
12.0
  1
　　８５
 50
0.0
 41
0.9
 51
0.0
  7
KANJI1
  0
TEXT
  8
0
  6
CONTINUOUS
 62
     2
 10
1352.25
 20
1028.4
 30
1.2
 40
12.0
  1
　１２８
 50
0.0
 41
0.9
 51
0.0
  7
KANJI1
  0
TEXT
  8
0
  6
CONTINUOUS
 62
     2
 10
1272.25
 20
1084.4
 30
1.2
 40
12.0
  1
　５３８
 50
0.0
 41
0.9
 51
0.0
  7
KANJI1
  0
TEXT
  8
0
  6
CONTINUOUS
 62
     2
 10
1272.25
 20
1028.4
 30
1.2
 40
12.0
  1
　７７８
 50
0.0
 41
0.9
 51
0.0
  7
KANJI1
  0
TEXT
  8
0
  6
CONTINUOUS
 62
     2
 10
1192.25
 20
1168.4
 30
1.2
 40
12.0
  1
　３０８
 50
0.0
 41
0.9
 51
0.0
  7
KANJI1
  0
TEXT
  8
0
  6
CONTINUOUS
 62
     2
 10
1192.25
 20
1084.4
 30
1.2
 40
12.0
  1
　６５８
 50
0.0
 41
0.9
 51
0.0
  7
KANJI1
  0
TEXT
  8
0
  6
CONTINUOUS
 62
     2
 10
1192.25
 20
1028.4
 30
1.2
 40
12.0
  1
　９４１
 50
0.0
 41
0.9
 51
0.0
  7
KANJI1
  0
TEXT
  8
0
  6
CONTINUOUS
 62
     2
 10
1112.25
 20
1168.4
 30
1.2
 40
12.0
  1
　４５０
 50
0.0
 41
0.9
 51
0.0
  7
KANJI1
  0
TEXT
  8
0
  6
CONTINUOUS
 62
     2
 10
1112.25
 20
1140.4
 30
1.2
 40
12.0
  1
　５５０
 50
0.0
 41
0.9
 51
0.0
  7
KANJI1
  0
TEXT
  8
0
  6
CONTINUOUS
 62
     2
 10
1112.25
 20
1112.4
 30
1.2
 40
12.0
  1
　６５０
 50
0.0
 41
0.9
 51
0.0
  7
KANJI1
  0
TEXT
  8
0
  6
CONTINUOUS
 62
     2
 10
1112.25
 20
1084.4
 30
1.2
 40
12.0
  1
　８００
 50
0.0
 41
0.9
 51
0.0
  7
KANJI1
  0
TEXT
  8
0
  6
CONTINUOUS
 62
     2
 10
1112.25
 20
1056.4
 30
1.2
 40
12.0
  1
　９２７
 50
0.0
 41
0.9
 51
0.0
  7
KANJI1
  0
TEXT
  8
0
  6
CONTINUOUS
 62
     2
 10
1112.25
 20
1028.4
 30
1.2
 40
12.0
  1
１０８３
 50
0.0
 41
0.9
 51
0.0
  7
KANJI1
  0
TEXT
  8
0
  6
CONTINUOUS
 62
     2
 10
1112.25
 20
1000.4
 30
1.2
 40
12.0
  1
１２０３
 50
0.0
 41
0.9
 51
0.0
  7
KANJI1
  0
TEXT
  8
0
  6
CONTINUOUS
 62
     4
 10
85.249996846
 20
59.749994744
 30
0.99999979
 40
9.999997897
  1
ＰＡＲＴＳ　ＬＩＳＴ
 50
0.0
 41
0.6
 51
0.0
  7
KANJI6
  0
TEXT
  8
0
  6
CONTINUOUS
 62
     4
 10
85.249996846
 20
44.749997897
 30
1.199999748
 40
11.999997477
  1
部品表
 50
0.0
 41
0.9
 51
0.0
  7
KANJI7
  0
LINE
  8
0
  6
CONTINUOUS
 62
     6
 10
75.249998949
 20
109.749984231
 30
0.0
 11
400.249930615
 21
109.749984231
 31
0.0
  0
LINE
  8
0
  6
CONTINUOUS
 62
     6
 10
75.249998949
 20
39.749998949
 30
0.0
 11
400.249930615
 21
39.749998949
 31
0.0
  0
LINE
  8
0
  6
CONTINUOUS
 62
     6
 10
75.249998949
 20
39.749998949
 30
0.0
 11
75.249998949
 21
109.749984231
 31
0.0
  0
LINE
  8
0
  6
CONTINUOUS
 62
     6
 10
75.249998949
 20
74.74999159
 30
0.0
 11
400.249930615
 21
74.74999159
 31
0.0
  0
TEXT
  8
0
  6
CONTINUOUS
 62
     3
 10
85.249996846
 20
84.749989487
 30
1.499999685
 40
14.999996846
  1
ＰＬ
 50
0.0
 41
0.9
 51
0.0
  7
KANJI8
  0
LINE
  8
0
  6
CONTINUOUS
 62
     4
 10
13.333333
 20
39.083333
 30
0.0
 11
65.333329
 21
39.083333
 31
0.0
  0
LINE
  8
0
  6
CONTINUOUS
 62
     4
 10
13.333333
 20
65.083331
 30
0.0
 11
65.333329
 21
65.083331
 31
0.0
  0
LINE
  8
0
  6
CONTINUOUS
 62
     4
 10
13.333333
 20
91.083329
 30
0.0
 11
65.333329
 21
91.083329
 31
0.0
  0
LINE
  8
0
  6
CONTINUOUS
 62
     4
 10
13.333333
 20
117.083327
 30
0.0
 11
65.333329
 21
117.083327
 31
0.0
  0
LINE
  8
0
  6
CONTINUOUS
 62
     4
 10
13.333333
 20
143.083325
 30
0.0
 11
65.333329
 21
143.083325
 31
0.0
  0
LINE
  8
0
  6
CONTINUOUS
 62
     4
 10
13.333333
 20
169.083323
 30
0.0
 11
65.333329
 21
169.083323
 31
0.0
  0
LINE
  8
0
  6
CONTINUOUS
 62
     4
 10
13.333333
 20
195.083321
 30
0.0
 11
65.333329
 21
195.083321
 31
0.0
  0
LINE
  8
0
  6
CONTINUOUS
 62
     4
 10
13.333333
 20
221.083319
 30
0.0
 11
65.333329
 21
221.083319
 31
0.0
  0
LINE
  8
0
  6
CONTINUOUS
 62
     4
 10
13.333333
 20
247.083317
 30
0.0
 11
65.333329
 21
247.083317
 31
0.0
  0
LINE
  8
0
  6
CONTINUOUS
 62
     4
 10
13.333333
 20
273.083315
 30
0.0
 11
65.333329
 21
273.083315
 31
0.0
  0
LINE
  8
0
  6
CONTINUOUS
 62
     4
 10
65.333329
 20
39.083333
 30
0.0
 11
65.333329
 21
273.083315
 31
0.0
  0
LINE
  8
0
  6
CONTINUOUS
 62
     4
 10
39.333331
 20
39.083333
 30
0.0
 11
39.333331
 21
247.083317
 31
0.0
  0
TEXT
  8
0
  6
CONTINUOUS
 62
     4
 10
22.21666565
 20
46.66666575
 30
1.2999999
 40
12.999999
  1
計
 50
0.0
 41
0.75
 51
0.0
  7
KANJI9
  0
TEXT
  8
0
  6
CONTINUOUS
 62
     4
 10
22.21666565
 20
99.09999505
 30
1.2999999
 40
12.999999
  1
設
 50
0.0
 41
0.75
 51
0.0
  7
KANJI9
  0
TEXT
  8
0
  6
CONTINUOUS
 62
     4
 10
22.21666565
 20
124.66665975
 30
1.2999999
 40
12.999999
  1
管
 50
0.0
 41
0.75
 51
0.0
  7
KANJI9
  0
TEXT
  8
0
  6
CONTINUOUS
 62
     4
 10
22.21666565
 20
150.66665775
 30
1.2999999
 40
12.999999
  1
製
 50
0.0
 41
0.75
 51
0.0
  7
KANJI9
  0
TEXT
  8
0
  6
CONTINUOUS
 62
     4
 10
22.21666565
 20
176.66665575
 30
1.2999999
 40
12.999999
  1
資
 50
0.0
 41
0.75
 51
0.0
  7
KANJI9
  0
TEXT
  8
0
  6
CONTINUOUS
 62
     4
 10
22.21666565
 20
202.66665375
 30
1.2999999
 40
12.999999
  1
営
 50
0.0
 41
0.75
 51
0.0
  7
KANJI9
  0
TEXT
  8
0
  6
CONTINUOUS
 62
     4
 10
22.21666565
 20
228.66665175
 30
1.2999999
 40
12.999999
  1
客
 50
0.0
 41
0.75
 51
0.0
  7
KANJI9
  0
TEXT
  8
0
  6
CONTINUOUS
 62
     4
 10
21.999999
 20
255.749983
 30
1.2999999
 40
12.999999
  1
出　図
 50
0.0
 41
0.75
 51
0.0
  7
KANJI9
  0
LINE
  8
0
  6
CONTINUOUS
 62
     4
 10
13.333333
 20
39.083333
 30
0.0
 11
13.333333
 21
273.083315
 31
0.0
  0
TEXT
  8
0
  6
CONTINUOUS
 62
     4
 10
310.249949538
 20
59.749994744
 30
0.99999979
 40
9.999997897
  1
Ｎ０．
 50
0.0
 41
0.6
 51
0.0
  7
KANJI6
  0
TEXT
  8
0
  6
CONTINUOUS
 62
     4
 10
310.249949538
 20
44.749997897
 30
1.199999748
 40
11.999997477
  1
項番
 50
0.0
 41
0.9
 51
0.0
  7
KANJI7
  0
LINE
  8
0
  6
CONTINUOUS
 62
     6
 10
2005.25
 20
34.75
 30
0.0
 11
70.25
 21
34.75
 31
0.0
  0
LINE
  8
0
  6
CONTINUOUS
 62
     6
 10
400.249930615
 20
39.749998949
 30
0.0
 11
400.249930615
 21
109.749984231
 31
0.0
  0
LINE
  8
0
  6
CONTINUOUS
 62
     6
 10
300.249951641
 20
39.749998949
 30
0.0
 11
300.249951641
 21
109.749984231
 31
0.0
  0
LINE
  8
0
  6
CONTINUOUS
 62
     6
 10
2005.25
 20
1379.75
 30
0.0
 11
2005.25
 21
34.75
 31
0.0
  0
LINE
  8
0
  6
CONTINUOUS
 62
     6
 10
1333.583385
 20
39.083333
 30
0.0
 11
1333.583385
 21
316.416645
 31
0.0
  0
LINE
  8
0
  6
CONTINUOUS
 62
     6
 10
2000.916667
 20
39.083333
 30
0.0
 11
2000.916667
 21
316.416645
 31
0.0
  0
LINE
  8
0
  6
CONTINUOUS
 62
     4
 10
1491.7500395
 20
39.083333
 30
0.0
 11
1491.7500395
 21
316.416645
 31
0.0
  0
LINE
  8
0
  6
CONTINUOUS
 62
     4
 10
1333.583385
 20
73.749997
 30
0.0
 11
1491.7500395
 21
73.749997
 31
0.0
  0
TEXT
  8
0
  6
CONTINUOUS
 62
     4
 10
1342.250051
 20
58.5833315
 30
0.8666666
 40
8.666666
  1
ＳＣＡＬＥ
 50
0.0
 41
0.6
 51
0.0
  7
KANJI10
  0
TEXT
  8
0
  6
CONTINUOUS
 62
     4
 10
1342.250051
 20
45.5833325
 30
1.03999992
 40
10.3999992
  1
尺度
 50
0.0
 41
0.6
 51
0.0
  7
KANJI11
  0
LINE
  8
0
  6
CONTINUOUS
 62
     6
 10
991.250078
 20
73.749997
 30
0.0
 11
1333.583385
 21
73.749997
 31
0.0
  0
LINE
  8
0
  6
CONTINUOUS
 62
     6
 10
991.250078
 20
39.083333
 30
0.0
 11
2000.916667
 21
39.083333
 31
0.0
  0
TEXT
  8
0
  6
CONTINUOUS
 62
     6
 10
1496.0833725
 20
58.5833315
 30
0.0
 40
15.1666655
  1
ＵＮＩＴＥＣ　ＩＮＤＵＳＴＲＹ　ＣＯ．，ＬＴＤ．
 50
0.0
 41
0.42031746
 51
0.0
  7
KANJI12
  0
TEXT
  8
0
  6
CONTINUOUS
 62
     6
 10
1708.795856138
 20
52.9499986
 30
2.5999998
 40
25.999998
  1
ユニテック工業株式会社
 50
0.0
 41
0.9
 51
0.0
  7
KANJI13
  0
LINE
  8
0
  6
CONTINUOUS
 62
     6
 10
1674.129192138
 20
62.0499979
 30
0.0
 11
1662.689193018
 21
62.0499979
 31
0.0
  0
LINE
  8
0
  6
CONTINUOUS
 62
     6
 10
1674.129192138
 20
64.12999774
 30
0.0
 11
1662.689193018
 21
64.12999774
 31
0.0
  0
LINE
  8
0
  6
CONTINUOUS
 62
     6
 10
1674.129192138
 20
62.0499979
 30
0.0
 11
1685.569191258
 21
62.0499979
 31
0.0
  0
LINE
  8
0
  6
CONTINUOUS
 62
     6
 10
1674.129192138
 20
64.12999774
 30
0.0
 11
1685.569191258
 21
64.12999774
 31
0.0
  0
LINE
  8
0
  6
CONTINUOUS
 62
     6
 10
1685.569191258
 20
64.12999774
 30
0.0
 11
1685.569191258
 21
62.0499979
 31
0.0
  0
ARC
  8
0
  6
CONTINUOUS
 62
     6
 10
1688.169191058
 20
63.08999782
 30
0.0
 40
10.3999992
 50
185.739170477
 51
90.0
  0
ARC
  8
0
  6
CONTINUOUS
 62
     6
 10
1688.169191058
 20
63.08999782
 30
0.0
 40
12.47999904
 50
184.780191847
 51
90.0
  0
LINE
  8
0
  6
CONTINUOUS
 62
     6
 10
1662.689193018
 20
62.0499979
 30
0.0
 11
1662.689193018
 21
64.12999774
 31
0.0
  0
ARC
  8
0
  6
CONTINUOUS
 62
     6
 10
1660.089193218
 20
63.08999782
 30
0.0
 40
10.3999992
 50
90.0
 51
354.260829523
  0
ARC
  8
0
  6
CONTINUOUS
 62
     6
 10
1660.089193218
 20
63.08999782
 30
0.0
 40
12.47999904
 50
90.0
 51
355.219808153
  0
LINE
  8
0
  6
CONTINUOUS
 62
     6
 10
1672.569192258
 20
75.56999686
 30
0.0
 11
1672.569192258
 21
73.48999702
 31
0.0
  0
LINE
  8
0
  6
CONTINUOUS
 62
     6
 10
1660.089193218
 20
73.48999702
 30
0.0
 11
1672.569192258
 21
73.48999702
 31
0.0
  0
LINE
  8
0
  6
CONTINUOUS
 62
     6
 10
1675.689192018
 20
75.56999686
 30
0.0
 11
1675.689192018
 21
73.48999702
 31
0.0
  0
LINE
  8
0
  6
CONTINUOUS
 62
     6
 10
1688.169191058
 20
73.48999702
 30
0.0
 11
1675.689192018
 21
73.48999702
 31
0.0
  0
TEXT
  8
0
  6
CONTINUOUS
 62
     2
 10
1425.25
 20
44.75
 30
1.5
 40
22.5
  1
１／５
 50
0.0
 41
0.666666667
 51
0.0
  7
KANJI14
  0
TEXT
  8
0
  6
CONTINUOUS
 62
     4
 10
1101.7500695
 20
58.5833315
 30
0.8666666
 40
8.666666
  1
ＢＹ
 50
0.0
 41
0.6
 51
0.0
  7
KANJI10
  0
TEXT
  8
0
  6
CONTINUOUS
 62
     4
 10
1197.0833955
 20
58.5833315
 30
0.8666666
 40
8.666666
  1
ＤＥＳＣＲＩＰＴＩＯＮ
 50
0.0
 41
0.6
 51
0.0
  7
KANJI10
  0
TEXT
  8
0
  6
CONTINUOUS
 62
     4
 10
1101.7500695
 20
45.5833325
 30
1.03999992
 40
10.3999992
  1
担当
 50
0.0
 41
0.6
 51
0.0
  7
KANJI11
  0
TEXT
  8
0
  6
CONTINUOUS
 62
     4
 10
1210.0833945
 20
45.5833325
 30
1.03999992
 40
10.3999992
  1
記　　　　事
 50
0.0
 41
0.6
 51
0.0
  7
KANJI11
  0
LINE
  8
0
  6
CONTINUOUS
 62
     4
 10
1009.66674325
 20
67.2499975
 30
0.0
 11
995.583411
 21
45.5833325
 31
0.0
  0
TEXT
  8
0
  6
CONTINUOUS
 62
     4
 10
1045.4167405
 20
58.5833315
 30
0.8666666
 40
8.666666
  1
ＤＡＴＥ
 50
0.0
 41
0.6
 51
0.0
  7
KANJI10
  0
TEXT
  8
0
  6
CONTINUOUS
 62
     4
 10
1051.91674
 20
45.5833325
 30
1.03999992
 40
10.3999992
  1
日付
 50
0.0
 41
0.6
 51
0.0
  7
KANJI11
  0
LINE
  8
0
  6
CONTINUOUS
 62
     4
 10
995.583411
 20
45.5833325
 30
0.0
 11
1023.7500755
 21
45.5833325
 31
0.0
  0
LINE
  8
0
  6
CONTINUOUS
 62
     4
 10
1009.66674325
 20
67.2499975
 30
0.0
 11
1023.7500755
 21
45.5833325
 31
0.0
  0
LINE
  8
0
  6
CONTINUOUS
 62
     6
 10
991.250078
 20
39.083333
 30
0.0
 11
991.250078
 21
73.749997
 31
0.0
  0
LINE
  8
0
  6
CONTINUOUS
 62
     4
 10
1028.0834085
 20
39.083333
 30
0.0
 11
1028.0834085
 21
73.749997
 31
0.0
  0
LINE
  8
0
  6
CONTINUOUS
 62
     4
 10
1088.7500705
 20
39.083333
 30
0.0
 11
1088.7500705
 21
73.749997
 31
0.0
  0
LINE
  8
0
  6
CONTINUOUS
 62
     4
 10
1127.7500675
 20
39.083333
 30
0.0
 11
1127.7500675
 21
73.749997
 31
0.0
  0
TEXT
  8
0
  6
CONTINUOUS
 62
     4
 10
1342.250051
 20
231.9166515
 30
0.8666666
 40
8.666666
  1
ＣＯＤＥ
 50
0.0
 41
0.6
 51
0.0
  7
KANJI10
  0
LINE
  8
0
  6
CONTINUOUS
 62
     4
 10
1333.583385
 20
247.083317
 30
0.0
 11
2000.916667
 21
247.083317
 31
0.0
  0
TEXT
  8
0
  6
CONTINUOUS
 62
     4
 10
1342.250051
 20
218.9166525
 30
1.03999992
 40
10.3999992
  1
分類
 50
0.0
 41
0.6
 51
0.0
  7
KANJI11
  0
LINE
  8
0
  6
CONTINUOUS
 62
     4
 10
2000.916667
 20
281.749981
 30
0.0
 11
2000.916667
 21
316.416645
 31
0.0
  0
LINE
  8
0
  6
CONTINUOUS
 62
     6
 10
1334.208385
 20
281.749981
 30
0.0
 11
2001.541667
 21
281.749981
 31
0.0
  0
LINE
  8
0
  6
CONTINUOUS
 62
     6
 10
1333.583385
 20
316.416645
 30
0.0
 11
2000.916667
 21
316.416645
 31
0.0
  0
TEXT
  8
0
  6
CONTINUOUS
 62
     4
 10
1349.0
 20
286.916664
 30
5.0
 40
18.0
  1
ご用途
 50
0.0
 41
1.111111111
 51
0.0
  7
KANJI15
  0
TEXT
  8
0
  6
CONTINUOUS
 62
     4
 10
1349.0
 20
252.25
 30
5.0
 40
18.0
  1
ご注文主
 50
0.0
 41
1.111111111
 51
0.0
  7
KANJI15
  0
TEXT
  8
0
  6
CONTINUOUS
 62
     4
 10
1342.250051
 20
127.9166595
 30
0.8666666
 40
8.666666
  1
ＤＲＡＷＮ
 50
0.0
 41
0.6
 51
0.0
  7
KANJI10
  0
TEXT
  8
0
  6
CONTINUOUS
 62
     4
 10
1342.250051
 20
162.5833235
 30
0.8666666
 40
8.666666
  1
ＤＥＳＩＧＮ
 50
0.0
 41
0.6
 51
0.0
  7
KANJI10
  0
TEXT
  8
0
  6
CONTINUOUS
 62
     4
 10
1342.250051
 20
197.2499875
 30
0.8666666
 40
8.666666
  1
ＣＨＥＣＫ
 50
0.0
 41
0.6
 51
0.0
  7
KANJI10
  0
LINE
  8
0
  6
CONTINUOUS
 62
     4
 10
1333.583385
 20
177.749989
 30
0.0
 11
1491.7500395
 21
177.749989
 31
0.0
  0
LINE
  8
0
  6
CONTINUOUS
 62
     4
 10
1333.583385
 20
143.083325
 30
0.0
 11
1491.7500395
 21
143.083325
 31
0.0
  0
LINE
  8
0
  6
CONTINUOUS
 62
     4
 10
1333.583385
 20
212.416653
 30
0.0
 11
1491.7500395
 21
212.416653
 31
0.0
  0
TEXT
  8
0
  6
CONTINUOUS
 62
     4
 10
1342.250051
 20
149.5833245
 30
1.03999992
 40
10.3999992
  1
設計
 50
0.0
 41
0.6
 51
0.0
  7
KANJI11
  0
TEXT
  8
0
  6
CONTINUOUS
 62
     4
 10
1342.250051
 20
184.2499885
 30
1.03999992
 40
10.3999992
  1
検図
 50
0.0
 41
0.6
 51
0.0
  7
KANJI11
  0
LINE
  8
0
  6
CONTINUOUS
 62
     4
 10
1504.53337185
 20
212.416653
 30
0.0
 11
2000.916667
 21
212.416653
 31
0.0
  0
LINE
  8
0
  6
CONTINUOUS
 62
     4
 10
1491.7500395
 20
143.083325
 30
0.0
 11
2000.916667
 21
143.083325
 31
0.0
  0
TEXT
  8
0
  6
CONTINUOUS
 62
     4
 10
1500.4167055
 20
127.9166595
 30
0.8666666
 40
8.666666
  1
ＤＲＡＷＩＮＧ　ＮＯ．
 50
0.0
 41
0.8
 51
0.0
  7
KANJI16
  0
TEXT
  8
0
  6
CONTINUOUS
 62
     4
 10
1500.4167055
 20
162.5833235
 30
0.8666666
 40
8.666666
  1
ＭＦＧ　ＮＯ．
 50
0.0
 41
0.8
 51
0.0
  7
KANJI16
  0
TEXT
  8
0
  6
CONTINUOUS
 62
     4
 10
1500.4167055
 20
197.2499875
 30
0.8666666
 40
8.666666
  1
ＴＹＰＥ
 50
0.0
 41
0.8
 51
0.0
  7
KANJI16
  0
LINE
  8
0
  6
CONTINUOUS
 62
     4
 10
1504.7500385
 20
177.749989
 30
0.0
 11
1704.0833565
 21
177.749989
 31
0.0
  0
TEXT
  8
0
  6
CONTINUOUS
 62
     4
 10
1500.4167055
 20
112.749994
 30
1.03999992
 40
10.3999992
  1
図　面　番　号
 50
0.0
 41
0.8
 51
0.0
  7
KANJI17
  0
TEXT
  8
0
  6
CONTINUOUS
 62
     4
 10
1500.4167055
 20
147.416658
 30
1.03999992
 40
10.3999992
  1
製番
 50
0.0
 41
0.8
 51
0.0
  7
KANJI17
  0
TEXT
  8
0
  6
CONTINUOUS
 62
     4
 10
1500.4167055
 20
182.083322
 30
1.03999992
 40
10.3999992
  1
機種
 50
0.0
 41
0.8
 51
0.0
  7
KANJI17
  0
LINE
  8
0
  6
CONTINUOUS
 62
     4
 10
1333.583385
 20
108.416661
 30
0.0
 11
1491.7500395
 21
108.416661
 31
0.0
  0
TEXT
  8
0
  6
CONTINUOUS
 62
     4
 10
1342.250051
 20
93.2499955
 30
0.8666666
 40
8.666666
  1
ＤＡＴＥ
 50
0.0
 41
0.6
 51
0.0
  7
KANJI10
  0
TEXT
  8
0
  6
CONTINUOUS
 62
     4
 10
1342.250051
 20
80.2499965
 30
1.03999992
 40
10.3999992
  1
日付
 50
0.0
 41
0.6
 51
0.0
  7
KANJI11
  0
TEXT
  8
0
  6
CONTINUOUS
 62
     4
 10
1342.250051
 20
114.9166605
 30
1.03999992
 40
10.3999992
  1
作図
 50
0.0
 41
0.6
 51
0.0
  7
KANJI11
  0
LINE
  8
0
  6
CONTINUOUS
 62
     4
 10
1491.7500395
 20
93.2499955
 30
0.0
 11
2000.916667
 21
93.2499955
 31
0.0
  0
LINE
  8
0
  6
LTYPE1
 62
     4
 10
1855.7500115
 20
99.749995
 30
0.0
 11
1855.7500115
 21
134.416659
 31
0.0
  0
LINE
  8
0
  6
LTYPE1
 62
     4
 10
1825.4166805
 20
99.749995
 30
0.0
 11
1825.4166805
 21
134.416659
 31
0.0
  0
LINE
  8
0
  6
LTYPE1
 62
     4
 10
1795.0833495
 20
99.749995
 30
0.0
 11
1795.0833495
 21
134.416659
 31
0.0
  0
LINE
  8
0
  6
LTYPE1
 62
     4
 10
1764.7500185
 20
99.749995
 30
0.0
 11
1764.7500185
 21
134.416659
 31
0.0
  0
LINE
  8
0
  6
LTYPE1
 62
     4
 10
1734.4166875
 20
99.749995
 30
0.0
 11
1734.4166875
 21
134.416659
 31
0.0
  0
LINE
  8
0
  6
LTYPE1
 62
     4
 10
1704.0833565
 20
99.749995
 30
0.0
 11
1704.0833565
 21
134.416659
 31
0.0
  0
LINE
  8
0
  6
LTYPE1
 62
     4
 10
1673.7500255
 20
99.749995
 30
0.0
 11
1673.7500255
 21
134.416659
 31
0.0
  0
LINE
  8
0
  6
LTYPE1
 62
     4
 10
1643.4166945
 20
99.749995
 30
0.0
 11
1643.4166945
 21
134.416659
 31
0.0
  0
LINE
  8
0
  6
LTYPE1
 62
     4
 10
1643.4166945
 20
134.416659
 30
0.0
 11
1855.7500115
 21
134.416659
 31
0.0
  0
LINE
  8
0
  6
LTYPE1
 62
     4
 10
1643.4166945
 20
99.749995
 30
0.0
 11
1855.7500115
 21
99.749995
 31
0.0
  0
LINE
  8
0
  6
CONTINUOUS
 62
     4
 10
1873.0833435
 20
118.16666025
 30
0.0
 11
1881.7500095
 21
118.16666025
 31
0.0
  0
LINE
  8
0
  6
CONTINUOUS
 62
     4
 10
1927.250006
 20
105.16666125
 30
0.0
 11
1896.916675
 21
105.16666125
 31
0.0
  0
LINE
  8
0
  6
CONTINUOUS
 62
     4
 10
1896.916675
 20
105.16666125
 30
0.0
 11
1912.0833405
 21
131.16665925
 31
0.0
  0
LINE
  8
0
  6
CONTINUOUS
 62
     4
 10
1912.0833405
 20
131.16665925
 30
0.0
 11
1927.250006
 21
105.16666125
 31
0.0
  0
TEXT
  8
0
  6
CONTINUOUS
 62
     4
 10
1717.0833555
 20
197.2499875
 30
0.8666666
 40
8.666666
  1
ＴＩＴＬＥ
 50
0.0
 41
0.8
 51
0.0
  7
KANJI16
  0
TEXT
  8
0
  6
CONTINUOUS
 62
     4
 10
1717.0833555
 20
182.083322
 30
1.03999992
 40
10.3999992
  1
名称
 50
0.0
 41
0.8
 51
0.0
  7
KANJI17
  0
TEXT
  8
0
  6
CONTINUOUS
 62
     2
 10
1787.75
 20
149.75
 30
12.5
 40
25.0
  1
外形寸法図
 50
0.0
 41
1.0
 51
0.0
  7
KANJI18
  0
TEXT
  8
0
  6
CONTINUOUS
 62
     2
 10
1757.75
 20
179.75
 30
3.571428571
 40
25.0
  1
マイティシリンダ
 50
0.0
 41
1.0
 51
0.0
  7
KANJI19
  0
TEXT
  8
0
  6
CONTINUOUS
 62
     2
 10
1617.1666945
 20
104.749995
 30
1.5
 40
25.0
  1
Ａ
 50
0.0
 41
0.8
 51
0.0
  7
KANJI20
  0
CIRCLE
  8
0
  6
CONTINUOUS
 62
     2
 10
1584.6666945
 20
158.499995
 30
0.0
 40
12.5
  0
TEXT
  8
0
  6
CONTINUOUS
 62
     2
 10
1575.2916945
 20
149.124995
 30
1.5
 40
20.0
  1
Ｓ
 50
0.0
 41
1.0
 51
0.0
  7
KANJI21
  0
LINE
  8
0
  6
CONTINUOUS
 62
     6
 10
1672.569192258
 20
75.56999686
 30
0.0
 11
1660.089193218
 21
75.56999686
 31
0.0
  0
LINE
  8
0
  6
CONTINUOUS
 62
     6
 10
1675.689192018
 20
75.56999686
 30
0.0
 11
1688.169191058
 21
75.56999686
 31
0.0
  0
TEXT
  8
0
  6
CONTINUOUS
 62
     2
 10
1389.4166945
 20
117.249995
 30
5.0
 40
17.5
  1
岡田
 50
0.0
 41
0.857142857
 51
0.0
  7
KANJI22
  0
TEXT
  8
0
  6
CONTINUOUS
 62
     2
 10
859.25
 20
1168.1
 30
0.8
 40
12.0
  1
ＭＤ０３　－　　１Ｊ
 50
0.0
 41
0.833333333
 51
0.0
  7
KANJI23
  0
TEXT
  8
0
  6
CONTINUOUS
 62
     2
 10
859.25
 20
1140.1
 30
0.8
 40
12.0
  1
ＭＤ０３　－　　２Ｊ
 50
0.0
 41
0.833333333
 51
0.0
  7
KANJI23
  0
TEXT
  8
0
  6
CONTINUOUS
 62
     2
 10
859.25
 20
1112.1
 30
0.8
 40
12.0
  1
ＭＤ０３　－　　３Ｊ
 50
0.0
 41
0.833333333
 51
0.0
  7
KANJI23
  0
TEXT
  8
0
  6
CONTINUOUS
 62
     2
 10
859.25
 20
1084.1
 30
0.8
 40
12.0
  1
ＭＤ０３　－　　４Ｊ
 50
0.0
 41
0.833333333
 51
0.0
  7
KANJI23
  0
TEXT
  8
0
  6
CONTINUOUS
 62
     2
 10
859.25
 20
1056.1
 30
0.8
 40
12.0
  1
ＭＤ０３　－　　５Ｊ
 50
0.0
 41
0.833333333
 51
0.0
  7
KANJI23
  0
TEXT
  8
0
  6
CONTINUOUS
 62
     2
 10
859.25
 20
1028.1
 30
0.8
 40
12.0
  1
ＭＤ０３　－　　６Ｊ
 50
0.0
 41
0.833333333
 51
0.0
  7
KANJI23
  0
TEXT
  8
0
  6
CONTINUOUS
 62
     2
 10
859.25
 20
1000.1
 30
0.8
 40
12.0
  1
ＭＤ０３　－　　７Ｊ
 50
0.0
 41
0.833333333
 51
0.0
  7
KANJI23
  0
TEXT
  8
0
  6
CONTINUOUS
 62
     2
 10
147.983333
 20
8.633317
 30
0.0
 40
15.0
  1
ＦＤ　Ｎｏ．ＭＣ１８５
 50
0.0
 41
0.9
 51
0.0
  7
KANJI24
  0
TEXT
  8
0
  6
CONTINUOUS
 62
     2
 10
1552.75
 20
184.75
 30
0.0
 40
17.5
  1
ＭＤ０３－Ｊ
 50
0.0
 41
0.793650794
 51
0.0
  7
KANJI25
  0
TEXT
  8
0
  6
CONTINUOUS
 62
     2
 10
1648.4166945
 20
104.749995
 30
10.833333333
 40
25.0
  1
３００２４００
 50
0.0
 41
0.8
 51
0.0
  7
KANJI26
  0
LINE
  8
0
  6
CONTINUOUS
 62
     1
 10
1270.625
 20
1370.75
 30
0.0
 11
1270.625
 21
1270.65
 31
0.0
  0
LINE
  8
0
  6
CONTINUOUS
 62
     2
 10
1212.875
 20
1370.75
 30
0.0
 11
1212.875
 21
1270.65
 31
0.0
  0
LINE
  8
0
  6
CONTINUOUS
 62
     2
 10
1155.125
 20
1370.75
 30
0.0
 11
1155.125
 21
1270.65
 31
0.0
  0
LINE
  8
0
  6
CONTINUOUS
 62
     1
 10
1078.125
 20
1370.75
 30
0.0
 11
1078.125
 21
1270.65
 31
0.0
  0
LINE
  8
0
  6
CONTINUOUS
 62
     1
 10
1078.125
 20
1370.75
 30
0.0
 11
1270.625
 21
1370.75
 31
0.0
  0
LINE
  8
0
  6
CONTINUOUS
 62
     1
 10
1078.125
 20
1339.95
 30
0.0
 11
1270.625
 21
1339.95
 31
0.0
  0
LINE
  8
0
  6
CONTINUOUS
 62
     2
 10
1078.125
 20
1316.85
 30
0.0
 11
1270.625
 21
1316.85
 31
0.0
  0
LINE
  8
0
  6
CONTINUOUS
 62
     2
 10
1078.125
 20
1293.75
 30
0.0
 11
1270.625
 21
1293.75
 31
0.0
  0
LINE
  8
0
  6
CONTINUOUS
 62
     1
 10
1078.125
 20
1270.65
 30
0.0
 11
1270.625
 21
1270.65
 31
0.0
  0
TEXT
  8
0
  6
CONTINUOUS
 62
     2
 10
1220.575
 20
1357.275
 30
1.155
 40
11.55
  1
起動電流
 50
0.0
 41
0.9
 51
0.0
  7
KANJI27
  0
TEXT
  8
0
  6
CONTINUOUS
 62
     2
 10
1220.575
 20
1343.8
 30
1.155
 40
11.55
  1
　　　Ａ
 50
0.0
 41
0.9
 51
0.0
  7
KANJI27
  0
TEXT
  8
0
  6
CONTINUOUS
 62
     2
 10
1162.825
 20
1357.275
 30
1.155
 40
11.55
  1
定格電流
 50
0.0
 41
0.9
 51
0.0
  7
KANJI27
  0
TEXT
  8
0
  6
CONTINUOUS
 62
     2
 10
1162.825
 20
1343.8
 30
1.155
 40
11.55
  1
　　　Ａ
 50
0.0
 41
0.9
 51
0.0
  7
KANJI27
  0
TEXT
  8
0
  6
CONTINUOUS
 62
     2
 10
1084.67
 20
1299.525
 30
1.155
 40
11.55
  1
２００／６０
 50
0.0
 41
0.9
 51
0.0
  7
KANJI27
  0
TEXT
  8
0
  6
CONTINUOUS
 62
     2
 10
1084.67
 20
1357.275
 30
1.155
 40
11.55
  1
電圧／周波数
 50
0.0
 41
0.9
 51
0.0
  7
KANJI27
  0
TEXT
  8
0
  6
CONTINUOUS
 62
     2
 10
1084.67
 20
1343.8
 30
1.155
 40
11.55
  1
　Ｖ／Ｈｚ
 50
0.0
 41
0.9
 51
0.0
  7
KANJI27
  0
TEXT
  8
0
  6
CONTINUOUS
 62
     2
 10
1084.67
 20
1322.625
 30
1.155
 40
11.55
  1
２００／５０
 50
0.0
 41
0.9
 51
0.0
  7
KANJI27
  0
TEXT
  8
0
  6
CONTINUOUS
 62
     2
 10
1084.67
 20
1276.425
 30
1.155
 40
11.55
  1
２２０／６０
 50
0.0
 41
0.9
 51
0.0
  7
KANJI27
  0
LINE
  8
0
  6
CONTINUOUS
 62
     1
 10
1039.625
 20
1370.75
 30
0.0
 11
1039.625
 21
1270.65
 31
0.0
  0
LINE
  8
0
  6
CONTINUOUS
 62
     2
 10
981.875
 20
1370.75
 30
0.0
 11
981.875
 21
1270.65
 31
0.0
  0
LINE
  8
0
  6
CONTINUOUS
 62
     2
 10
924.125
 20
1370.75
 30
0.0
 11
924.125
 21
1270.65
 31
0.0
  0
LINE
  8
0
  6
CONTINUOUS
 62
     1
 10
847.125
 20
1370.75
 30
0.0
 11
847.125
 21
1270.65
 31
0.0
  0
LINE
  8
0
  6
CONTINUOUS
 62
     1
 10
847.125
 20
1370.75
 30
0.0
 11
1039.625
 21
1370.75
 31
0.0
  0
LINE
  8
0
  6
CONTINUOUS
 62
     1
 10
847.125
 20
1339.95
 30
0.0
 11
1039.625
 21
1339.95
 31
0.0
  0
LINE
  8
0
  6
CONTINUOUS
 62
     2
 10
847.125
 20
1316.85
 30
0.0
 11
1039.625
 21
1316.85
 31
0.0
  0
LINE
  8
0
  6
CONTINUOUS
 62
     2
 10
847.125
 20
1293.75
 30
0.0
 11
1039.625
 21
1293.75
 31
0.0
  0
LINE
  8
0
  6
CONTINUOUS
 62
     1
 10
847.125
 20
1270.65
 30
0.0
 11
1039.625
 21
1270.65
 31
0.0
  0
TEXT
  8
0
  6
CONTINUOUS
 62
     2
 10
989.575
 20
1357.275
 30
1.155
 40
11.55
  1
起動電流
 50
0.0
 41
0.9
 51
0.0
  7
KANJI27
  0
TEXT
  8
0
  6
CONTINUOUS
 62
     2
 10
989.575
 20
1343.8
 30
1.155
 40
11.55
  1
　　　Ａ
 50
0.0
 41
0.9
 51
0.0
  7
KANJI27
  0
TEXT
  8
0
  6
CONTINUOUS
 62
     2
 10
931.825
 20
1357.275
 30
1.155
 40
11.55
  1
定格電流
 50
0.0
 41
0.9
 51
0.0
  7
KANJI27
  0
TEXT
  8
0
  6
CONTINUOUS
 62
     2
 10
931.825
 20
1343.8
 30
1.155
 40
11.55
  1
　　　Ａ
 50
0.0
 41
0.9
 51
0.0
  7
KANJI27
  0
TEXT
  8
0
  6
CONTINUOUS
 62
     2
 10
853.67
 20
1357.275
 30
1.155
 40
11.55
  1
電圧／周波数
 50
0.0
 41
0.9
 51
0.0
  7
KANJI27
  0
TEXT
  8
0
  6
CONTINUOUS
 62
     2
 10
853.67
 20
1343.8
 30
1.155
 40
11.55
  1
　Ｖ／Ｈｚ
 50
0.0
 41
0.9
 51
0.0
  7
KANJI27
  0
TEXT
  8
0
  6
CONTINUOUS
 62
     2
 10
853.67
 20
1322.625
 30
1.155
 40
11.55
  1
４００／５０
 50
0.0
 41
0.9
 51
0.0
  7
KANJI27
  0
TEXT
  8
0
  6
CONTINUOUS
 62
     2
 10
853.67
 20
1299.525
 30
1.155
 40
11.55
  1
４００／６０
 50
0.0
 41
0.9
 51
0.0
  7
KANJI27
  0
TEXT
  8
0
  6
CONTINUOUS
 62
     2
 10
853.67
 20
1276.425
 30
1.155
 40
11.55
  1
４４０／６０
 50
0.0
 41
0.9
 51
0.0
  7
KANJI27
  0
TEXT
  8
0
  6
CONTINUOUS
 62
     2
 10
931.825
 20
1322.625
 30
1.155
 40
11.55
  1
　２．０
 50
0.0
 41
0.9
 51
0.0
  7
KANJI27
  0
TEXT
  8
0
  6
CONTINUOUS
 62
     2
 10
931.825
 20
1299.525
 30
1.155
 40
11.55
  1
　１．４
 50
0.0
 41
0.9
 51
0.0
  7
KANJI27
  0
TEXT
  8
0
  6
CONTINUOUS
 62
     2
 10
931.825
 20
1276.425
 30
1.155
 40
11.55
  1
　１．７
 50
0.0
 41
0.9
 51
0.0
  7
KANJI27
  0
TEXT
  8
0
  6
CONTINUOUS
 62
     2
 10
1162.825
 20
1322.625
 30
1.155
 40
11.55
  1
　４．０
 50
0.0
 41
0.9
 51
0.0
  7
KANJI27
  0
TEXT
  8
0
  6
CONTINUOUS
 62
     2
 10
1162.825
 20
1299.525
 30
1.155
 40
11.55
  1
　２．８
 50
0.0
 41
0.9
 51
0.0
  7
KANJI27
  0
TEXT
  8
0
  6
CONTINUOUS
 62
     2
 10
1162.825
 20
1276.425
 30
1.155
 40
11.55
  1
　３．３
 50
0.0
 41
0.9
 51
0.0
  7
KANJI27
  0
TEXT
  8
0
  6
CONTINUOUS
 62
     2
 10
1220.575
 20
1322.625
 30
1.155
 40
11.55
  1
　９．２
 50
0.0
 41
0.9
 51
0.0
  7
KANJI27
  0
TEXT
  8
0
  6
CONTINUOUS
 62
     2
 10
1220.575
 20
1299.525
 30
1.155
 40
11.55
  1
　８
 50
0.0
 41
0.9
 51
0.0
  7
KANJI27
  0
TEXT
  8
0
  6
CONTINUOUS
 62
     2
 10
1220.575
 20
1276.425
 30
1.155
 40
11.55
  1
　８．８
 50
0.0
 41
0.9
 51
0.0
  7
KANJI27
  0
TEXT
  8
0
  6
CONTINUOUS
 62
     2
 10
989.575
 20
1322.625
 30
1.155
 40
11.55
  1
　４．６
 50
0.0
 41
0.9
 51
0.0
  7
KANJI27
  0
TEXT
  8
0
  6
CONTINUOUS
 62
     2
 10
989.575
 20
1299.525
 30
1.155
 40
11.55
  1
　４
 50
0.0
 41
0.9
 51
0.0
  7
KANJI27
  0
TEXT
  8
0
  6
CONTINUOUS
 62
     2
 10
989.575
 20
1276.425
 30
1.155
 40
11.55
  1
　４．４
 50
0.0
 41
0.9
 51
0.0
  7
KANJI27
  0
LINE
  8
0
  6
CONTINUOUS
 62
     2
 10
846.25
 20
1161.7
 30
0.0
 11
1494.25
 21
1161.7
 31
0.0
  0
LINE
  8
0
  6
CONTINUOUS
 62
     2
 10
846.25
 20
1133.7
 30
0.0
 11
1494.25
 21
1133.7
 31
0.0
  0
LINE
  8
0
  6
CONTINUOUS
 62
     2
 10
846.25
 20
1105.7
 30
0.0
 11
1494.25
 21
1105.7
 31
0.0
  0
LINE
  8
0
  6
CONTINUOUS
 62
     2
 10
846.25
 20
1049.7
 30
0.0
 11
1494.25
 21
1049.7
 31
0.0
  0
LINE
  8
0
  6
CONTINUOUS
 62
     2
 10
846.25
 20
1077.7
 30
0.0
 11
1494.25
 21
1077.7
 31
0.0
  0
LINE
  8
0
  6
CONTINUOUS
 62
     2
 10
846.25
 20
993.7
 30
0.0
 11
1494.25
 21
993.7
 31
0.0
  0
LINE
  8
0
  6
CONTINUOUS
 62
     2
 10
846.25
 20
1021.7
 30
0.0
 11
1494.25
 21
1021.7
 31
0.0
  0
TEXT
  8
0
  6
CONTINUOUS
 62
     2
 10
1432.25
 20
1168.4
 30
1.2
 40
12.0
  1
　　３２
 50
0.0
 41
0.9
 51
0.0
  7
KANJI1
  0
TEXT
  8
0
  6
CONTINUOUS
 62
     2
 10
1432.25
 20
1140.4
 30
1.2
 40
12.0
  1
　　３３
 50
0.0
 41
0.9
 51
0.0
  7
KANJI1
  0
TEXT
  8
0
  6
CONTINUOUS
 62
     2
 10
1432.25
 20
1112.4
 30
1.2
 40
12.0
  1
　　３４
 50
0.0
 41
0.9
 51
0.0
  7
KANJI1
  0
LINE
  8
0
  6
CONTINUOUS
 62
     6
 10
343.959425053
 20
1325.497759827
 30
0.0
 11
111.914646507
 21
1325.497759827
 31
0.0
  0
LINE
  8
0
  6
CONTINUOUS
 62
     3
 10
343.959425053
 20
1298.035259827
 30
0.0
 11
111.914646507
 21
1298.035259827
 31
0.0
  0
LINE
  8
0
  6
CONTINUOUS
 62
     6
 10
343.959425053
 20
1298.035259827
 30
0.0
 11
111.914646507
 21
1298.035259827
 31
0.0
  0
TEXT
  8
0
  6
CONTINUOUS
 62
     6
 10
369.542228
 20
1322.950410728
 30
1.232517
 40
13.182
  1
電気定格　　　
 50
0.0
 41
0.85
 51
0.0
  7
KANJI28
  0
TEXT
  8
0
  6
CONTINUOUS
 62
     6
 10
115.823517202
 20
1328.69592676
 30
1.0647
 40
11.661
  1
ＬＳ０１　　　：推力リミッタ（前進時過負荷用）
 50
0.0
 41
0.822608696
 51
0.0
  7
KANJI29
  0
TEXT
  8
0
  6
CONTINUOUS
 62
     6
 10
115.823517202
 20
1301.23342676
 30
1.0647
 40
11.661
  1
ＬＳ０２　　　：推力リミッタ（後進時過負荷用）
 50
0.0
 41
0.822608696
 51
0.0
  7
KANJI29
  0
TEXT
  8
0
  6
CONTINUOUS
 62
     6
 10
382.343715102
 20
1292.376958599
 30
0.0
 40
11.8638
  1
ＤＣ１２５Ｖ　０．６Ａ　，ＤＣ２５０Ｖ　０．３Ａ　
 50
0.0
 41
0.726495726
 51
0.0
  7
KANJI30
  0
LINE
  8
0
  6
LTYPE2
 62
     6
 10
642.35
 20
1352.95
 30
0.0
 11
93.95
 21
1352.95
 31
0.0
  0
TEXT
  8
0
  6
CONTINUOUS
 62
     6
 10
377.087132178
 20
1340.711726126
 30
0.0
 40
45.0
  1
｝
 50
0.0
 41
0.538166667
 51
0.0
  7
KANJI31
  0
TEXT
  8
0
  6
CONTINUOUS
 62
     6
 10
306.962791539
 20
1111.97382165
 30
0.0
 40
17.740702234
  1
端子台　接続図
 50
0.0
 41
0.880962996
 51
0.0
  7
KANJI32
  0
LINE
  8
0
  6
LTYPE2
 62
     6
 10
642.35
 20
1093.95
 30
0.0
 11
642.35
 21
1352.95
 31
0.0
  0
LINE
  8
0
  6
LTYPE2
 62
     6
 10
93.95
 20
1093.95
 30
0.0
 11
642.35
 21
1093.95
 31
0.0
  0
LINE
  8
0
  6
LTYPE2
 62
     6
 10
93.95
 20
1352.95
 30
0.0
 11
93.95
 21
1093.95
 31
0.0
  0
LINE
  8
0
  6
CONTINUOUS
 62
     2
 10
341.927373465
 20
1162.978121884
 30
0.0
 11
341.927373465
 21
1140.199155128
 31
0.0
  0
LINE
  8
0
  6
CONTINUOUS
 62
     2
 10
368.50283468
 20
1162.978121884
 30
0.0
 11
368.50283468
 21
1140.199155128
 31
0.0
  0
LINE
  8
0
  6
CONTINUOUS
 62
     2
 10
395.078295894
 20
1162.978121884
 30
0.0
 11
395.078295894
 21
1140.199155128
 31
0.0
  0
LINE
  8
0
  6
CONTINUOUS
 62
     2
 10
421.653757109
 20
1162.978121884
 30
0.0
 11
421.653757109
 21
1140.199155128
 31
0.0
  0
CIRCLE
  8
0
  6
CONTINUOUS
 62
     6
 10
413.734269667
 20
1186.457921517
 30
0.0
 40
4.100214016
  0
LINE
  8
0
  6
CONTINUOUS
 62
     6
 10
409.634055651
 20
1186.457921517
 30
0.0
 11
408.366026502
 21
1186.457921517
 31
0.0
  0
LINE
  8
0
  6
CONTINUOUS
 62
     6
 10
434.688027433
 20
1200.144562742
 30
0.0
 11
430.773558096
 21
1177.809507138
 31
0.0
  0
LINE
  8
0
  6
CONTINUOUS
 62
     6
 10
429.961699663
 20
1200.932284037
 30
0.0
 11
426.046922494
 21
1178.597279739
 31
0.0
  0
LINE
  8
0
  6
CONTINUOUS
 62
     6
 10
430.773558096
 20
1177.809507138
 30
0.0
 11
426.046922494
 21
1178.597279739
 31
0.0
  0
CIRCLE
  8
0
  6
CONTINUOUS
 62
     6
 10
434.941487717
 20
1176.989464335
 30
0.0
 40
4.100214016
  0
LINE
  8
0
  6
CONTINUOUS
 62
     6
 10
434.941487717
 20
1172.889250319
 30
0.0
 11
434.941487717
 21
1162.978121884
 31
0.0
  0
LINE
  8
0
  6
CONTINUOUS
 62
     6
 10
408.366026502
 20
1186.457921517
 30
0.0
 11
408.366026502
 21
1162.978121884
 31
0.0
  0
LINE
  8
0
  6
CONTINUOUS
 62
     6
 10
381.790565287
 20
1162.978121884
 30
0.0
 11
381.790565287
 21
1216.683332504
 31
0.0
  0
LINE
  8
0
  6
CONTINUOUS
 62
     6
 10
302.317641926
 20
1200.144562742
 30
0.0
 11
306.232111263
 21
1177.809507138
 31
0.0
  0
LINE
  8
0
  6
CONTINUOUS
 62
     6
 10
307.043969696
 20
1200.932284037
 30
0.0
 11
310.958746865
 21
1178.597279739
 31
0.0
  0
LINE
  8
0
  6
CONTINUOUS
 62
     6
 10
306.232111263
 20
1177.809507138
 30
0.0
 11
310.958746865
 21
1178.597279739
 31
0.0
  0
CIRCLE
  8
0
  6
CONTINUOUS
 62
     6
 10
302.064181642
 20
1176.989464335
 30
0.0
 40
4.100214016
  0
CIRCLE
  8
0
  6
CONTINUOUS
 62
     6
 10
323.271399692
 20
1186.457921517
 30
0.0
 40
4.100214016
  0
LINE
  8
0
  6
CONTINUOUS
 62
     6
 10
327.371613708
 20
1186.457921517
 30
0.0
 11
328.639642857
 21
1186.457921517
 31
0.0
  0
LINE
  8
0
  6
CONTINUOUS
 62
     6
 10
302.064181642
 20
1172.889250319
 30
0.0
 11
302.064181642
 21
1162.978121884
 31
0.0
  0
LINE
  8
0
  6
CONTINUOUS
 62
     6
 10
328.639642857
 20
1186.457921517
 30
0.0
 11
328.639642857
 21
1162.978121884
 31
0.0
  0
LINE
  8
0
  6
CONTINUOUS
 62
     6
 10
355.215104072
 20
1162.978121884
 30
0.0
 11
355.215104072
 21
1216.683332504
 31
0.0
  0
LINE
  8
0
  6
CONTINUOUS
 62
     2
 10
448.229218324
 20
1162.978121884
 30
0.0
 11
448.229218324
 21
1140.199155128
 31
0.0
  0
LINE
  8
0
  6
CONTINUOUS
 62
     2
 10
288.776451035
 20
1162.978121884
 30
0.0
 11
288.776451035
 21
1140.199155128
 31
0.0
  0
LINE
  8
0
  6
CONTINUOUS
 62
     2
 10
315.35191225
 20
1162.978121884
 30
0.0
 11
315.35191225
 21
1140.199155128
 31
0.0
  0
LINE
  8
0
  6
CONTINUOUS
 62
     6
 10
434.941487717
 20
1216.683332504
 30
0.0
 11
381.790565287
 21
1216.683332504
 31
0.0
  0
CIRCLE
  8
0
  6
CONTINUOUS
 62
     6
 10
434.941487717
 20
1204.33941042
 30
0.0
 40
4.100214016
  0
LINE
  8
0
  6
CONTINUOUS
 62
     6
 10
434.688027433
 20
1200.144562742
 30
0.0
 11
429.961699663
 21
1200.932284037
 31
0.0
  0
LINE
  8
0
  6
CONTINUOUS
 62
     6
 10
434.941487717
 20
1208.439624436
 30
0.0
 11
434.941487717
 21
1216.683332504
 31
0.0
  0
CIRCLE
  8
0
  6
CONTINUOUS
 62
     6
 10
302.064181642
 20
1204.33941042
 30
0.0
 40
4.100214016
  0
LINE
  8
0
  6
CONTINUOUS
 62
     6
 10
302.317641926
 20
1200.144562742
 30
0.0
 11
307.043969696
 21
1200.932284037
 31
0.0
  0
LINE
  8
0
  6
CONTINUOUS
 62
     6
 10
302.064181642
 20
1208.439624436
 30
0.0
 11
302.064181642
 21
1216.683332504
 31
0.0
  0
LINE
  8
0
  6
CONTINUOUS
 62
     6
 10
355.215104072
 20
1216.683332504
 30
0.0
 11
302.064181642
 21
1216.683332504
 31
0.0
  0
TEXT
  8
0
  6
CONTINUOUS
 62
     6
 10
306.8272152
 20
1221.202473273
 30
0.819
 40
11.7
  1
ＬＳ０１
 50
0.0
 41
0.8
 51
0.0
  7
KANJI33
  0
TEXT
  8
0
  6
CONTINUOUS
 62
     6
 10
389.447398844
 20
1221.202473273
 30
0.819
 40
11.7
  1
ＬＳ０２
 50
0.0
 41
0.8
 51
0.0
  7
KANJI33
  0
TEXT
  8
0
  6
CONTINUOUS
 62
     3
 10
134.638775989
 20
1143.995649587
 30
0.0
 40
15.0
  1
　　　　　　　　　　　　　　　　　　１　　２　　　３　　　４　　　５　　　６
 50
0.0
 41
0.911
 51
0.0
  7
KANJI34
  0
LINE
  8
0
  6
CONTINUOUS
 62
     2
 10
288.776451035
 20
1162.978121884
 30
0.0
 11
448.229218324
 21
1162.978121884
 31
0.0
  0
LINE
  8
0
  6
CONTINUOUS
 62
     2
 10
288.776451035
 20
1140.199155128
 30
0.0
 11
448.229218324
 21
1140.199155128
 31
0.0
  0
TEXT
  8
0
  6
CONTINUOUS
 62
     6
 10
280.462791539
 20
1250.97382165
 30
0.0
 40
17.740702234
  1
推力リミッタ端子台配列
 50
0.0
 41
0.880962996
 51
0.0
  7
KANJI32
  0
LINE
  8
0
  6
CONTINUOUS
 62
     1
 10
322.983333
 20
680.633317
 30
0.0
 11
359.983333
 21
680.633317
 31
0.0
  0
LINE
  8
0
  6
CONTINUOUS
 62
     1
 10
322.983333
 20
661.633317
 30
0.0
 11
322.983333
 21
680.633317
 31
0.0
  0
ARC
  8
0
  6
CONTINUOUS
 62
     1
 10
316.983333
 20
661.633317
 30
0.0
 40
6.0
 50
270.0
 51
360.0
  0
ARC
  8
0
  6
CONTINUOUS
 62
     1
 10
344.983333
 20
658.633317
 30
0.0
 40
3.0
 50
270.0
 51
360.0
  0
ARC
  8
0
  6
CONTINUOUS
 62
     1
 10
344.983333
 20
605.633317
 30
0.0
 40
3.0
 50
270.0
 51
0.0
  0
LINE
  8
0
  6
CONTINUOUS
 62
     1
 10
347.983333
 20
659.585697952
 30
0.0
 11
351.983333
 21
680.633317
 31
0.0
  0
LINE
  8
0
  6
CONTINUOUS
 62
     1
 10
347.983333
 20
605.633317
 30
0.0
 11
347.983333
 21
659.585697952
 31
0.0
  0
CIRCLE
  8
0
  6
CONTINUOUS
 62
     1
 10
429.983333
 20
510.633317
 30
0.0
 40
20.0
  0
CIRCLE
  8
0
  6
CONTINUOUS
 62
     1
 10
429.983333
 20
510.633317
 30
0.0
 40
8.0
  0
ARC
  8
0
  6
CONTINUOUS
 62
     1
 10
365.983333
 20
459.633317
 30
0.0
 40
2.0
 50
270.0
 51
0.0
  0
LINE
  8
0
  6
CONTINUOUS
 62
     1
 10
370.983333
 20
547.633317
 30
0.0
 11
527.983333
 21
547.633317
 31
0.0
  0
LINE
  8
0
  6
CONTINUOUS
 62
     1
 10
370.983333
 20
473.633317
 30
0.0
 11
453.983333
 21
473.633317
 31
0.0
  0
ARC
  8
0
  6
CONTINUOUS
 62
     1
 10
370.983333
 20
470.633317
 30
0.0
 40
3.0
 50
87.047798252
 51
176.185925166
  0
ARC
  8
0
  6
CONTINUOUS
 62
     1
 10
370.783333
 20
550.633317
 30
0.0
 40
3.0
 50
177.893372153
 51
273.822553727
  0
LINE
  8
0
  6
CONTINUOUS
 62
     1
 10
535.983333
 20
550.633317
 30
0.0
 11
535.983333
 21
470.633317
 31
0.0
  0
LINE
  8
0
  6
CONTINUOUS
 62
     1
 10
527.983333
 20
550.633317
 30
0.0
 11
535.983333
 21
550.633317
 31
0.0
  0
LINE
  8
0
  6
CONTINUOUS
 62
     1
 10
527.983333
 20
470.633317
 30
0.0
 11
535.983333
 21
470.633317
 31
0.0
  0
LINE
  8
0
  6
CONTINUOUS
 62
     1
 10
527.983333
 20
512.133317
 30
0.0
 11
535.983333
 21
512.133317
 31
0.0
  0
LINE
  8
0
  6
CONTINUOUS
 62
     1
 10
527.983333
 20
509.133317
 30
0.0
 11
535.983333
 21
509.133317
 31
0.0
  0
LINE
  8
0
  6
CONTINUOUS
 62
     1
 10
453.983333
 20
487.633317
 30
0.0
 11
527.983333
 21
487.633317
 31
0.0
  0
LINE
  8
0
  6
CONTINUOUS
 62
     1
 10
359.983333
 20
457.633317
 30
0.0
 11
365.983333
 21
457.633317
 31
0.0
  0
LINE
  8
0
  6
CONTINUOUS
 62
     1
 10
359.983333
 20
612.433317
 30
0.0
 11
359.983333
 21
620.633317
 31
0.0
  0
LINE
  8
0
  6
CONTINUOUS
 62
     1
 10
359.983333
 20
612.433317
 30
0.0
 11
359.983333
 21
620.633317
 31
0.0
  0
LINE
  8
0
  6
LTYPE3
 62
     2
 10
354.383333
 20
620.633317
 30
0.0
 11
366.383333
 21
620.633317
 31
0.0
  0
LINE
  8
0
  6
LTYPE3
 62
     2
 10
354.383333
 20
620.633317
 30
0.0
 11
366.383333
 21
620.633317
 31
0.0
  0
LINE
  8
0
  6
CONTINUOUS
 62
     1
 10
299.983333
 20
655.633317
 30
0.0
 11
344.983333
 21
655.633317
 31
0.0
  0
CIRCLE
  8
0
  6
CONTINUOUS
 62
     1
 10
429.983333
 20
510.633317
 30
0.0
 40
26.0
  0
LINE
  8
0
  6
CONTINUOUS
 62
     1
 10
453.983333
 20
498.133317
 30
0.0
 11
453.983333
 21
465.633317
 31
0.0
  0
LINE
  8
0
  6
CONTINUOUS
 62
     1
 10
527.983333
 20
550.633317
 30
0.0
 11
527.983333
 21
465.633317
 31
0.0
  0
LINE
  8
0
  6
LTYPE3
 62
     2
 10
490.983333
 20
478.633317
 30
0.0
 11
490.983333
 21
454.633317
 31
0.0
  0
LINE
  8
0
  6
LTYPE3
 62
     2
 10
429.983333
 20
542.633317
 30
0.0
 11
429.983333
 21
478.633317
 31
0.0
  0
LINE
  8
0
  6
LTYPE3
 62
     2
 10
335.983333
 20
670.758317
 30
0.0
 11
335.983333
 21
724.933317
 31
0.0
  0
LINE
  8
0
  6
CONTINUOUS
 62
     1
 10
373.983333
 20
620.633317
 30
0.0
 11
373.983333
 21
677.633317
 31
0.0
  0
ARC
  8
0
  6
CONTINUOUS
 62
     1
 10
369.483333
 20
679.133317
 30
0.0
 40
1.5
 50
180.0
 51
270.0
  0
LINE
  8
0
  6
CONTINUOUS
 62
     1
 10
367.983333
 20
679.133317
 30
0.0
 11
367.983333
 21
680.133317
 31
0.0
  0
ARC
  8
0
  6
CONTINUOUS
 62
     1
 10
366.483333
 20
680.133317
 30
0.0
 40
1.5
 50
0.0
 51
90.0
  0
LINE
  8
0
  6
CONTINUOUS
 62
     1
 10
522.983333
 20
620.633317
 30
0.0
 11
522.983333
 21
677.633317
 31
0.0
  0
ARC
  8
0
  6
CONTINUOUS
 62
     1
 10
526.483333
 20
676.133317
 30
0.0
 40
1.5
 50
0.0
 51
90.0
  0
LINE
  8
0
  6
CONTINUOUS
 62
     1
 10
367.983333
 20
620.633317
 30
0.0
 11
367.983333
 21
679.733317
 31
0.0
  0
LINE
  8
0
  6
CONTINUOUS
 62
     1
 10
543.983333
 20
620.633317
 30
0.0
 11
543.983333
 21
656.062792845
 31
0.0
  0
ARC
  8
0
  6
CONTINUOUS
 62
     1
 10
542.483333
 20
656.062792845
 30
0.0
 40
1.5
 50
0.0
 51
71.029592192
  0
ARC
  8
0
  6
CONTINUOUS
 62
     1
 10
555.983333
 20
637.133317
 30
0.0
 40
1.0
 50
0.0
 51
90.0
  0
LINE
  8
0
  6
CONTINUOUS
 62
     1
 10
555.983333
 20
638.133317
 30
0.0
 11
543.983333
 21
638.133317
 31
0.0
  0
LINE
  8
0
  6
CONTINUOUS
 62
     1
 10
373.983333
 20
620.633317
 30
0.0
 11
373.983333
 21
563.633317
 31
0.0
  0
ARC
  8
0
  6
CONTINUOUS
 62
     1
 10
369.483333
 20
562.133317
 30
0.0
 40
1.5
 50
90.0
 51
180.0
  0
LINE
  8
0
  6
CONTINUOUS
 62
     1
 10
367.983333
 20
562.133317
 30
0.0
 11
367.983333
 21
561.133317
 31
0.0
  0
ARC
  8
0
  6
CONTINUOUS
 62
     1
 10
366.483333
 20
561.133317
 30
0.0
 40
1.5
 50
270.0
 51
0.0
  0
LINE
  8
0
  6
CONTINUOUS
 62
     1
 10
522.983333
 20
620.633317
 30
0.0
 11
522.983333
 21
563.633317
 31
0.0
  0
LINE
  8
0
  6
CONTINUOUS
 62
     1
 10
526.483333
 20
563.633317
 30
0.0
 11
369.483333
 21
563.633317
 31
0.0
  0
ARC
  8
0
  6
CONTINUOUS
 62
     1
 10
526.483333
 20
565.133317
 30
0.0
 40
1.5
 50
270.0
 51
0.0
  0
LINE
  8
0
  6
CONTINUOUS
 62
     1
 10
367.983333
 20
620.633317
 30
0.0
 11
367.983333
 21
561.533317
 31
0.0
  0
LINE
  8
0
  6
CONTINUOUS
 62
     1
 10
543.983333
 20
620.633317
 30
0.0
 11
543.983333
 21
585.203841155
 31
0.0
  0
ARC
  8
0
  6
CONTINUOUS
 62
     1
 10
542.483333
 20
585.203841155
 30
0.0
 40
1.5
 50
288.970407808
 51
0.0
  0
ARC
  8
0
  6
CONTINUOUS
 62
     1
 10
555.983333
 20
604.133317
 30
0.0
 40
1.0
 50
270.0
 51
0.0
  0
LINE
  8
0
  6
CONTINUOUS
 62
     1
 10
555.983333
 20
603.133317
 30
0.0
 11
543.983333
 21
603.133317
 31
0.0
  0
LINE
  8
0
  6
LTYPE2
 62
     2
 10
535.983333
 20
656.695762841
 30
0.0
 11
524.983333
 21
656.695762841
 31
0.0
  0
LINE
  8
0
  6
LTYPE2
 62
     2
 10
535.983333
 20
584.570871159
 30
0.0
 11
524.983333
 21
584.570871159
 31
0.0
  0
LINE
  8
0
  6
CONTINUOUS
 62
     1
 10
472.983333
 20
698.633317
 30
0.0
 11
472.983333
 21
732.633317
 31
0.0
  0
LINE
  8
0
  6
CONTINUOUS
 62
     1
 10
472.983333
 20
698.633317
 30
0.0
 11
446.983333
 21
698.633317
 31
0.0
  0
LINE
  8
0
  6
CONTINUOUS
 62
     1
 10
472.983333
 20
732.633317
 30
0.0
 11
446.983333
 21
732.633317
 31
0.0
  0
LINE
  8
0
  6
CONTINUOUS
 62
     1
 10
376.983333
 20
690.633317
 30
0.0
 11
376.983333
 21
693.633317
 31
0.0
  0
ARC
  8
0
  6
CONTINUOUS
 62
     1
 10
380.983333
 20
687.633317
 30
0.0
 40
3.0
 50
0.0
 51
90.0
  0
LINE
  8
0
  6
CONTINUOUS
 62
     1
 10
383.983333
 20
680.633317
 30
0.0
 11
383.983333
 21
687.633317
 31
0.0
  0
ARC
  8
0
  6
CONTINUOUS
 62
     1
 10
386.983333
 20
680.633317
 30
0.0
 40
3.0
 50
180.0
 51
270.0
  0
LINE
  8
0
  6
CONTINUOUS
 62
     1
 10
526.483333
 20
677.633317
 30
0.0
 11
369.483333
 21
677.633317
 31
0.0
  0
LINE
  8
0
  6
CONTINUOUS
 62
     1
 10
436.983333
 20
690.633317
 30
0.0
 11
436.983333
 21
693.633317
 31
0.0
  0
ARC
  8
0
  6
CONTINUOUS
 62
     1
 10
432.983333
 20
687.633317
 30
0.0
 40
3.0
 50
90.0
 51
180.0
  0
LINE
  8
0
  6
CONTINUOUS
 62
     1
 10
429.983333
 20
680.633317
 30
0.0
 11
429.983333
 21
687.633317
 31
0.0
  0
ARC
  8
0
  6
CONTINUOUS
 62
     1
 10
426.983333
 20
680.633317
 30
0.0
 40
3.0
 50
270.0
 51
0.0
  0
LINE
  8
0
  6
CONTINUOUS
 62
     1
 10
436.983333
 20
690.633317
 30
0.0
 11
376.983333
 21
690.633317
 31
0.0
  0
LINE
  8
0
  6
CONTINUOUS
 62
     1
 10
361.895420912
 20
695.633317
 30
0.0
 11
453.983333
 21
739.653362888
 31
0.0
  0
LINE
  8
0
  6
CONTINUOUS
 62
     1
 10
359.983333
 20
699.633317
 30
0.0
 11
361.895420912
 21
695.633317
 31
0.0
  0
LINE
  8
0
  6
CONTINUOUS
 62
     1
 10
359.983333
 20
699.633317
 30
0.0
 11
452.071245088
 21
743.653362888
 31
0.0
  0
LINE
  8
0
  6
CONTINUOUS
 62
     1
 10
452.071245088
 20
743.653362888
 30
0.0
 11
453.983333
 21
739.653362888
 31
0.0
  0
LINE
  8
0
  6
CONTINUOUS
 62
     1
 10
366.983333
 20
702.979470846
 30
0.0
 11
366.983333
 21
742.633317
 31
0.0
  0
ARC
  8
0
  6
CONTINUOUS
 62
     1
 10
369.983333
 20
742.633317
 30
0.0
 40
3.0
 50
90.0
 51
180.0
  0
LINE
  8
0
  6
CONTINUOUS
 62
     1
 10
366.983333
 20
696.633317
 30
0.0
 11
366.983333
 21
698.0654508
 31
0.0
  0
ARC
  8
0
  6
CONTINUOUS
 62
     1
 10
369.983333
 20
696.633317
 30
0.0
 40
3.0
 50
180.0
 51
270.0
  0
LINE
  8
0
  6
CONTINUOUS
 62
     1
 10
446.983333
 20
696.633317
 30
0.0
 11
446.983333
 21
736.307209042
 31
0.0
  0
LINE
  8
0
  6
CONTINUOUS
 62
     1
 10
443.983333
 20
693.633317
 30
0.0
 11
369.983333
 21
693.633317
 31
0.0
  0
ARC
  8
0
  6
CONTINUOUS
 62
     1
 10
443.983333
 20
696.633317
 30
0.0
 40
3.0
 50
270.0
 51
0.0
  0
LINE
  8
0
  6
CONTINUOUS
 62
     1
 10
446.983333
 20
741.221229088
 30
0.0
 11
446.983333
 21
742.633317
 31
0.0
  0
LINE
  8
0
  6
CONTINUOUS
 62
     1
 10
443.983333
 20
745.633317
 30
0.0
 11
369.983333
 21
745.633317
 31
0.0
  0
ARC
  8
0
  6
CONTINUOUS
 62
     1
 10
443.983333
 20
742.633317
 30
0.0
 40
3.0
 50
0.0
 51
90.0
  0
LINE
  8
0
  6
LTYPE2
 62
     2
 10
406.983333
 20
665.633317
 30
0.0
 11
406.983333
 21
753.5654508
 31
0.0
  0
LINE
  8
0
  6
CONTINUOUS
 62
     1
 10
571.483333
 20
636.133317
 30
0.0
 11
556.983333
 21
636.133317
 31
0.0
  0
ARC
  8
0
  6
CONTINUOUS
 62
     1
 10
571.483333
 20
634.633317
 30
0.0
 40
1.5
 50
0.0
 51
90.0
  0
LINE
  8
0
  6
CONTINUOUS
 62
     1
 10
571.483333
 20
605.133317
 30
0.0
 11
556.983333
 21
605.133317
 31
0.0
  0
LINE
  8
0
  6
CONTINUOUS
 62
     1
 10
572.983333
 20
606.633317
 30
0.0
 11
572.983333
 21
634.633317
 31
0.0
  0
ARC
  8
0
  6
CONTINUOUS
 62
     1
 10
571.483333
 20
606.633317
 30
0.0
 40
1.5
 50
270.0
 51
0.0
  0
LINE
  8
0
  6
CONTINUOUS
 62
     1
 10
367.983333
 20
559.633317
 30
0.0
 11
359.983333
 21
559.633317
 31
0.0
  0
LINE
  8
0
  6
CONTINUOUS
 62
     1
 10
367.983333
 20
559.633317
 30
0.0
 11
367.983333
 21
459.633317
 31
0.0
  0
LINE
  8
0
  6
LTYPE3
 62
     2
 10
310.983333
 20
700.633317
 30
0.0
 11
359.983333
 21
700.633317
 31
0.0
  0
LINE
  8
0
  6
LTYPE4
 62
     2
 10
574.333147745
 20
550.383317
 30
0.0
 11
574.333147745
 21
470.883317
 31
0.0
  0
LINE
  8
0
  6
LTYPE4
 62
     2
 10
580.333147745
 20
550.383317
 30
0.0
 11
580.333147745
 21
470.883317
 31
0.0
  0
LINE
  8
0
  6
CONTINUOUS
 62
     1
 10
535.983333
 20
542.383317
 30
0.0
 11
574.333147745
 21
542.383317
 31
0.0
  0
LINE
  8
0
  6
CONTINUOUS
 62
     1
 10
535.983333
 20
478.883317
 30
0.0
 11
574.333147745
 21
478.883317
 31
0.0
  0
LINE
  8
0
  6
CONTINUOUS
 62
     1
 10
366.483333
 20
681.633317
 30
0.0
 11
359.983333
 21
681.633317
 31
0.0
  0
LINE
  8
0
  6
CONTINUOUS
 62
     1
 10
359.983333
 20
450.633317
 30
0.0
 11
359.983333
 21
681.633317
 31
0.0
  0
LINE
  8
7
  6
CONTINUOUS
 62
     2
 10
472.983333
 20
715.633317
 30
0.0
 11
481.547723096
 21
720.795799183
 31
0.0
  0
LINE
  8
7
  6
CONTINUOUS
 62
     2
 10
472.983333
 20
715.633317
 30
0.0
 11
477.819071299
 21
724.386352765
 31
0.0
  0
LINE
  8
7
  6
CONTINUOUS
 62
     2
 10
472.983333
 20
715.633317
 30
0.0
 11
498.983333
 21
742.633317
 31
0.0
  0
LINE
  8
7
  6
CONTINUOUS
 62
     2
 10
498.983333
 20
742.633317
 30
0.0
 11
557.783333
 21
742.633317
 31
0.0
  0
LINE
  8
7
  6
CONTINUOUS
 62
     2
 10
559.983333
 20
478.883317
 30
0.0
 11
562.571523451
 21
488.542575263
 31
0.0
  0
LINE
  8
7
  6
CONTINUOUS
 62
     2
 10
559.983333
 20
478.883317
 30
0.0
 11
557.395142549
 21
488.542575263
 31
0.0
  0
LINE
  8
7
  6
CONTINUOUS
 62
     2
 10
559.983333
 20
478.883317
 30
0.0
 11
559.983333
 21
542.383317
 31
0.0
  0
LINE
  8
7
  6
CONTINUOUS
 62
     2
 10
559.983333
 20
542.383317
 30
0.0
 11
557.395142549
 21
532.724058737
 31
0.0
  0
LINE
  8
7
  6
CONTINUOUS
 62
     2
 10
559.983333
 20
542.383317
 30
0.0
 11
562.571523451
 21
532.724058737
 31
0.0
  0
LINE
  8
7
  6
CONTINUOUS
 62
     2
 10
492.983333
 20
677.633317
 30
0.0
 11
490.395142549
 21
667.974058737
 31
0.0
  0
LINE
  8
7
  6
CONTINUOUS
 62
     2
 10
492.983333
 20
677.633317
 30
0.0
 11
495.571523451
 21
667.974058737
 31
0.0
  0
LINE
  8
7
  6
CONTINUOUS
 62
     2
 10
492.983333
 20
563.633317
 30
0.0
 11
495.571523451
 21
573.292575263
 31
0.0
  0
LINE
  8
7
  6
CONTINUOUS
 62
     2
 10
492.983333
 20
563.633317
 30
0.0
 11
490.395142549
 21
573.292575263
 31
0.0
  0
LINE
  8
0
  6
LTYPE3
 62
     2
 10
496.983333
 20
620.633317
 30
0.0
 11
579.983333
 21
620.633317
 31
0.0
  0
LINE
  8
0
  6
CONTINUOUS
 62
     1
 10
299.983333
 20
450.633317
 30
0.0
 11
299.983333
 21
655.633317
 31
0.0
  0
LINE
  8
0
  6
CONTINUOUS
 62
     1
 10
527.983333
 20
465.633317
 30
0.0
 11
453.983333
 21
465.633317
 31
0.0
  0
LINE
  8
0
  6
CONTINUOUS
 62
     1
 10
578.983333
 20
421.133317
 30
0.0
 11
445.983333
 21
421.133317
 31
0.0
  0
LINE
  8
0
  6
CONTINUOUS
 62
     1
 10
535.983333
 20
464.133317
 30
0.0
 11
448.983333
 21
464.133317
 31
0.0
  0
ARC
  8
0
  6
CONTINUOUS
 62
     1
 10
448.983333
 20
461.133317
 30
0.0
 40
3.0
 50
90.0
 51
180.0
  0
LINE
  8
0
  6
CONTINUOUS
 62
     1
 10
578.983333
 20
421.133317
 30
0.0
 11
578.983333
 21
460.133317
 31
0.0
  0
LINE
  8
0
  6
CONTINUOUS
 62
     1
 10
575.983333
 20
463.133317
 30
0.0
 11
535.983333
 21
463.133317
 31
0.0
  0
ARC
  8
0
  6
CONTINUOUS
 62
     1
 10
575.983333
 20
460.133317
 30
0.0
 40
3.0
 50
0.0
 51
90.0
  0
LINE
  8
0
  6
CONTINUOUS
 62
     1
 10
573.983333
 20
419.633317
 30
0.0
 11
445.983333
 21
419.633317
 31
0.0
  0
LINE
  8
0
  6
CONTINUOUS
 62
     1
 10
453.983333
 20
464.133317
 30
0.0
 11
453.983333
 21
465.633317
 31
0.0
  0
LINE
  8
0
  6
CONTINUOUS
 62
     1
 10
527.983333
 20
464.133317
 30
0.0
 11
527.983333
 21
465.633317
 31
0.0
  0
LINE
  8
0
  6
CONTINUOUS
 62
     1
 10
535.983333
 20
463.133317
 30
0.0
 11
535.983333
 21
464.133317
 31
0.0
  0
LINE
  8
0
  6
CONTINUOUS
 62
     1
 10
287.983333
 20
602.633317
 30
0.0
 11
344.983333
 21
602.633317
 31
0.0
  0
LINE
  8
0
  6
CONTINUOUS
 62
     1
 10
287.983333
 20
450.633317
 30
0.0
 11
359.983333
 21
450.633317
 31
0.0
  0
LINE
  8
0
  6
CONTINUOUS
 62
     1
 10
287.983333
 20
460.633317
 30
0.0
 11
287.983333
 21
450.833317
 31
0.0
  0
LINE
  8
0
  6
CONTINUOUS
 62
     1
 10
287.983333
 20
450.833317
 30
0.0
 11
282.368973646
 21
450.833317
 31
0.0
  0
LINE
  8
0
  6
CONTINUOUS
 62
     1
 10
280.983333
 20
453.233317
 30
0.0
 11
282.368973646
 21
450.833317
 31
0.0
  0
LINE
  8
0
  6
CONTINUOUS
 62
     1
 10
280.983333
 20
460.633317
 30
0.0
 11
280.983333
 21
453.233317
 31
0.0
  0
LINE
  8
0
  6
CONTINUOUS
 62
     1
 10
287.983333
 20
455.733317
 30
0.0
 11
282.368973646
 21
455.733317
 31
0.0
  0
LINE
  8
0
  6
CONTINUOUS
 62
     1
 10
287.983333
 20
460.633317
 30
0.0
 11
287.983333
 21
470.433317
 31
0.0
  0
LINE
  8
0
  6
CONTINUOUS
 62
     1
 10
287.983333
 20
470.433317
 30
0.0
 11
282.368973646
 21
470.433317
 31
0.0
  0
LINE
  8
0
  6
CONTINUOUS
 62
     1
 10
280.983333
 20
468.033317
 30
0.0
 11
282.368973646
 21
470.433317
 31
0.0
  0
LINE
  8
0
  6
CONTINUOUS
 62
     1
 10
280.983333
 20
460.633317
 30
0.0
 11
280.983333
 21
468.033317
 31
0.0
  0
LINE
  8
0
  6
CONTINUOUS
 62
     1
 10
287.983333
 20
465.533317
 30
0.0
 11
282.368973646
 21
465.533317
 31
0.0
  0
ARC
  8
0
  6
CONTINUOUS
 62
     1
 10
290.3400158
 20
460.633317
 30
0.0
 40
9.3566828
 50
148.419912243
 51
211.580087757
  0
ARC
  8
0
  6
CONTINUOUS
 62
     1
 10
283.841216832
 20
453.283317
 30
0.0
 40
2.858321186
 50
121.002313915
 51
182.989498403
  0
LINE
  8
0
  6
CONTINUOUS
 62
     1
 10
280.983333
 20
468.033317
 30
0.0
 11
282.368973646
 21
470.433317
 31
0.0
  0
ARC
  8
0
  6
CONTINUOUS
 62
     1
 10
283.841216832
 20
467.983317
 30
0.0
 40
2.858321186
 50
177.010501597
 51
238.997686085
  0
LINE
  8
0
  6
LTYPE2
 62
     2
 10
275.983333
 20
460.633317
 30
0.0
 11
308.983333
 21
460.633317
 31
0.0
  0
LINE
  8
0
  6
LTYPE2
 62
     2
 10
275.983333
 20
560.633317
 30
0.0
 11
308.983333
 21
560.633317
 31
0.0
  0
LINE
  8
0
  6
LTYPE3
 62
     2
 10
280.983333
 20
510.633317
 30
0.0
 11
539.483333
 21
510.633317
 31
0.0
  0
LINE
  8
0
  6
CONTINUOUS
 62
     1
 10
295.983333
 20
606.633317
 30
0.0
 11
299.983333
 21
606.633317
 31
0.0
  0
LINE
  8
0
  6
CONTINUOUS
 62
     1
 10
295.983333
 20
634.633317
 30
0.0
 11
299.983333
 21
634.633317
 31
0.0
  0
LINE
  8
0
  6
CONTINUOUS
 62
     1
 10
295.983333
 20
606.633317
 30
0.0
 11
295.983333
 21
634.633317
 31
0.0
  0
LINE
  8
0
  6
CONTINUOUS
 62
     1
 10
294.983333
 20
606.633317
 30
0.0
 11
294.983333
 21
634.633317
 31
0.0
  0
LINE
  8
0
  6
CONTINUOUS
 62
     1
 10
266.983333
 20
634.633317
 30
0.0
 11
294.983333
 21
634.633317
 31
0.0
  0
LINE
  8
0
  6
CONTINUOUS
 62
     1
 10
264.983333
 20
632.633317
 30
0.0
 11
266.983333
 21
634.633317
 31
0.0
  0
LINE
  8
0
  6
CONTINUOUS
 62
     1
 10
266.983333
 20
606.633317
 30
0.0
 11
294.983333
 21
606.633317
 31
0.0
  0
LINE
  8
0
  6
CONTINUOUS
 62
     1
 10
266.983333
 20
606.633317
 30
0.0
 11
264.983333
 21
608.633317
 31
0.0
  0
LINE
  8
0
  6
LTYPE3
 62
     2
 10
251.983333
 20
620.633317
 30
0.0
 11
471.983333
 21
620.633317
 31
0.0
  0
LINE
  8
0
  6
LTYPE3
 62
     2
 10
275.783333
 20
572.633317
 30
0.0
 11
295.983333
 21
572.633317
 31
0.0
  0
LINE
  8
0
  6
CONTINUOUS
 62
     1
 10
588.483333
 20
498.133317
 30
0.0
 11
613.483333
 21
498.133317
 31
0.0
  0
LINE
  8
0
  6
CONTINUOUS
 62
     1
 10
613.483333
 20
523.133317
 30
0.0
 11
613.483333
 21
498.133317
 31
0.0
  0
LINE
  8
0
  6
CONTINUOUS
 62
     1
 10
588.483333
 20
523.133317
 30
0.0
 11
613.483333
 21
523.133317
 31
0.0
  0
LINE
  8
0
  6
CONTINUOUS
 62
     1
 10
588.483333
 20
523.133317
 30
0.0
 11
588.483333
 21
498.133317
 31
0.0
  0
CIRCLE
  8
0
  6
CONTINUOUS
 62
     1
 10
600.983333
 20
510.633317
 30
0.0
 40
12.5
  0
LINE
  8
0
  6
LTYPE3
 62
     2
 10
600.983333
 20
491.933317
 30
0.0
 11
600.983333
 21
531.633317
 31
0.0
  0
LINE
  8
7
  6
CONTINUOUS
 62
     2
 10
605.452757461
 20
520.133317
 30
0.0
 11
611.419333149
 21
528.158276474
 31
0.0
  0
LINE
  8
7
  6
CONTINUOUS
 62
     2
 10
605.452757461
 20
520.133317
 30
0.0
 11
606.607483843
 21
530.066423613
 31
0.0
  0
LINE
  8
7
  6
CONTINUOUS
 62
     2
 10
605.452757461
 20
520.133317
 30
0.0
 11
628.452757461
 21
578.133317
 31
0.0
  0
LINE
  8
7
  6
CONTINUOUS
 62
     2
 10
466.983333
 20
428.633317
 30
0.0
 11
544.252757461
 21
428.633317
 31
0.0
  0
LINE
  8
0
  6
CONTINUOUS
 62
     1
 10
735.483333
 20
546.383317
 30
0.0
 11
745.483333
 21
546.383317
 31
0.0
  0
LINE
  8
0
  6
CONTINUOUS
 62
     1
 10
745.483333
 20
544.383317
 30
0.0
 11
747.983333
 21
544.383317
 31
0.0
  0
LINE
  8
0
  6
CONTINUOUS
 62
     1
 10
732.983333
 20
544.383317
 30
0.0
 11
735.483333
 21
544.383317
 31
0.0
  0
LINE
  8
0
  6
CONTINUOUS
 62
     1
 10
747.983333
 20
544.383317
 30
0.0
 11
747.983333
 21
510.633317
 31
0.0
  0
LINE
  8
0
  6
CONTINUOUS
 62
     1
 10
732.983333
 20
544.383317
 30
0.0
 11
732.983333
 21
510.633317
 31
0.0
  0
LINE
  8
0
  6
CONTINUOUS
 62
     1
 10
735.483333
 20
546.383317
 30
0.0
 11
735.483333
 21
510.633317
 31
0.0
  0
LINE
  8
0
  6
CONTINUOUS
 62
     1
 10
745.483333
 20
546.383317
 30
0.0
 11
745.483333
 21
510.633317
 31
0.0
  0
LINE
  8
0
  6
CONTINUOUS
 62
     1
 10
732.983333
 20
476.883317
 30
0.0
 11
732.983333
 21
478.883317
 31
0.0
  0
LINE
  8
0
  6
CONTINUOUS
 62
     1
 10
732.983333
 20
476.883317
 30
0.0
 11
747.983333
 21
476.883317
 31
0.0
  0
ARC
  8
0
  6
CONTINUOUS
 62
     1
 10
753.104834365
 20
464.133317
 30
0.0
 40
1.0
 50
195.0
 51
270.0
  0
ARC
  8
0
  6
CONTINUOUS
 62
     1
 10
753.104834365
 20
464.133317
 30
0.0
 40
1.0
 50
270.0
 51
345.0
  0
LINE
  8
0
  6
CONTINUOUS
 62
     1
 10
756.353054439
 20
472.392136045
 30
0.0
 11
754.070760191
 21
463.874497955
 31
0.0
  0
ARC
  8
0
  6
CONTINUOUS
 62
     1
 10
757.318980265
 20
472.133317
 30
0.0
 40
1.0
 50
90.0
 51
165.0
  0
ARC
  8
0
  6
CONTINUOUS
 62
     1
 10
753.104834365
 20
557.133317
 30
0.0
 40
1.0
 50
90.0
 51
165.0
  0
ARC
  8
0
  6
CONTINUOUS
 62
     1
 10
753.104834365
 20
557.133317
 30
0.0
 40
1.0
 50
15.0
 51
90.0
  0
LINE
  8
0
  6
CONTINUOUS
 62
     1
 10
756.353054439
 20
548.874497955
 30
0.0
 11
754.070760191
 21
557.392136045
 31
0.0
  0
ARC
  8
0
  6
CONTINUOUS
 62
     1
 10
757.318980265
 20
549.133317
 30
0.0
 40
1.0
 50
195.0
 51
270.0
  0
LINE
  8
0
  6
CONTINUOUS
 62
     1
 10
752.138908539
 20
463.874497955
 30
0.0
 11
747.983333
 21
476.883317
 31
0.0
  0
LINE
  8
0
  6
CONTINUOUS
 62
     1
 10
752.138908539
 20
557.392136045
 30
0.0
 11
747.983333
 21
544.383317
 31
0.0
  0
LINE
  8
0
  6
CONTINUOUS
 62
     1
 10
757.318991055
 20
548.133317
 30
0.0
 11
757.318991055
 21
510.633317
 31
0.0
  0
LINE
  8
0
  6
CONTINUOUS
 62
     1
 10
753.104834365
 20
558.133317
 30
0.0
 11
753.104834365
 21
510.633317
 31
0.0
  0
LINE
  8
0
  6
CONTINUOUS
 62
     1
 10
748.983333
 20
478.883317
 30
0.0
 11
748.983333
 21
510.633317
 31
0.0
  0
LINE
  8
7
  6
CONTINUOUS
 62
     2
 10
628.452757461
 20
578.133317
 30
0.0
 11
663.252757461
 21
578.133317
 31
0.0
  0
LINE
  8
0
  6
LTYPE3
 62
     2
 10
564.983333
 20
510.633317
 30
0.0
 11
863.983333
 21
510.633317
 31
0.0
  0
LINE
  8
0
  6
LTYPE2
 62
     2
 10
562.983333
 20
438.133317
 30
0.0
 11
590.983333
 21
438.133317
 31
0.0
  0
LINE
  8
7
  6
CONTINUOUS
 62
     2
 10
572.983333
 20
767.633317
 30
0.0
 11
563.324074737
 21
770.221507451
 31
0.0
  0
LINE
  8
7
  6
CONTINUOUS
 62
     2
 10
572.983333
 20
767.633317
 30
0.0
 11
563.324074737
 21
765.045126549
 31
0.0
  0
LINE
  8
7
  6
CONTINUOUS
 62
     2
 10
572.983333
 20
767.633317
 30
0.0
 11
359.983333
 21
767.633317
 31
0.0
  0
LINE
  8
7
  6
CONTINUOUS
 62
     2
 10
359.983333
 20
767.633317
 30
0.0
 11
369.642591263
 21
765.045126549
 31
0.0
  0
LINE
  8
7
  6
CONTINUOUS
 62
     2
 10
359.983333
 20
767.633317
 30
0.0
 11
369.642591263
 21
770.221507451
 31
0.0
  0
LINE
  8
7
  6
CONTINUOUS
 62
     2
 10
359.983333
 20
761.633317
 30
0.0
 11
359.983333
 21
761.633317
 31
0.0
  0
LINE
  8
7
  6
CONTINUOUS
 62
     2
 10
359.983333
 20
767.633317
 30
0.0
 11
350.324074737
 21
770.221507451
 31
0.0
  0
LINE
  8
7
  6
CONTINUOUS
 62
     2
 10
359.983333
 20
767.633317
 30
0.0
 11
350.324074737
 21
765.045126549
 31
0.0
  0
LINE
  8
7
  6
CONTINUOUS
 62
     2
 10
359.983333
 20
767.633317
 30
0.0
 11
299.983333
 21
767.633317
 31
0.0
  0
LINE
  8
7
  6
CONTINUOUS
 62
     2
 10
299.983333
 20
767.633317
 30
0.0
 11
309.642591263
 21
765.045126549
 31
0.0
  0
LINE
  8
7
  6
CONTINUOUS
 62
     2
 10
299.983333
 20
767.633317
 30
0.0
 11
309.642591263
 21
770.221507451
 31
0.0
  0
LINE
  8
7
  6
CONTINUOUS
 62
     2
 10
572.983333
 20
640.63332779
 30
0.0
 11
572.983333
 21
773.633317
 31
0.0
  0
LINE
  8
7
  6
CONTINUOUS
 62
     2
 10
359.983333
 20
687.633317
 30
0.0
 11
359.983333
 21
773.633317
 31
0.0
  0
LINE
  8
7
  6
CONTINUOUS
 62
     2
 10
299.983333
 20
661.633317
 30
0.0
 11
299.983333
 21
773.633317
 31
0.0
  0
LINE
  8
0
  6
LTYPE2
 62
     2
 10
482.65801509
 20
715.633317
 30
0.0
 11
439.912808845
 21
715.633317
 31
0.0
  0
LINE
  8
0
  6
CONTINUOUS
 62
     1
 10
580.333147745
 20
542.383317
 30
0.0
 11
732.983333
 21
542.383317
 31
0.0
  0
LINE
  8
0
  6
CONTINUOUS
 62
     1
 10
580.333147745
 20
478.883317
 30
0.0
 11
767.983333
 21
478.883317
 31
0.0
  0
LINE
  8
7
  6
CONTINUOUS
 62
     2
 10
578.983333
 20
438.133317
 30
0.0
 11
583.983333
 21
429.473062962
 31
0.0
  0
LINE
  8
7
  6
CONTINUOUS
 62
     2
 10
578.983333
 20
438.133317
 30
0.0
 11
587.643587038
 21
433.133317
 31
0.0
  0
LINE
  8
7
  6
CONTINUOUS
 62
     2
 10
578.983333
 20
438.133317
 30
0.0
 11
614.983333
 21
402.133317
 31
0.0
  0
LINE
  8
7
  6
CONTINUOUS
 62
     2
 10
614.983333
 20
402.133317
 30
0.0
 11
673.783333
 21
402.133317
 31
0.0
  0
LINE
  8
0
  6
LTYPE3
 62
     3
 10
753.104834365
 20
558.133317
 30
0.0
 11
782.861831635
 21
558.133317
 31
0.0
  0
LINE
  8
0
  6
LTYPE3
 62
     3
 10
753.104834365
 20
463.133317
 30
0.0
 11
782.861831635
 21
463.133317
 31
0.0
  0
LINE
  8
0
  6
LTYPE3
 62
     3
 10
757.318991055
 20
548.133317
 30
0.0
 11
778.647685735
 21
548.133317
 31
0.0
  0
LINE
  8
0
  6
LTYPE3
 62
     3
 10
757.318991055
 20
473.133317
 30
0.0
 11
778.647685735
 21
473.133317
 31
0.0
  0
LINE
  8
0
  6
LTYPE3
 62
     3
 10
747.983333
 20
635.133317
 30
0.0
 11
782.861831635
 21
635.133317
 31
0.0
  0
LINE
  8
0
  6
LTYPE3
 62
     3
 10
747.983333
 20
730.133317
 30
0.0
 11
782.861831635
 21
730.133317
 31
0.0
  0
LINE
  8
7
  6
CONTINUOUS
 62
     2
 10
753.952757461
 20
730.133317
 30
0.0
 11
749.952757461
 21
730.133317
 31
0.0
  0
LINE
  8
7
  6
CONTINUOUS
 62
     2
 10
755.952757461
 20
730.133317
 30
0.0
 11
753.36456701
 21
720.474058737
 31
0.0
  0
LINE
  8
7
  6
CONTINUOUS
 62
     2
 10
755.952757461
 20
730.133317
 30
0.0
 11
758.540947912
 21
720.474058737
 31
0.0
  0
LINE
  8
7
  6
CONTINUOUS
 62
     2
 10
755.952757461
 20
730.133317
 30
0.0
 11
755.952757461
 21
635.133317
 31
0.0
  0
LINE
  8
7
  6
CONTINUOUS
 62
     2
 10
755.952757461
 20
635.133317
 30
0.0
 11
758.540947912
 21
644.792575263
 31
0.0
  0
LINE
  8
7
  6
CONTINUOUS
 62
     2
 10
755.952757461
 20
635.133317
 30
0.0
 11
753.36456701
 21
644.792575263
 31
0.0
  0
LINE
  8
7
  6
CONTINUOUS
 62
     2
 10
761.452757461
 20
635.133317
 30
0.0
 11
761.952757461
 21
635.133317
 31
0.0
  0
LINE
  8
0
  6
LTYPE3
 62
     3
 10
761.483333
 20
720.133317
 30
0.0
 11
778.647685735
 21
720.133317
 31
0.0
  0
LINE
  8
0
  6
LTYPE3
 62
     3
 10
761.483333
 20
645.133317
 30
0.0
 11
778.647685735
 21
645.133317
 31
0.0
  0
LINE
  8
0
  6
CONTINUOUS
 62
     1
 10
527.983333
 20
663.703841155
 30
0.0
 11
527.983333
 21
676.133317
 31
0.0
  0
ARC
  8
0
  6
CONTINUOUS
 62
     1
 10
529.483333
 20
663.703841155
 30
0.0
 40
1.5
 50
180.0
 51
251.029592192
  0
LINE
  8
0
  6
CONTINUOUS
 62
     1
 10
542.970952653
 20
657.481322744
 30
0.0
 11
528.995713347
 21
662.285311256
 31
0.0
  0
LINE
  8
0
  6
CONTINUOUS
 62
     1
 10
527.983333
 20
620.633317
 30
0.0
 11
527.983333
 21
663.703841155
 31
0.0
  0
LINE
  8
0
  6
CONTINUOUS
 62
     1
 10
529.283333
 20
656.695762841
 30
0.0
 11
529.283333
 21
652.083882841
 31
0.0
  0
LINE
  8
0
  6
CONTINUOUS
 62
     1
 10
529.283333
 20
656.695762841
 30
0.0
 11
529.283333
 21
661.307642841
 31
0.0
  0
LINE
  8
0
  6
CONTINUOUS
 62
     1
 10
532.783533
 20
653.213322841
 30
0.0
 11
532.131450512
 21
652.083882841
 31
0.0
  0
LINE
  8
0
  6
CONTINUOUS
 62
     1
 10
532.783533
 20
656.695762841
 30
0.0
 11
532.783533
 21
653.213322841
 31
0.0
  0
LINE
  8
0
  6
CONTINUOUS
 62
     1
 10
532.783533
 20
660.178202841
 30
0.0
 11
532.131450512
 21
661.307642841
 31
0.0
  0
LINE
  8
0
  6
CONTINUOUS
 62
     1
 10
532.783533
 20
656.695762841
 30
0.0
 11
532.783533
 21
660.178202841
 31
0.0
  0
ARC
  8
0
  6
CONTINUOUS
 62
     1
 10
528.380278074
 20
656.695762841
 30
0.0
 40
4.403254926
 50
328.419912243
 51
31.580087757
  0
ARC
  8
0
  6
CONTINUOUS
 62
     1
 10
531.438612868
 20
653.236852841
 30
0.0
 40
1.34512595
 50
357.010501597
 51
58.997686085
  0
LINE
  8
0
  6
CONTINUOUS
 62
     1
 10
532.783533
 20
660.178202841
 30
0.0
 11
532.131450512
 21
661.307642841
 31
0.0
  0
ARC
  8
0
  6
CONTINUOUS
 62
     1
 10
531.438612868
 20
660.154672841
 30
0.0
 40
1.34512595
 50
301.002313915
 51
2.989498403
  0
LINE
  8
0
  6
CONTINUOUS
 62
     1
 10
529.283333
 20
652.083882841
 30
0.0
 11
532.131450512
 21
652.083882841
 31
0.0
  0
LINE
  8
0
  6
CONTINUOUS
 62
     1
 10
529.283333
 20
654.389822841
 30
0.0
 11
532.131450512
 21
654.389822841
 31
0.0
  0
LINE
  8
0
  6
CONTINUOUS
 62
     1
 10
529.283333
 20
659.001702841
 30
0.0
 11
532.131450512
 21
659.001702841
 31
0.0
  0
LINE
  8
0
  6
CONTINUOUS
 62
     1
 10
529.283333
 20
661.307642841
 30
0.0
 11
532.131450512
 21
661.307642841
 31
0.0
  0
LINE
  8
0
  6
CONTINUOUS
 62
     1
 10
527.983333
 20
652.095762841
 30
0.0
 11
529.283333
 21
652.095762841
 31
0.0
  0
LINE
  8
0
  6
CONTINUOUS
 62
     1
 10
527.983333
 20
656.695762841
 30
0.0
 11
529.283332554
 21
655.395763287
 31
0.0
  0
LINE
  8
0
  6
CONTINUOUS
 62
     1
 10
529.283332554
 20
656.695762841
 30
0.0
 11
527.983333
 21
657.995762394
 31
0.0
  0
LINE
  8
0
  6
CONTINUOUS
 62
     1
 10
527.983333
 20
661.295762841
 30
0.0
 11
529.283333
 21
661.295762841
 31
0.0
  0
LINE
  8
0
  6
CONTINUOUS
 62
     1
 10
556.983333
 20
620.633317
 30
0.0
 11
556.983333
 21
637.133317
 31
0.0
  0
LINE
  8
0
  6
CONTINUOUS
 62
     1
 10
556.983333
 20
620.633317
 30
0.0
 11
556.983333
 21
604.133317
 31
0.0
  0
LINE
  8
0
  6
CONTINUOUS
 62
     1
 10
557.983333
 20
624.433317
 30
0.0
 11
556.983333
 21
624.433317
 31
0.0
  0
LINE
  8
0
  6
CONTINUOUS
 62
     1
 10
557.983333
 20
620.633317
 30
0.0
 11
556.983333
 21
621.633317
 31
0.0
  0
LINE
  8
0
  6
CONTINUOUS
 62
     1
 10
560.465790352
 20
624.683317
 30
0.0
 11
557.983333
 21
624.683317
 31
0.0
  0
LINE
  8
0
  6
CONTINUOUS
 62
     1
 10
560.783333
 20
624.133317
 30
0.0
 11
560.465790352
 21
624.683317
 31
0.0
  0
LINE
  8
0
  6
CONTINUOUS
 62
     1
 10
560.465790352
 20
622.658317
 30
0.0
 11
557.983333
 21
622.658317
 31
0.0
  0
ARC
  8
0
  6
CONTINUOUS
 62
     1
 10
559.010359212
 20
623.670817
 30
0.0
 40
1.772973788
 50
325.174816769
 51
34.825183231
  0
LINE
  8
0
  6
CONTINUOUS
 62
     1
 10
557.983333
 20
616.833317
 30
0.0
 11
556.983333
 21
616.833317
 31
0.0
  0
LINE
  8
0
  6
CONTINUOUS
 62
     1
 10
557.983333
 20
619.633317
 30
0.0
 11
556.983333
 21
620.633317
 31
0.0
  0
LINE
  8
0
  6
CONTINUOUS
 62
     1
 10
560.783333
 20
617.133317
 30
0.0
 11
560.465790352
 21
616.583317
 31
0.0
  0
LINE
  8
0
  6
CONTINUOUS
 62
     1
 10
560.465790352
 20
616.583317
 30
0.0
 11
557.983333
 21
616.583317
 31
0.0
  0
LINE
  8
0
  6
CONTINUOUS
 62
     1
 10
560.465790352
 20
618.608317
 30
0.0
 11
557.983333
 21
618.608317
 31
0.0
  0
ARC
  8
0
  6
CONTINUOUS
 62
     1
 10
559.010359212
 20
617.595817
 30
0.0
 40
1.772973788
 50
325.174816769
 51
34.825183231
  0
LINE
  8
0
  6
CONTINUOUS
 62
     1
 10
557.983333
 20
624.683317
 30
0.0
 11
557.983333
 21
616.583317
 31
0.0
  0
LINE
  8
0
  6
CONTINUOUS
 62
     1
 10
560.783333
 20
624.133317
 30
0.0
 11
560.783333
 21
617.133317
 31
0.0
  0
ARC
  8
0
  6
CONTINUOUS
 62
     1
 10
554.167751819
 20
620.633317
 30
0.0
 40
6.615581181
 50
342.175912681
 51
17.824087319
  0
LINE
  8
0
  6
CONTINUOUS
 62
     1
 10
527.983333
 20
577.562792845
 30
0.0
 11
527.983333
 21
565.133317
 31
0.0
  0
ARC
  8
0
  6
CONTINUOUS
 62
     1
 10
529.483333
 20
577.562792845
 30
0.0
 40
1.5
 50
108.970407808
 51
180.0
  0
LINE
  8
0
  6
CONTINUOUS
 62
     1
 10
542.970952653
 20
583.785311256
 30
0.0
 11
528.995713347
 21
578.981322744
 31
0.0
  0
LINE
  8
0
  6
CONTINUOUS
 62
     1
 10
527.983333
 20
620.633317
 30
0.0
 11
527.983333
 21
577.562792845
 31
0.0
  0
LINE
  8
0
  6
CONTINUOUS
 62
     1
 10
529.283333
 20
584.570871159
 30
0.0
 11
529.283333
 21
589.182751159
 31
0.0
  0
LINE
  8
0
  6
CONTINUOUS
 62
     1
 10
532.783533
 20
588.053311159
 30
0.0
 11
532.131450512
 21
589.182751159
 31
0.0
  0
LINE
  8
0
  6
CONTINUOUS
 62
     1
 10
532.783533
 20
584.570871159
 30
0.0
 11
532.783533
 21
588.053311159
 31
0.0
  0
ARC
  8
0
  6
CONTINUOUS
 62
     1
 10
531.438612868
 20
588.029781159
 30
0.0
 40
1.34512595
 50
301.002313915
 51
2.989498403
  0
LINE
  8
0
  6
CONTINUOUS
 62
     1
 10
529.283333
 20
589.182751159
 30
0.0
 11
532.131450512
 21
589.182751159
 31
0.0
  0
LINE
  8
0
  6
CONTINUOUS
 62
     1
 10
527.983333
 20
589.170871159
 30
0.0
 11
529.283333
 21
589.170871159
 31
0.0
  0
LINE
  8
0
  6
CONTINUOUS
 62
     1
 10
529.283333
 20
584.570871159
 30
0.0
 11
529.283333
 21
579.958991159
 31
0.0
  0
LINE
  8
0
  6
CONTINUOUS
 62
     1
 10
532.783533
 20
581.088431159
 30
0.0
 11
532.131450512
 21
579.958991159
 31
0.0
  0
LINE
  8
0
  6
CONTINUOUS
 62
     1
 10
532.783533
 20
584.570871159
 30
0.0
 11
532.783533
 21
581.088431159
 31
0.0
  0
ARC
  8
0
  6
CONTINUOUS
 62
     1
 10
528.380278074
 20
584.570871159
 30
0.0
 40
4.403254926
 50
328.419912243
 51
31.580087757
  0
LINE
  8
0
  6
CONTINUOUS
 62
     1
 10
532.783533
 20
581.088431159
 30
0.0
 11
532.131450512
 21
579.958991159
 31
0.0
  0
ARC
  8
0
  6
CONTINUOUS
 62
     1
 10
531.438612868
 20
581.111961159
 30
0.0
 40
1.34512595
 50
357.010501597
 51
58.997686085
  0
LINE
  8
0
  6
CONTINUOUS
 62
     1
 10
529.283333
 20
582.264931159
 30
0.0
 11
532.131450512
 21
582.264931159
 31
0.0
  0
LINE
  8
0
  6
CONTINUOUS
 62
     1
 10
529.283333
 20
579.958991159
 30
0.0
 11
532.131450512
 21
579.958991159
 31
0.0
  0
LINE
  8
0
  6
CONTINUOUS
 62
     1
 10
527.983333
 20
579.970871159
 30
0.0
 11
529.283333
 21
579.970871159
 31
0.0
  0
LINE
  8
0
  6
CONTINUOUS
 62
     1
 10
529.283333
 20
586.876811159
 30
0.0
 11
532.131450512
 21
586.876811159
 31
0.0
  0
LINE
  8
0
  6
CONTINUOUS
 62
     1
 10
527.983333
 20
584.570871159
 30
0.0
 11
529.283332554
 21
585.870870713
 31
0.0
  0
LINE
  8
0
  6
CONTINUOUS
 62
     1
 10
529.283332554
 20
584.570871159
 30
0.0
 11
527.983333
 21
583.270871606
 31
0.0
  0
CIRCLE
  8
0
  6
CONTINUOUS
 62
     1
 10
335.983333
 20
700.633317
 30
0.0
 40
12.5
  0
ARC
  8
0
  6
CONTINUOUS
 62
     1
 10
335.983333
 20
700.633317
 30
0.0
 40
20.5
 50
300.423432294
 51
0.0
  0
ARC
  8
0
  6
CONTINUOUS
 62
     1
 10
346.931317073
 20
681.906805336
 30
0.0
 40
1.2
 50
118.393405187
 51
188.554293104
  0
ARC
  8
0
  6
CONTINUOUS
 62
     1
 10
325.035348927
 20
681.906805336
 30
0.0
 40
1.2
 50
351.445706896
 51
61.606594813
  0
ARC
  8
0
  6
CONTINUOUS
 62
     1
 10
335.983333
 20
700.633317
 30
0.0
 40
20.5
 50
0.0
 51
239.707348078
  0
LINE
  8
0
  6
CONTINUOUS
 62
     1
 10
345.869047286
 20
680.633317
 30
0.0
 11
345.183333
 21
686.633317
 31
0.0
  0
LINE
  8
0
  6
CONTINUOUS
 62
     1
 10
335.983333
 20
688.133317
 30
0.0
 11
345.183333
 21
686.633317
 31
0.0
  0
LINE
  8
0
  6
CONTINUOUS
 62
     1
 10
335.983333
 20
688.133317
 30
0.0
 11
326.783333
 21
686.633317
 31
0.0
  0
LINE
  8
0
  6
CONTINUOUS
 62
     1
 10
326.097618714
 20
680.633317
 30
0.0
 11
326.783333
 21
686.633317
 31
0.0
  0
LINE
  8
0
  6
CONTINUOUS
 62
     1
 10
326.783333
 20
686.633317
 30
0.0
 11
345.183333
 21
686.633317
 31
0.0
  0
LINE
  8
0
  6
CONTINUOUS
 62
     1
 10
264.983333
 20
608.633317
 30
0.0
 11
264.983333
 21
632.633317
 31
0.0
  0
ARC
  8
0
  6
CONTINUOUS
 62
     1
 10
261.604308674
 20
622.833317
 30
0.0
 40
1.3
 50
90.0
 51
163.39844642
  0
ARC
  8
0
  6
CONTINUOUS
 62
     1
 10
268.983333
 20
620.633317
 30
0.0
 40
9.0
 50
163.398449826
 51
180.0
  0
LINE
  8
0
  6
CONTINUOUS
 62
     1
 10
262.583333
 20
624.133317
 30
0.0
 11
261.604308674
 21
624.133317
 31
0.0
  0
LINE
  8
0
  6
CONTINUOUS
 62
     1
 10
262.583333
 20
620.633317
 30
0.0
 11
262.583333
 21
624.433317
 31
0.0
  0
ARC
  8
0
  6
CONTINUOUS
 62
     1
 10
261.604308674
 20
618.433317
 30
0.0
 40
1.3
 50
196.60155358
 51
270.0
  0
ARC
  8
0
  6
CONTINUOUS
 62
     1
 10
268.983333
 20
620.633317
 30
0.0
 40
9.0
 50
180.0
 51
196.601550174
  0
LINE
  8
0
  6
CONTINUOUS
 62
     1
 10
262.583333
 20
617.133317
 30
0.0
 11
261.604308674
 21
617.133317
 31
0.0
  0
LINE
  8
0
  6
CONTINUOUS
 62
     1
 10
262.583333
 20
620.633317
 30
0.0
 11
262.583333
 21
616.833317
 31
0.0
  0
LINE
  8
0
  6
CONTINUOUS
 62
     1
 10
259.983333
 20
620.633317
 30
0.0
 11
261.483333
 21
619.033317
 31
0.0
  0
LINE
  8
0
  6
CONTINUOUS
 62
     1
 10
259.983333
 20
620.633317
 30
0.0
 11
261.483333
 21
622.233317
 31
0.0
  0
LINE
  8
0
  6
CONTINUOUS
 62
     1
 10
264.983333
 20
624.433317
 30
0.0
 11
262.583333
 21
624.433317
 31
0.0
  0
LINE
  8
0
  6
CONTINUOUS
 62
     1
 10
264.983333
 20
616.833317
 30
0.0
 11
262.583333
 21
616.833317
 31
0.0
  0
LINE
  8
0
  6
CONTINUOUS
 62
     1
 10
287.983333
 20
450.633317
 30
0.0
 11
287.983333
 21
602.633317
 31
0.0
  0
LINE
  8
0
  6
CONTINUOUS
 62
     1
 10
284.783333
 20
582.633317
 30
0.0
 11
287.983333
 21
582.633317
 31
0.0
  0
LINE
  8
0
  6
CONTINUOUS
 62
     1
 10
284.783333
 20
562.633317
 30
0.0
 11
287.983333
 21
562.633317
 31
0.0
  0
LINE
  8
0
  6
CONTINUOUS
 62
     1
 10
279.279451477
 20
568.280415
 30
0.0
 11
280.094526874
 21
566.868663
 31
0.0
  0
LINE
  8
0
  6
CONTINUOUS
 62
     1
 10
279.279451477
 20
572.633317
 30
0.0
 11
279.279451477
 21
568.280415
 31
0.0
  0
LINE
  8
0
  6
CONTINUOUS
 62
     1
 10
279.279451477
 20
576.986219
 30
0.0
 11
280.094526874
 21
578.397971
 31
0.0
  0
LINE
  8
0
  6
CONTINUOUS
 62
     1
 10
279.279451477
 20
572.633317
 30
0.0
 11
279.279451477
 21
576.986219
 31
0.0
  0
ARC
  8
0
  6
CONTINUOUS
 62
     1
 10
284.783333
 20
572.633317
 30
0.0
 40
5.503881523
 50
148.419912243
 51
211.580087757
  0
ARC
  8
0
  6
CONTINUOUS
 62
     1
 10
280.960544483
 20
568.3098265
 30
0.0
 40
1.681350271
 50
121.002313915
 51
182.989498403
  0
LINE
  8
0
  6
CONTINUOUS
 62
     1
 10
279.279451477
 20
576.986219
 30
0.0
 11
280.094526874
 21
578.397971
 31
0.0
  0
ARC
  8
0
  6
CONTINUOUS
 62
     1
 10
280.960544483
 20
576.9568075
 30
0.0
 40
1.681350271
 50
177.010501597
 51
238.997686085
  0
LINE
  8
0
  6
CONTINUOUS
 62
     1
 10
283.279061477
 20
569.75099
 30
0.0
 11
280.094526874
 21
569.75099
 31
0.0
  0
LINE
  8
0
  6
CONTINUOUS
 62
     1
 10
283.279061477
 20
566.868663
 30
0.0
 11
280.094526874
 21
566.868663
 31
0.0
  0
LINE
  8
0
  6
CONTINUOUS
 62
     1
 10
283.279061477
 20
575.515644
 30
0.0
 11
280.094526874
 21
575.515644
 31
0.0
  0
LINE
  8
0
  6
CONTINUOUS
 62
     1
 10
283.279061477
 20
578.397971
 30
0.0
 11
280.094526874
 21
578.397971
 31
0.0
  0
LINE
  8
0
  6
CONTINUOUS
 62
     1
 10
284.779061477
 20
572.633317
 30
0.0
 11
283.279061719
 21
571.133317243
 31
0.0
  0
LINE
  8
0
  6
CONTINUOUS
 62
     1
 10
283.279061719
 20
572.633317
 30
0.0
 11
284.779061477
 21
574.133316757
 31
0.0
  0
LINE
  8
0
  6
CONTINUOUS
 62
     1
 10
284.779061477
 20
566.533317
 30
0.0
 11
283.279061477
 21
566.533317
 31
0.0
  0
LINE
  8
0
  6
CONTINUOUS
 62
     1
 10
283.279061477
 20
572.633317
 30
0.0
 11
283.279061477
 21
566.533317
 31
0.0
  0
LINE
  8
0
  6
CONTINUOUS
 62
     1
 10
283.279061477
 20
572.633317
 30
0.0
 11
283.279061477
 21
578.733317
 31
0.0
  0
LINE
  8
0
  6
CONTINUOUS
 62
     1
 10
284.779061477
 20
578.733317
 30
0.0
 11
283.279061477
 21
578.733317
 31
0.0
  0
LINE
  8
0
  6
CONTINUOUS
 62
     1
 10
284.783333
 20
562.633317
 30
0.0
 11
284.783333
 21
582.633317
 31
0.0
  0
LINE
  8
0
  6
CONTINUOUS
 62
     1
 10
445.983333
 20
413.633317
 30
0.0
 11
445.983333
 21
461.133317
 31
0.0
  0
LINE
  8
0
  6
CONTINUOUS
 62
     1
 10
573.983333
 20
413.633317
 30
0.0
 11
573.983333
 21
463.133317
 31
0.0
  0
LINE
  8
0
  6
CONTINUOUS
 62
     1
 10
573.983333
 20
413.633317
 30
0.0
 11
445.983333
 21
413.633317
 31
0.0
  0
LINE
  8
7
  6
CONTINUOUS
 62
     2
 10
429.983333
 20
380.633317
 30
0.0
 11
439.642591263
 21
378.045126549
 31
0.0
  0
LINE
  8
7
  6
CONTINUOUS
 62
     2
 10
429.983333
 20
380.633317
 30
0.0
 11
439.642591263
 21
383.221507451
 31
0.0
  0
LINE
  8
7
  6
CONTINUOUS
 62
     2
 10
429.983333
 20
352.633317
 30
0.0
 11
439.642591263
 21
350.045126549
 31
0.0
  0
LINE
  8
7
  6
CONTINUOUS
 62
     2
 10
429.983333
 20
352.633317
 30
0.0
 11
439.642591263
 21
355.221507451
 31
0.0
  0
LINE
  8
7
  6
CONTINUOUS
 62
     2
 10
429.983333
 20
346.633317
 30
0.0
 11
429.983333
 21
346.633317
 31
0.0
  0
LINE
  8
7
  6
CONTINUOUS
 62
     2
 10
429.983333
 20
346.633317
 30
0.0
 11
429.983333
 21
346.633317
 31
0.0
  0
LINE
  8
7
  6
CONTINUOUS
 62
     2
 10
429.983333
 20
352.633317
 30
0.0
 11
420.324074737
 21
355.221507451
 31
0.0
  0
LINE
  8
7
  6
CONTINUOUS
 62
     2
 10
429.983333
 20
352.633317
 30
0.0
 11
420.324074737
 21
350.045126549
 31
0.0
  0
LINE
  8
7
  6
CONTINUOUS
 62
     2
 10
429.983333
 20
352.633317
 30
0.0
 11
359.983333
 21
352.633317
 31
0.0
  0
LINE
  8
7
  6
CONTINUOUS
 62
     2
 10
359.983333
 20
352.633317
 30
0.0
 11
369.642591263
 21
350.045126549
 31
0.0
  0
LINE
  8
7
  6
CONTINUOUS
 62
     2
 10
359.983333
 20
352.633317
 30
0.0
 11
369.642591263
 21
355.221507451
 31
0.0
  0
LINE
  8
7
  6
CONTINUOUS
 62
     2
 10
359.983333
 20
346.633317
 30
0.0
 11
359.983333
 21
346.633317
 31
0.0
  0
LINE
  8
7
  6
CONTINUOUS
 62
     2
 10
359.983333
 20
352.633317
 30
0.0
 11
350.324074737
 21
355.221507451
 31
0.0
  0
LINE
  8
7
  6
CONTINUOUS
 62
     2
 10
359.983333
 20
352.633317
 30
0.0
 11
350.324074737
 21
350.045126549
 31
0.0
  0
LINE
  8
7
  6
CONTINUOUS
 62
     2
 10
359.983333
 20
352.633317
 30
0.0
 11
287.983333
 21
352.633317
 31
0.0
  0
LINE
  8
7
  6
CONTINUOUS
 62
     2
 10
287.983333
 20
352.633317
 30
0.0
 11
297.642591263
 21
350.045126549
 31
0.0
  0
LINE
  8
7
  6
CONTINUOUS
 62
     2
 10
287.983333
 20
352.633317
 30
0.0
 11
297.642591263
 21
355.221507451
 31
0.0
  0
LINE
  8
7
  6
CONTINUOUS
 62
     2
 10
287.983333
 20
324.633317
 30
0.0
 11
297.642591263
 21
322.045126549
 31
0.0
  0
LINE
  8
7
  6
CONTINUOUS
 62
     2
 10
287.983333
 20
324.633317
 30
0.0
 11
297.642591263
 21
327.221507451
 31
0.0
  0
LINE
  8
7
  6
CONTINUOUS
 62
     2
 10
287.983333
 20
324.633317
 30
0.0
 11
278.324074737
 21
327.221507451
 31
0.0
  0
LINE
  8
7
  6
CONTINUOUS
 62
     2
 10
287.983333
 20
324.633317
 30
0.0
 11
278.324074737
 21
322.045126549
 31
0.0
  0
LINE
  8
7
  6
CONTINUOUS
 62
     2
 10
287.983333
 20
324.633317
 30
0.0
 11
259.983333
 21
324.633317
 31
0.0
  0
LINE
  8
7
  6
CONTINUOUS
 62
     2
 10
259.983333
 20
324.633317
 30
0.0
 11
269.642591263
 21
322.045126549
 31
0.0
  0
LINE
  8
7
  6
CONTINUOUS
 62
     2
 10
259.983333
 20
324.633317
 30
0.0
 11
269.642591263
 21
327.221507451
 31
0.0
  0
LINE
  8
7
  6
CONTINUOUS
 62
     2
 10
767.983333
 20
380.633317
 30
0.0
 11
758.324074737
 21
383.221507451
 31
0.0
  0
LINE
  8
7
  6
CONTINUOUS
 62
     2
 10
767.983333
 20
380.633317
 30
0.0
 11
758.324074737
 21
378.045126549
 31
0.0
  0
LINE
  8
7
  6
CONTINUOUS
 62
     2
 10
429.983333
 20
380.633317
 30
0.0
 11
767.983333
 21
380.633317
 31
0.0
  0
LINE
  8
7
  6
CONTINUOUS
 62
     2
 10
429.983333
 20
352.633317
 30
0.0
 11
837.983333
 21
352.633317
 31
0.0
  0
LINE
  8
7
  6
CONTINUOUS
 62
     2
 10
837.983333
 20
324.633317
 30
0.0
 11
287.983333
 21
324.633317
 31
0.0
  0
LINE
  8
7
  6
CONTINUOUS
 62
     2
 10
259.983333
 20
620.633317
 30
0.0
 11
259.983333
 21
318.633317
 31
0.0
  0
LINE
  8
7
  6
CONTINUOUS
 62
     2
 10
287.983333
 20
450.633317
 30
0.0
 11
287.983333
 21
318.633317
 31
0.0
  0
LINE
  8
7
  6
CONTINUOUS
 62
     2
 10
359.983333
 20
450.633317
 30
0.0
 11
359.983333
 21
346.633317
 31
0.0
  0
LINE
  8
7
  6
CONTINUOUS
 62
     2
 10
429.983333
 20
473.633317
 30
0.0
 11
429.983333
 21
346.633317
 31
0.0
  0
TEXT
  8
7
  6
CONTINUOUS
 62
     2
 10
498.983333
 20
746.633317
 30
0.0
 40
15.0
  1
ＰＦ３／４
 50
0.0
 41
0.9
 51
0.0
  7
KANJI24
  0
TEXT
  8
7
  6
CONTINUOUS
 62
     2
 10
449.083333
 20
771.633317
 30
0.0
 40
15.0
  1
２１３
 50
0.0
 41
0.9
 51
0.0
  7
KANJI24
  0
TEXT
  8
7
  6
CONTINUOUS
 62
     2
 10
318.583333
 20
771.633317
 30
0.0
 40
15.0
  1
６０
 50
0.0
 41
0.9
 51
0.0
  7
KANJI24
  0
TEXT
  8
7
  6
CONTINUOUS
 62
     2
 10
312.583333
 20
356.633317
 30
0.0
 40
15.0
  1
７２
 50
0.0
 41
0.9
 51
0.0
  7
KANJI24
  0
TEXT
  8
7
  6
CONTINUOUS
 62
     2
 10
262.583333
 20
328.633317
 30
0.0
 40
15.0
  1
２８
 50
0.0
 41
0.9
 51
0.0
  7
KANJI24
  0
TEXT
  8
7
  6
CONTINUOUS
 62
     2
 10
555.983333
 20
493.233317
 30
0.0
 40
15.0
  1
φ６４
 50
90.0
 41
0.9
 51
0.0
  7
KANJI24
  0
TEXT
  8
7
  6
CONTINUOUS
 62
     2
 10
488.983333
 20
597.233317
 30
0.0
 40
15.0
  1
φ１１４
 50
90.0
 41
0.9
 51
0.0
  7
KANJI24
  0
TEXT
  8
7
  6
CONTINUOUS
 62
     2
 10
628.452757461
 20
582.133317
 30
0.0
 40
15.0
  1
給脂口
 50
0.0
 41
0.9
 51
0.0
  7
KANJI24
  0
TEXT
  8
7
  6
CONTINUOUS
 62
     2
 10
473.452757461
 20
432.633317
 30
0.0
 40
15.0
  1
推力リミッタ
 50
0.0
 41
0.9
 51
0.0
  7
KANJI24
  0
TEXT
  8
7
  6
CONTINUOUS
 62
     2
 10
614.983333
 20
406.133317
 30
0.0
 40
15.0
  1
ＰＦ１／２
 50
0.0
 41
0.9
 51
0.0
  7
KANJI24
  0
TEXT
  8
7
  6
CONTINUOUS
 62
     2
 10
543.583333
 20
384.633317
 30
0.0
 40
15.0
  1
Ｃ
 50
0.0
 41
0.9
 51
0.0
  7
KANJI24
  0
TEXT
  8
7
  6
CONTINUOUS
 62
     2
 10
554.583333
 20
356.633317
 30
0.0
 40
15.0
  1
ｍｉｎ．Ｌ
 50
0.0
 41
0.9
 51
0.0
  7
KANJI24
  0
TEXT
  8
7
  6
CONTINUOUS
 62
     2
 10
383.583333
 20
356.633317
 30
0.0
 40
15.0
  1
７０
 50
0.0
 41
0.9
 51
0.0
  7
KANJI24
  0
TEXT
  8
7
  6
CONTINUOUS
 62
     2
 10
477.583333
 20
328.633317
 30
0.0
 40
15.0
  1
ｍｉｎ．ＡＬ
 50
0.0
 41
0.9
 51
0.0
  7
KANJI24
  0
TEXT
  8
7
  6
CONTINUOUS
 62
     2
 10
751.952757461
 20
665.233317
 30
0.0
 40
15.0
  1
φ９５
 50
90.0
 41
0.9
 51
0.0
  7
KANJI24
  0
LINE
  8
0
  6
LTYPE2
 62
     6
 10
126.391666
 20
903.766634
 30
0.0
 11
126.391666
 21
887.365777936
 31
0.0
  0
LINE
  8
0
  6
LTYPE2
 62
     6
 10
256.788595694
 20
903.766634
 30
0.0
 11
126.391666
 21
903.766634
 31
0.0
  0
TEXT
  8
0
  6
CONTINUOUS
 62
     6
 10
108.856923591
 20
890.281485681
 30
1.093390404
 40
10.933904043
  1
Ｕ
 50
0.0
 41
0.9
 51
0.0
  7
KANJI35
  0
CIRCLE
  8
0
  6
CONTINUOUS
 62
     6
 10
126.391666
 20
884.085606723
 30
0.0
 40
4.373561617
  0
LINE
  8
0
  6
CONTINUOUS
 62
     6
 10
121.36688231
 20
879.060823033
 30
0.0
 11
131.571859417
 21
889.26580014
 31
0.0
  0
TEXT
  8
0
  6
CONTINUOUS
 62
     6
 10
136.637139047
 20
912.432765352
 30
1.518597784
 40
15.185977837
  1
エコノストップモータ
 50
0.0
 41
0.66671875
 51
0.0
  7
KANJI36
  0
CIRCLE
  8
0
  6
CONTINUOUS
 62
     6
 10
171.220672575
 20
858.573163957
 30
0.0
 40
18.223173404
  0
TEXT
  8
0
  6
CONTINUOUS
 62
     6
 10
163.566939745
 20
849.826040723
 30
1.82231734
 40
18.223173404
  1
Ｍ
 50
0.0
 41
0.9
 51
0.0
  7
KANJI37
  0
LINE
  8
0
  6
CONTINUOUS
 62
     6
 10
147.166083681
 20
833.060721191
 30
0.0
 11
158.464451192
 21
846.181406042
 31
0.0
  0
LINE
  8
0
  6
CONTINUOUS
 62
     6
 10
147.166083681
 20
884.085606723
 30
0.0
 11
158.464451192
 21
870.964921872
 31
0.0
  0
LINE
  8
0
  6
CONTINUOUS
 62
     6
 10
147.166083681
 20
884.085606723
 30
0.0
 11
130.765227617
 21
884.085606723
 31
0.0
  0
LINE
  8
0
  6
CONTINUOUS
 62
     6
 10
153.361962639
 20
858.573163957
 30
0.0
 11
130.765227617
 21
858.573163957
 31
0.0
  0
LINE
  8
0
  6
CONTINUOUS
 62
     6
 10
147.166083681
 20
833.060721191
 30
0.0
 11
130.765227617
 21
833.060721191
 31
0.0
  0
TEXT
  8
0
  6
CONTINUOUS
 62
     6
 10
109.950313995
 20
864.404579446
 30
1.093390404
 40
10.933904043
  1
Ｖ
 50
0.0
 41
0.9
 51
0.0
  7
KANJI35
  0
TEXT
  8
0
  6
CONTINUOUS
 62
     6
 10
111.043704399
 20
838.527673212
 30
1.093390404
 40
10.933904043
  1
Ｗ
 50
0.0
 41
0.9
 51
0.0
  7
KANJI35
  0
CIRCLE
  8
0
  6
CONTINUOUS
 62
     6
 10
126.391666
 20
858.573163957
 30
0.0
 40
4.373561617
  0
LINE
  8
0
  6
CONTINUOUS
 62
     6
 10
121.36688231
 20
853.548380267
 30
0.0
 11
131.571859417
 21
863.753357374
 31
0.0
  0
LINE
  8
0
  6
LTYPE2
 62
     6
 10
126.391666
 20
880.076508574
 30
0.0
 11
126.391666
 21
861.85333517
 31
0.0
  0
CIRCLE
  8
0
  6
CONTINUOUS
 62
     6
 10
126.391666
 20
833.060721191
 30
0.0
 40
4.373561617
  0
LINE
  8
0
  6
CONTINUOUS
 62
     6
 10
121.36688231
 20
828.035937501
 30
0.0
 11
131.571859417
 21
838.240914607
 31
0.0
  0
LINE
  8
0
  6
LTYPE2
 62
     6
 10
126.391666
 20
854.564065808
 30
0.0
 11
126.391666
 21
837.434282808
 31
0.0
  0
LINE
  8
0
  6
LTYPE2
 62
     6
 10
256.788595694
 20
808.354901891
 30
0.0
 11
126.391666
 21
808.354901891
 31
0.0
  0
LINE
  8
0
  6
LTYPE2
 62
     6
 10
126.391666
 20
828.687159574
 30
0.0
 11
126.391666
 21
808.354901891
 31
0.0
  0
TEXT
  8
0
  6
CONTINUOUS
 62
     2
 10
131.487059364
 20
783.145538811
 30
0.0
 40
15.6
  1
モーター結線図
 50
0.0
 41
0.925
 51
0.0
  7
KANJI38
  0
TEXT
  8
0
  6
CONTINUOUS
 62
     6
 10
197.462042277
 20
850.318066405
 30
1.457853872
 40
14.578538724
  1
Ｂ
 50
0.0
 41
0.9
 51
0.0
  7
KANJI39
  0
CIRCLE
  8
0
  6
CONTINUOUS
 62
     6
 10
204.022384703
 20
858.573163957
 30
0.0
 40
14.578538724
  0
LINE
  8
0
  6
LTYPE2
 62
     6
 10
256.788595694
 20
808.354901891
 30
0.0
 11
256.788595694
 21
903.766634
 31
0.0
  0
LINE
  8
0
  6
CONTINUOUS
 62
     2
 10
277.65
 20
634.0
 30
0.0
 11
229.65
 21
725.0
 31
0.0
  0
LINE
  8
0
  6
CONTINUOUS
 62
     2
 10
229.65
 20
725.0
 30
0.0
 11
118.65
 21
725.0
 31
0.0
  0
TEXT
  8
0
  6
CONTINUOUS
 62
     3
 10
118.65
 20
730.0
 30
1.5
 40
15.0
  1
手動軸カバー
 50
0.0
 41
0.9
 51
0.0
  7
KANJI40
  0
TEXT
  8
0
  6
CONTINUOUS
 62
     3
 10
118.65
 20
700.0
 30
1.5
 40
15.0
  1
手動軸□８
 50
0.0
 41
0.9
 51
0.0
  7
KANJI40
  0
LINE
  8
0
  6
CONTINUOUS
 62
     2
 10
277.65
 20
634.0
 30
0.0
 11
275.432742397
 21
643.751090643
 31
0.0
  0
LINE
  8
0
  6
CONTINUOUS
 62
     2
 10
277.65
 20
634.0
 30
0.0
 11
270.854253268
 21
641.33606341
 31
0.0
  0
ARC
  8
0
  6
CONTINUOUS
 62
     2
 10
201.983333
 20
623.133317
 30
0.0
 40
20.0
 50
231.952957468
 51
156.801409486
  0
TEXT
  8
0
  6
CONTINUOUS
 62
     2
 10
121.6004324
 20
614.011702972
 30
0.0
 40
15.0
  1
前進方向
 50
0.0
 41
0.9
 51
0.0
  7
KANJI24
  0
LINE
  8
0
  6
CONTINUOUS
 62
     2
 10
183.6004324
 20
631.011702972
 30
0.0
 11
185.89512511
 21
640.849141749
 31
0.0
  0
LINE
  8
0
  6
CONTINUOUS
 62
     2
 10
183.6004324
 20
631.011702972
 30
0.0
 11
191.868593778
 21
635.919039507
 31
0.0
  0
LINE
  8
0
  6
CONTINUOUS
 62
     1
 10
352.483333
 20
585.633317
 30
0.0
 11
309.483333
 21
585.633317
 31
0.0
  0
TEXT
  8
0
  6
CONTINUOUS
 62
     2
 10
314.483333
 20
574.633317
 30
5.0
 40
20.0
  1
銘板
 50
270.0
 41
0.925
 51
0.0
  7
KANJI41
  0
LINE
  8
0
  6
CONTINUOUS
 62
     1
 10
309.483333
 20
585.633317
 30
0.0
 11
309.483333
 21
515.633317
 31
0.0
  0
LINE
  8
0
  6
CONTINUOUS
 62
     1
 10
352.483333
 20
585.633317
 30
0.0
 11
352.483333
 21
515.633317
 31
0.0
  0
LINE
  8
0
  6
CONTINUOUS
 62
     1
 10
352.483333
 20
515.633317
 30
0.0
 11
309.483333
 21
515.633317
 31
0.0
  0
LINE
  8
0
  6
CONTINUOUS
 62
     2
 10
445.642591263
 20
264.221507451
 30
0.0
 11
859.642591263
 21
264.221507451
 31
0.0
  0
TEXT
  8
0
  6
CONTINUOUS
 62
     2
 10
451.709258263
 20
839.288190451
 30
0.0
 40
20.0
  1
ブレーキ解放装置はありません。
 50
0.0
 41
0.925
 51
0.0
  7
KANJI42
  0
TEXT
  8
0
  6
CONTINUOUS
 62
     2
 10
452.709258263
 20
814.288190451
 30
0.0
 40
20.0
  1
そのまま手動操作をして下さい．
 50
0.0
 41
0.925
 51
0.0
  7
KANJI42
  0
TEXT
  8
0
  6
CONTINUOUS
 62
     2
 10
378.883333
 20
575.633317
 30
0.0
 40
15.0
  1
エコノストップモータ
 50
0.0
 41
0.9
 51
0.0
  7
KANJI24
  0
TEXT
  8
0
  6
CONTINUOUS
 62
     2
 10
381.783333
 20
592.633317
 30
0.0
 40
15.0
  1
日本電産
 50
0.0
 41
0.9
 51
0.0
  7
KANJI24
  0
TEXT
  8
0
  6
CONTINUOUS
 62
     2
 10
447.642591263
 20
272.221507451
 30
0.0
 40
20.0
  1
推力リミッタの作動値は、約３６０ｋｇ（設計値）
 50
0.0
 41
0.925
 51
0.0
  7
KANJI42
  0
LINE
  8
0
  6
LTYPE2
 62
     2
 10
778.647685735
 20
682.633317
 30
0.0
 11
866.483333
 21
682.633317
 31
0.0
  0
CIRCLE
  8
0
  6
CONTINUOUS
 62
     1
 10
837.983333
 20
510.633317
 30
0.0
 40
8.0
  0
LINE
  8
0
  6
LTYPE1
 62
     2
 10
812.983333
 20
490.633317
 30
0.0
 11
812.983333
 21
530.633317
 31
0.0
  0
LINE
  8
0
  6
CONTINUOUS
 62
     1
 10
802.983333
 20
530.633317
 30
0.0
 11
845.983333
 21
530.633317
 31
0.0
  0
LINE
  8
0
  6
CONTINUOUS
 62
     1
 10
845.983333
 20
530.633317
 30
0.0
 11
855.983333
 21
520.633317
 31
0.0
  0
LINE
  8
0
  6
CONTINUOUS
 62
     1
 10
802.983333
 20
490.633317
 30
0.0
 11
845.983333
 21
490.633317
 31
0.0
  0
LINE
  8
0
  6
CONTINUOUS
 62
     1
 10
855.983333
 20
500.633317
 30
0.0
 11
855.983333
 21
520.633317
 31
0.0
  0
LINE
  8
0
  6
CONTINUOUS
 62
     1
 10
845.983333
 20
490.633317
 30
0.0
 11
855.983333
 21
500.633317
 31
0.0
  0
LINE
  8
0
  6
CONTINUOUS
 62
     1
 10
802.983333
 20
702.633317
 30
0.0
 11
855.983333
 21
702.633317
 31
0.0
  0
LINE
  8
0
  6
CONTINUOUS
 62
     1
 10
855.983333
 20
690.633317
 30
0.0
 11
855.983333
 21
702.633317
 31
0.0
  0
LINE
  8
0
  6
CONTINUOUS
 62
     1
 10
812.983333
 20
690.633317
 30
0.0
 11
855.983333
 21
690.633317
 31
0.0
  0
LINE
  8
0
  6
CONTINUOUS
 62
     1
 10
802.983333
 20
662.633317
 30
0.0
 11
855.983333
 21
662.633317
 31
0.0
  0
LINE
  8
0
  6
CONTINUOUS
 62
     1
 10
855.983333
 20
674.633317
 30
0.0
 11
855.983333
 21
662.633317
 31
0.0
  0
LINE
  8
0
  6
CONTINUOUS
 62
     1
 10
812.983333
 20
674.633317
 30
0.0
 11
855.983333
 21
674.633317
 31
0.0
  0
LINE
  8
0
  6
CONTINUOUS
 62
     1
 10
812.983333
 20
674.633317
 30
0.0
 11
812.983333
 21
690.633317
 31
0.0
  0
LINE
  8
0
  6
CONTINUOUS
 62
     1
 10
829.983333
 20
674.633317
 30
0.0
 11
829.983333
 21
690.633317
 31
0.0
  0
LINE
  8
0
  6
CONTINUOUS
 62
     1
 10
845.983333
 20
674.633317
 30
0.0
 11
845.983333
 21
690.633317
 31
0.0
  0
LINE
  8
7
  6
CONTINUOUS
 62
     2
 10
851.983333
 20
530.633317
 30
0.0
 11
897.483333
 21
530.633317
 31
0.0
  0
LINE
  8
7
  6
CONTINUOUS
 62
     2
 10
891.483333
 20
530.633317
 30
0.0
 11
888.895142549
 21
520.974058737
 31
0.0
  0
LINE
  8
7
  6
CONTINUOUS
 62
     2
 10
891.483333
 20
530.633317
 30
0.0
 11
894.071523451
 21
520.974058737
 31
0.0
  0
LINE
  8
7
  6
CONTINUOUS
 62
     2
 10
891.483333
 20
530.633317
 30
0.0
 11
891.483333
 21
490.633317
 31
0.0
  0
LINE
  8
7
  6
CONTINUOUS
 62
     2
 10
891.483333
 20
490.633317
 30
0.0
 11
894.071523451
 21
500.292575263
 31
0.0
  0
LINE
  8
7
  6
CONTINUOUS
 62
     2
 10
891.483333
 20
490.633317
 30
0.0
 11
888.895142549
 21
500.292575263
 31
0.0
  0
LINE
  8
7
  6
CONTINUOUS
 62
     2
 10
851.983333
 20
490.633317
 30
0.0
 11
897.483333
 21
490.633317
 31
0.0
  0
LINE
  8
7
  6
CONTINUOUS
 62
     2
 10
861.983333
 20
690.633317
 30
0.0
 11
897.483333
 21
690.633317
 31
0.0
  0
LINE
  8
7
  6
CONTINUOUS
 62
     2
 10
861.983333
 20
674.633317
 30
0.0
 11
897.483333
 21
674.633317
 31
0.0
  0
LINE
  8
7
  6
CONTINUOUS
 62
     2
 10
861.983333
 20
702.633317
 30
0.0
 11
943.483333
 21
702.633317
 31
0.0
  0
LINE
  8
7
  6
CONTINUOUS
 62
     2
 10
861.983333
 20
662.633317
 30
0.0
 11
943.483333
 21
662.633317
 31
0.0
  0
LINE
  8
7
  6
CONTINUOUS
 62
     2
 10
892.983333
 20
662.633317
 30
0.0
 11
894.983333
 21
662.633317
 31
0.0
  0
LINE
  8
7
  6
CONTINUOUS
 62
     2
 10
888.983333
 20
740.433317
 30
0.0
 11
888.983333
 21
674.633317
 31
0.0
  0
LINE
  8
7
  6
CONTINUOUS
 62
     2
 10
888.983333
 20
674.633317
 30
0.0
 11
888.983333
 21
624.833317
 31
0.0
  0
LINE
  8
7
  6
CONTINUOUS
 62
     2
 10
829.983333
 20
647.133317
 30
0.0
 11
829.983333
 21
591.633317
 31
0.0
  0
LINE
  8
7
  6
CONTINUOUS
 62
     2
 10
829.983333
 20
597.633317
 30
0.0
 11
820.324074737
 21
600.221507451
 31
0.0
  0
LINE
  8
7
  6
CONTINUOUS
 62
     2
 10
829.983333
 20
597.633317
 30
0.0
 11
820.324074737
 21
595.045126549
 31
0.0
  0
LINE
  8
7
  6
CONTINUOUS
 62
     2
 10
814.983333
 20
597.633317
 30
0.0
 11
916.663333
 21
597.633317
 31
0.0
  0
LINE
  8
7
  6
CONTINUOUS
 62
     2
 10
845.983333
 20
597.633317
 30
0.0
 11
855.642591263
 21
595.045126549
 31
0.0
  0
LINE
  8
7
  6
CONTINUOUS
 62
     2
 10
845.983333
 20
597.633317
 30
0.0
 11
855.642591263
 21
600.221507451
 31
0.0
  0
LINE
  8
7
  6
CONTINUOUS
 62
     2
 10
845.983333
 20
647.133317
 30
0.0
 11
845.983333
 21
591.633317
 31
0.0
  0
LINE
  8
0
  6
LTYPE2
 62
     2
 10
837.983333
 20
474.633317
 30
0.0
 11
837.983333
 21
719.633317
 31
0.0
  0
LINE
  8
7
  6
CONTINUOUS
 62
     2
 10
837.983333
 20
568.633317
 30
0.0
 11
837.983333
 21
570.633317
 31
0.0
  0
LINE
  8
7
  6
CONTINUOUS
 62
     2
 10
837.983333
 20
564.633317
 30
0.0
 11
828.324074737
 21
567.221507451
 31
0.0
  0
LINE
  8
7
  6
CONTINUOUS
 62
     2
 10
837.983333
 20
564.633317
 30
0.0
 11
828.324074737
 21
562.045126549
 31
0.0
  0
LINE
  8
7
  6
CONTINUOUS
 62
     2
 10
837.983333
 20
564.633317
 30
0.0
 11
812.983333
 21
564.633317
 31
0.0
  0
LINE
  8
7
  6
CONTINUOUS
 62
     2
 10
812.983333
 20
564.633317
 30
0.0
 11
822.642591263
 21
562.045126549
 31
0.0
  0
LINE
  8
7
  6
CONTINUOUS
 62
     2
 10
812.983333
 20
564.633317
 30
0.0
 11
822.642591263
 21
567.221507451
 31
0.0
  0
LINE
  8
7
  6
CONTINUOUS
 62
     2
 10
812.983333
 20
668.633317
 30
0.0
 11
812.983333
 21
558.633317
 31
0.0
  0
LINE
  8
0
  6
CONTINUOUS
 62
     1
 10
800.483333
 20
546.383317
 30
0.0
 11
790.483333
 21
546.383317
 31
0.0
  0
LINE
  8
0
  6
CONTINUOUS
 62
     1
 10
802.983333
 20
544.383317
 30
0.0
 11
800.483333
 21
544.383317
 31
0.0
  0
LINE
  8
0
  6
CONTINUOUS
 62
     1
 10
790.483333
 20
544.383317
 30
0.0
 11
787.983333
 21
544.383317
 31
0.0
  0
LINE
  8
0
  6
CONTINUOUS
 62
     1
 10
787.983333
 20
544.383317
 30
0.0
 11
787.983333
 21
510.633317
 31
0.0
  0
LINE
  8
0
  6
CONTINUOUS
 62
     1
 10
790.483333
 20
546.383317
 30
0.0
 11
790.483333
 21
510.633317
 31
0.0
  0
LINE
  8
0
  6
CONTINUOUS
 62
     1
 10
800.483333
 20
546.383317
 30
0.0
 11
800.483333
 21
510.633317
 31
0.0
  0
LINE
  8
0
  6
CONTINUOUS
 62
     1
 10
802.983333
 20
476.883317
 30
0.0
 11
787.983333
 21
476.883317
 31
0.0
  0
LINE
  8
0
  6
CONTINUOUS
 62
     1
 10
787.983333
 20
476.883317
 30
0.0
 11
787.983333
 21
491.633317
 31
0.0
  0
ARC
  8
0
  6
CONTINUOUS
 62
     1
 10
782.861831635
 20
464.133317
 30
0.0
 40
1.0
 50
270.0
 51
345.0
  0
ARC
  8
0
  6
CONTINUOUS
 62
     1
 10
782.861831635
 20
464.133317
 30
0.0
 40
1.0
 50
195.0
 51
270.0
  0
LINE
  8
0
  6
CONTINUOUS
 62
     1
 10
779.613611561
 20
472.392136045
 30
0.0
 11
781.895905809
 21
463.874497955
 31
0.0
  0
ARC
  8
0
  6
CONTINUOUS
 62
     1
 10
778.647685735
 20
472.133317
 30
0.0
 40
1.0
 50
15.0
 51
90.0
  0
ARC
  8
0
  6
CONTINUOUS
 62
     1
 10
782.861831635
 20
557.133317
 30
0.0
 40
1.0
 50
15.0
 51
90.0
  0
ARC
  8
0
  6
CONTINUOUS
 62
     1
 10
782.861831635
 20
557.133317
 30
0.0
 40
1.0
 50
90.0
 51
165.0
  0
LINE
  8
0
  6
CONTINUOUS
 62
     1
 10
779.613611561
 20
548.874497955
 30
0.0
 11
781.895905809
 21
557.392136045
 31
0.0
  0
ARC
  8
0
  6
CONTINUOUS
 62
     1
 10
778.647685735
 20
549.133317
 30
0.0
 40
1.0
 50
270.0
 51
345.0
  0
LINE
  8
0
  6
CONTINUOUS
 62
     1
 10
783.827757461
 20
463.874497955
 30
0.0
 11
787.983333
 21
476.883317
 31
0.0
  0
LINE
  8
0
  6
CONTINUOUS
 62
     1
 10
783.827757461
 20
557.392136045
 30
0.0
 11
787.983333
 21
544.383317
 31
0.0
  0
LINE
  8
0
  6
CONTINUOUS
 62
     1
 10
778.647685735
 20
548.133317
 30
0.0
 11
778.647685735
 21
510.633317
 31
0.0
  0
LINE
  8
0
  6
CONTINUOUS
 62
     1
 10
782.861831635
 20
510.633317
 30
0.0
 11
782.861831635
 21
558.133317
 31
0.0
  0
LINE
  8
0
  6
CONTINUOUS
 62
     1
 10
767.983333
 20
478.883317
 30
0.0
 11
767.983333
 21
510.633317
 31
0.0
  0
LINE
  8
0
  6
CONTINUOUS
 62
     1
 10
767.983333
 20
491.633317
 30
0.0
 11
802.983333
 21
491.633317
 31
0.0
  0
LINE
  8
0
  6
CONTINUOUS
 62
     1
 10
802.983333
 20
544.383317
 30
0.0
 11
802.983333
 21
476.883317
 31
0.0
  0
LINE
  8
0
  6
CONTINUOUS
 62
     1
 10
800.483333
 20
718.383317
 30
0.0
 11
790.483333
 21
718.383317
 31
0.0
  0
LINE
  8
0
  6
CONTINUOUS
 62
     1
 10
802.983333
 20
716.383317
 30
0.0
 11
800.483333
 21
716.383317
 31
0.0
  0
LINE
  8
0
  6
CONTINUOUS
 62
     1
 10
790.483333
 20
716.383317
 30
0.0
 11
787.983333
 21
716.383317
 31
0.0
  0
LINE
  8
0
  6
CONTINUOUS
 62
     1
 10
800.483333
 20
646.883317
 30
0.0
 11
790.483333
 21
646.883317
 31
0.0
  0
LINE
  8
0
  6
CONTINUOUS
 62
     1
 10
802.983333
 20
648.883317
 30
0.0
 11
800.483333
 21
648.883317
 31
0.0
  0
LINE
  8
0
  6
CONTINUOUS
 62
     1
 10
790.483333
 20
648.883317
 30
0.0
 11
787.983333
 21
648.883317
 31
0.0
  0
LINE
  8
0
  6
CONTINUOUS
 62
     1
 10
790.483333
 20
718.383317
 30
0.0
 11
790.483333
 21
646.883317
 31
0.0
  0
LINE
  8
0
  6
CONTINUOUS
 62
     1
 10
800.483333
 20
718.383317
 30
0.0
 11
800.483333
 21
646.883317
 31
0.0
  0
LINE
  8
0
  6
CONTINUOUS
 62
     1
 10
787.983333
 20
716.383317
 30
0.0
 11
787.983333
 21
648.883317
 31
0.0
  0
ARC
  8
0
  6
CONTINUOUS
 62
     1
 10
782.861831635
 20
636.133317
 30
0.0
 40
1.0
 50
270.0
 51
345.0
  0
ARC
  8
0
  6
CONTINUOUS
 62
     1
 10
782.861831635
 20
636.133317
 30
0.0
 40
1.0
 50
195.0
 51
270.0
  0
LINE
  8
0
  6
CONTINUOUS
 62
     1
 10
779.613611561
 20
644.392136045
 30
0.0
 11
781.895905809
 21
635.874497955
 31
0.0
  0
ARC
  8
0
  6
CONTINUOUS
 62
     1
 10
778.647685735
 20
644.133317
 30
0.0
 40
1.0
 50
15.0
 51
90.0
  0
ARC
  8
0
  6
CONTINUOUS
 62
     1
 10
782.861831635
 20
729.133317
 30
0.0
 40
1.0
 50
15.0
 51
90.0
  0
ARC
  8
0
  6
CONTINUOUS
 62
     1
 10
782.861831635
 20
729.133317
 30
0.0
 40
1.0
 50
90.0
 51
165.0
  0
LINE
  8
0
  6
CONTINUOUS
 62
     1
 10
779.613611561
 20
720.874497955
 30
0.0
 11
781.895905809
 21
729.392136045
 31
0.0
  0
ARC
  8
0
  6
CONTINUOUS
 62
     1
 10
778.647685735
 20
721.133317
 30
0.0
 40
1.0
 50
270.0
 51
345.0
  0
LINE
  8
0
  6
CONTINUOUS
 62
     1
 10
778.647685735
 20
720.133317
 30
0.0
 11
778.647685735
 21
645.133317
 31
0.0
  0
LINE
  8
0
  6
CONTINUOUS
 62
     1
 10
782.861831635
 20
635.133317
 30
0.0
 11
782.861831635
 21
730.133317
 31
0.0
  0
LINE
  8
0
  6
CONTINUOUS
 62
     1
 10
787.983333
 20
648.883317
 30
0.0
 11
783.827757461
 21
635.874497955
 31
0.0
  0
LINE
  8
0
  6
CONTINUOUS
 62
     1
 10
787.983333
 20
716.383317
 30
0.0
 11
783.827757461
 21
729.392136045
 31
0.0
  0
LINE
  8
0
  6
CONTINUOUS
 62
     1
 10
802.983333
 20
716.383317
 30
0.0
 11
802.983333
 21
648.883317
 31
0.0
  0
LINE
  8
7
  6
CONTINUOUS
 62
     2
 10
937.483333
 20
702.633317
 30
0.0
 11
934.895142549
 21
692.974058737
 31
0.0
  0
LINE
  8
7
  6
CONTINUOUS
 62
     2
 10
937.483333
 20
702.633317
 30
0.0
 11
940.071523451
 21
692.974058737
 31
0.0
  0
LINE
  8
7
  6
CONTINUOUS
 62
     2
 10
937.483333
 20
702.633317
 30
0.0
 11
937.483333
 21
662.633317
 31
0.0
  0
LINE
  8
7
  6
CONTINUOUS
 62
     2
 10
937.483333
 20
662.633317
 30
0.0
 11
940.071523451
 21
672.292575263
 31
0.0
  0
LINE
  8
7
  6
CONTINUOUS
 62
     2
 10
937.483333
 20
662.633317
 30
0.0
 11
934.895142549
 21
672.292575263
 31
0.0
  0
LINE
  8
7
  6
CONTINUOUS
 62
     2
 10
837.983333
 20
352.633317
 30
0.0
 11
828.324074737
 21
355.221507451
 31
0.0
  0
LINE
  8
7
  6
CONTINUOUS
 62
     2
 10
837.983333
 20
352.633317
 30
0.0
 11
828.324074737
 21
350.045126549
 31
0.0
  0
LINE
  8
7
  6
CONTINUOUS
 62
     2
 10
767.983333
 20
380.633317
 30
0.0
 11
777.642591263
 21
378.045126549
 31
0.0
  0
LINE
  8
7
  6
CONTINUOUS
 62
     2
 10
767.983333
 20
380.633317
 30
0.0
 11
777.642591263
 21
383.221507451
 31
0.0
  0
LINE
  8
7
  6
CONTINUOUS
 62
     2
 10
767.983333
 20
380.633317
 30
0.0
 11
802.983333
 21
380.633317
 31
0.0
  0
LINE
  8
7
  6
CONTINUOUS
 62
     2
 10
802.983333
 20
380.633317
 30
0.0
 11
793.324074737
 21
383.221507451
 31
0.0
  0
LINE
  8
7
  6
CONTINUOUS
 62
     2
 10
802.983333
 20
380.633317
 30
0.0
 11
793.324074737
 21
378.045126549
 31
0.0
  0
LINE
  8
7
  6
CONTINUOUS
 62
     2
 10
802.983333
 20
374.633317
 30
0.0
 11
802.983333
 21
374.633317
 31
0.0
  0
LINE
  8
7
  6
CONTINUOUS
 62
     2
 10
802.983333
 20
380.633317
 30
0.0
 11
812.642591263
 21
378.045126549
 31
0.0
  0
LINE
  8
7
  6
CONTINUOUS
 62
     2
 10
802.983333
 20
380.633317
 30
0.0
 11
812.642591263
 21
383.221507451
 31
0.0
  0
LINE
  8
7
  6
CONTINUOUS
 62
     2
 10
802.983333
 20
380.633317
 30
0.0
 11
837.983333
 21
380.633317
 31
0.0
  0
LINE
  8
7
  6
CONTINUOUS
 62
     2
 10
837.983333
 20
380.633317
 30
0.0
 11
828.324074737
 21
383.221507451
 31
0.0
  0
LINE
  8
7
  6
CONTINUOUS
 62
     2
 10
837.983333
 20
380.633317
 30
0.0
 11
828.324074737
 21
378.045126549
 31
0.0
  0
LINE
  8
7
  6
CONTINUOUS
 62
     2
 10
837.983333
 20
375.633317
 30
0.0
 11
837.983333
 21
374.633317
 31
0.0
  0
LINE
  8
7
  6
CONTINUOUS
 62
     2
 10
855.983333
 20
324.633317
 30
0.0
 11
865.642591263
 21
322.045126549
 31
0.0
  0
LINE
  8
7
  6
CONTINUOUS
 62
     2
 10
855.983333
 20
324.633317
 30
0.0
 11
865.642591263
 21
327.221507451
 31
0.0
  0
LINE
  8
7
  6
CONTINUOUS
 62
     2
 10
837.983333
 20
324.633317
 30
0.0
 11
893.783333
 21
324.633317
 31
0.0
  0
POINT
  8
7
  6
CONTINUOUS
 62
     2
 10
837.983333
 20
330.633317
 30
0.0
  0
LINE
  8
7
  6
CONTINUOUS
 62
     2
 10
837.983333
 20
324.633317
 30
0.0
 11
828.324074737
 21
327.221507451
 31
0.0
  0
LINE
  8
7
  6
CONTINUOUS
 62
     2
 10
837.983333
 20
324.633317
 30
0.0
 11
828.324074737
 21
322.045126549
 31
0.0
  0
LINE
  8
7
  6
CONTINUOUS
 62
     2
 10
767.983333
 20
478.883317
 30
0.0
 11
767.983333
 21
374.633317
 31
0.0
  0
LINE
  8
7
  6
CONTINUOUS
 62
     2
 10
802.983333
 20
490.633317
 30
0.0
 11
802.983333
 21
374.633317
 31
0.0
  0
LINE
  8
7
  6
CONTINUOUS
 62
     2
 10
837.983333
 20
490.633317
 30
0.0
 11
837.983333
 21
318.633317
 31
0.0
  0
LINE
  8
7
  6
CONTINUOUS
 62
     2
 10
855.983333
 20
500.633317
 30
0.0
 11
855.983333
 21
318.633317
 31
0.0
  0
TEXT
  8
7
  6
CONTINUOUS
 62
     2
 10
780.083333
 20
384.633317
 30
0.0
 40
15.0
  1
Ｐ
 50
0.0
 41
0.9
 51
0.0
  7
KANJI24
  0
TEXT
  8
7
  6
CONTINUOUS
 62
     2
 10
809.083333
 20
384.633317
 30
0.0
 40
15.0
  1
３５
 50
0.0
 41
0.9
 51
0.0
  7
KANJI24
  0
TEXT
  8
7
  6
CONTINUOUS
 62
     2
 10
887.483333
 20
499.233317
 30
0.0
 40
15.0
  1
４０
 50
90.0
 41
0.9
 51
0.0
  7
KANJI24
  0
TEXT
  8
7
  6
CONTINUOUS
 62
     2
 10
870.983333
 20
328.633317
 30
0.0
 40
15.0
  1
１８
 50
0.0
 41
0.9
 51
0.0
  7
KANJI24
  0
TEXT
  8
7
  6
CONTINUOUS
 62
     2
 10
933.483333
 20
671.233317
 30
0.0
 40
15.0
  1
４０
 50
90.0
 41
0.9
 51
0.0
  7
KANJI24
  0
TEXT
  8
7
  6
CONTINUOUS
 62
     2
 10
912.483333
 20
671.233317
 30
0.0
 40
15.0
  1
１６
 50
90.0
 41
0.9
 51
0.0
  7
KANJI24
  0
TEXT
  8
7
  6
CONTINUOUS
 62
     2
 10
884.983333
 20
717.633317
 30
0.0
 40
15.0
  1
１２
 50
90.0
 41
0.9
 51
0.0
  7
KANJI24
  0
TEXT
  8
7
  6
CONTINUOUS
 62
     2
 10
884.983333
 20
624.833317
 30
0.0
 40
15.0
  1
１２
 50
90.0
 41
0.9
 51
0.0
  7
KANJI24
  0
TEXT
  8
7
  6
CONTINUOUS
 62
     2
 10
769.083333
 20
399.633317
 30
-2.5
 40
15.0
  1
ｍｉｎ
 50
0.0
 41
0.9
 51
0.0
  7
KANJI43
  0
CIRCLE
  8
0
  6
CONTINUOUS
 62
     1
 10
837.983333
 20
510.633317
 30
0.0
 40
15.0
  0
CIRCLE
  8
0
  6
CONTINUOUS
 62
     1
 10
837.983317741
 20
521.633317
 30
0.0
 40
3.0
  0
LINE
  8
0
  6
CONTINUOUS
 62
     1
 10
833.783333
 20
498.333317
 30
0.0
 11
835.783333
 21
498.033317
 31
0.0
  0
LINE
  8
0
  6
CONTINUOUS
 62
     1
 10
836.047948385
 20
501.164086231
 30
0.0
 11
833.783333
 21
498.333317
 31
0.0
  0
LINE
  8
0
  6
CONTINUOUS
 62
     1
 10
837.983333
 20
500.733317
 30
0.0
 11
835.783333
 21
498.033317
 31
0.0
  0
LINE
  8
0
  6
CONTINUOUS
 62
     1
 10
836.283333
 20
502.733317
 30
0.0
 11
836.047948385
 21
501.164086231
 31
0.0
  0
LINE
  8
0
  6
CONTINUOUS
 62
     1
 10
842.183333
 20
498.333317
 30
0.0
 11
840.183333
 21
498.033317
 31
0.0
  0
LINE
  8
0
  6
CONTINUOUS
 62
     1
 10
839.918717615
 20
501.164086231
 30
0.0
 11
842.183333
 21
498.333317
 31
0.0
  0
LINE
  8
0
  6
CONTINUOUS
 62
     1
 10
837.983333
 20
500.733317
 30
0.0
 11
840.183333
 21
498.033317
 31
0.0
  0
LINE
  8
0
  6
CONTINUOUS
 62
     1
 10
839.683333
 20
502.733317
 30
0.0
 11
839.918717615
 21
501.164086231
 31
0.0
  0
TEXT
  8
0
  6
CONTINUOUS
 62
     3
 10
860.983333
 20
602.633317
 30
0.0
 40
15.0
  1
φ１６
 50
0.0
 41
0.9
 51
0.0
  7
KANJI24
  0
TEXT
  8
0
  6
CONTINUOUS
 62
     3
 10
901.483333
 20
602.633317
 30
0.0
 40
9.0
  1
ｄ９
 50
0.0
 41
0.9
 51
0.0
  7
KANJI44
  0
TEXT
  8
0
  6
CONTINUOUS
 62
     3
 10
901.483333
 20
611.633317
 30
0.0
 40
9.0
  1
Ｈ１０
 50
0.0
 41
0.9
 51
0.0
  7
KANJI44
  0
LINE
  8
0
  6
CONTINUOUS
 62
     1
 10
845.983333
 20
713.633317
 30
0.0
 11
829.983333
 21
713.633317
 31
0.0
  0
LINE
  8
0
  6
CONTINUOUS
 62
     1
 10
822.983333
 20
705.633317
 30
0.0
 11
852.983333
 21
705.633317
 31
0.0
  0
LINE
  8
0
  6
LTYPE2
 62
     2
 10
833.583333
 20
708.283317
 30
0.0
 11
841.983333
 21
708.283317
 31
0.0
  0
CIRCLE
  8
0
  6
CONTINUOUS
 62
     1
 10
837.983333
 20
708.283317
 30
0.0
 40
2.0
  0
LINE
  8
0
  6
CONTINUOUS
 62
     1
 10
822.983333
 20
702.633317
 30
0.0
 11
822.983333
 21
705.633317
 31
0.0
  0
LINE
  8
0
  6
LTYPE1
 62
     2
 10
829.983333
 20
705.633317
 30
0.0
 11
829.983333
 21
690.633317
 31
0.0
  0
LINE
  8
0
  6
CONTINUOUS
 62
     1
 10
829.983333
 20
705.633317
 30
0.0
 11
829.983333
 21
713.633317
 31
0.0
  0
LINE
  8
0
  6
CONTINUOUS
 62
     1
 10
852.983333
 20
702.633317
 30
0.0
 11
852.983333
 21
705.633317
 31
0.0
  0
LINE
  8
0
  6
CONTINUOUS
 62
     1
 10
845.983333
 20
705.633317
 30
0.0
 11
845.983333
 21
713.633317
 31
0.0
  0
LINE
  8
0
  6
LTYPE1
 62
     2
 10
845.983333
 20
690.633317
 30
0.0
 11
845.983333
 21
705.633317
 31
0.0
  0
LINE
  8
0
  6
CONTINUOUS
 62
     1
 10
822.983333
 20
659.633317
 30
0.0
 11
852.983333
 21
659.633317
 31
0.0
  0
LINE
  8
0
  6
CONTINUOUS
 62
     1
 10
822.983333
 20
662.633317
 30
0.0
 11
822.983333
 21
659.633317
 31
0.0
  0
LINE
  8
0
  6
CONTINUOUS
 62
     1
 10
829.983333
 20
651.633317
 30
0.0
 11
829.983333
 21
659.633317
 31
0.0
  0
LINE
  8
0
  6
CONTINUOUS
 62
     1
 10
829.983333
 20
651.633317
 30
0.0
 11
829.983333
 21
659.633317
 31
0.0
  0
LINE
  8
0
  6
LTYPE1
 62
     2
 10
829.983333
 20
659.633317
 30
0.0
 11
829.983333
 21
674.633317
 31
0.0
  0
LINE
  8
0
  6
CONTINUOUS
 62
     1
 10
845.983333
 20
651.633317
 30
0.0
 11
829.983333
 21
651.633317
 31
0.0
  0
LINE
  8
0
  6
CONTINUOUS
 62
     1
 10
845.983333
 20
651.633317
 30
0.0
 11
829.983333
 21
651.633317
 31
0.0
  0
LINE
  8
0
  6
LTYPE2
 62
     2
 10
833.583333
 20
656.983317
 30
0.0
 11
841.983333
 21
656.983317
 31
0.0
  0
CIRCLE
  8
0
  6
CONTINUOUS
 62
     1
 10
837.983333
 20
656.983317
 30
0.0
 40
2.0
  0
LINE
  8
0
  6
CONTINUOUS
 62
     1
 10
852.983333
 20
662.633317
 30
0.0
 11
852.983333
 21
659.633317
 31
0.0
  0
LINE
  8
0
  6
CONTINUOUS
 62
     1
 10
845.983333
 20
659.633317
 30
0.0
 11
845.983333
 21
651.633317
 31
0.0
  0
LINE
  8
0
  6
CONTINUOUS
 62
     1
 10
845.983333
 20
659.633317
 30
0.0
 11
845.983333
 21
651.633317
 31
0.0
  0
LINE
  8
0
  6
LTYPE1
 62
     2
 10
845.983333
 20
674.633317
 30
0.0
 11
845.983333
 21
659.633317
 31
0.0
  0
ARC
  8
0
  6
CONTINUOUS
 62
     1
 10
1175.983333
 20
456.633317
 30
0.0
 40
6.0
 50
270.0
 51
0.0
  0
ARC
  8
0
  6
CONTINUOUS
 62
     1
 10
1067.983333
 20
456.633317
 30
0.0
 40
6.0
 50
180.0
 51
270.0
  0
LINE
  8
0
  6
CONTINUOUS
 62
     1
 10
1076.983333
 20
487.633317
 30
0.0
 11
1076.983333
 21
465.633317
 31
0.0
  0
LINE
  8
0
  6
CONTINUOUS
 62
     1
 10
1076.983333
 20
487.845833539
 30
0.0
 11
1061.983333
 21
490.633317
 31
0.0
  0
LINE
  8
0
  6
CONTINUOUS
 62
     1
 10
1166.983333
 20
487.633317
 30
0.0
 11
1166.983333
 21
465.633317
 31
0.0
  0
LINE
  8
0
  6
CONTINUOUS
 62
     1
 10
1166.983333
 20
487.845833539
 30
0.0
 11
1181.983333
 21
490.633317
 31
0.0
  0
ARC
  8
0
  6
CONTINUOUS
 62
     1
 10
1080.862012656
 20
551.754637344
 30
0.0
 40
7.0
 50
172.721057981
 51
180.0
  0
ARC
  8
0
  6
CONTINUOUS
 62
     1
 10
1080.862012656
 20
551.754637344
 30
0.0
 40
7.0
 50
105.275864075
 51
172.721057981
  0
CIRCLE
  8
0
  6
CONTINUOUS
 62
     1
 10
1160.983333
 20
549.633317
 30
0.0
 40
5.0
  0
ARC
  8
0
  6
CONTINUOUS
 62
     1
 10
1163.104653344
 20
551.754637344
 30
0.0
 40
7.0
 50
0.0
 51
7.278942019
  0
ARC
  8
0
  6
CONTINUOUS
 62
     1
 10
1163.104653344
 20
551.754637344
 30
0.0
 40
7.0
 50
7.278942019
 51
74.724135925
  0
LINE
  8
0
  6
CONTINUOUS
 62
     1
 10
1170.048240874
 20
552.641537679
 30
0.0
 11
1172.660879324
 21
532.187059279
 31
0.0
  0
ARC
  8
0
  6
CONTINUOUS
 62
     1
 10
1080.862012656
 20
469.511996656
 30
0.0
 40
7.0
 50
180.0
 51
187.278942019
  0
LINE
  8
0
  6
CONTINUOUS
 62
     1
 10
1073.918425126
 20
468.625096321
 30
0.0
 11
1071.305786676
 21
489.079574721
 31
0.0
  0
ARC
  8
0
  6
CONTINUOUS
 62
     1
 10
1163.104653344
 20
469.511996656
 30
0.0
 40
7.0
 50
352.721057981
 51
0.0
  0
LINE
  8
0
  6
CONTINUOUS
 62
     1
 10
1170.048240874
 20
468.625096321
 30
0.0
 11
1172.660879324
 21
489.079574721
 31
0.0
  0
LINE
  8
0
  6
CONTINUOUS
 62
     1
 10
1166.983333
 20
487.633317
 30
0.0
 11
1165.804156288
 21
492.303411207
 31
0.0
  0
LINE
  8
0
  6
CONTINUOUS
 62
     1
 10
1163.498729986
 20
533.714084169
 30
0.0
 11
1181.983333
 21
530.633317
 31
0.0
  0
LINE
  8
0
  6
CONTINUOUS
 62
     1
 10
1101.983333
 20
530.633317
 30
0.0
 11
1141.983333
 21
530.633317
 31
0.0
  0
LINE
  8
0
  6
CONTINUOUS
 62
     1
 10
1141.983333
 20
490.633317
 30
0.0
 11
1141.983333
 21
530.633317
 31
0.0
  0
LINE
  8
0
  6
CONTINUOUS
 62
     1
 10
1101.983333
 20
490.633317
 30
0.0
 11
1141.983333
 21
490.633317
 31
0.0
  0
LINE
  8
0
  6
CONTINUOUS
 62
     1
 10
1101.983333
 20
490.633317
 30
0.0
 11
1101.983333
 21
530.633317
 31
0.0
  0
LINE
  8
0
  6
CONTINUOUS
 62
     1
 10
1113.983333
 20
490.633317
 30
0.0
 11
1113.983333
 21
530.633317
 31
0.0
  0
LINE
  8
0
  6
CONTINUOUS
 62
     1
 10
1129.983333
 20
490.633317
 30
0.0
 11
1129.983333
 21
530.633317
 31
0.0
  0
LINE
  8
0
  6
CONTINUOUS
 62
     1
 10
1113.983333
 20
502.633317
 30
0.0
 11
1129.983333
 21
502.633317
 31
0.0
  0
LINE
  8
0
  6
CONTINUOUS
 62
     1
 10
1101.983333
 20
500.633317
 30
0.0
 11
1113.983333
 21
500.633317
 31
0.0
  0
LINE
  8
0
  6
CONTINUOUS
 62
     1
 10
1113.983333
 20
518.633317
 30
0.0
 11
1129.983333
 21
518.633317
 31
0.0
  0
LINE
  8
0
  6
CONTINUOUS
 62
     1
 10
1101.983333
 20
520.633317
 30
0.0
 11
1113.983333
 21
520.633317
 31
0.0
  0
LINE
  8
0
  6
CONTINUOUS
 62
     1
 10
1141.983333
 20
500.633317
 30
0.0
 11
1129.983333
 21
500.633317
 31
0.0
  0
LINE
  8
0
  6
CONTINUOUS
 62
     1
 10
1141.983333
 20
520.633317
 30
0.0
 11
1129.983333
 21
520.633317
 31
0.0
  0
ARC
  8
0
  6
CONTINUOUS
 62
     1
 10
1171.983333
 20
461.133317
 30
0.0
 40
3.0
 50
0.0
 51
90.0
  0
LINE
  8
0
  6
CONTINUOUS
 62
     1
 10
1171.983333
 20
465.633317
 30
0.0
 11
1171.983333
 21
464.133317
 31
0.0
  0
ARC
  8
0
  6
CONTINUOUS
 62
     1
 10
1071.983333
 20
461.133317
 30
0.0
 40
3.0
 50
90.0
 51
180.0
  0
LINE
  8
0
  6
CONTINUOUS
 62
     1
 10
1068.983333
 20
421.133317
 30
0.0
 11
1174.983333
 21
421.133317
 31
0.0
  0
LINE
  8
0
  6
CONTINUOUS
 62
     1
 10
1068.983333
 20
419.633317
 30
0.0
 11
1174.983333
 21
419.633317
 31
0.0
  0
LINE
  8
0
  6
CONTINUOUS
 62
     1
 10
1174.983333
 20
450.633317
 30
0.0
 11
1175.983333
 21
450.633317
 31
0.0
  0
LINE
  8
0
  6
CONTINUOUS
 62
     1
 10
1067.983333
 20
450.633317
 30
0.0
 11
1068.983333
 21
450.633317
 31
0.0
  0
LINE
  8
0
  6
CONTINUOUS
 62
     1
 10
1071.983333
 20
465.633317
 30
0.0
 11
1071.983333
 21
464.133317
 31
0.0
  0
LINE
  8
0
  6
CONTINUOUS
 62
     1
 10
1106.776426674
 20
465.633317
 30
0.0
 11
1071.983333
 21
465.633317
 31
0.0
  0
LINE
  8
0
  6
CONTINUOUS
 62
     1
 10
1137.190239326
 20
465.633317
 30
0.0
 11
1171.983333
 21
465.633317
 31
0.0
  0
ARC
  8
0
  6
CONTINUOUS
 62
     1
 10
1163.104653344
 20
469.511996656
 30
0.0
 40
7.0
 50
326.35145266
 51
352.721057981
  0
ARC
  8
0
  6
CONTINUOUS
 62
     1
 10
1080.862012656
 20
469.511996656
 30
0.0
 40
7.0
 50
187.278942019
 51
213.64854734
  0
LINE
  8
0
  6
CONTINUOUS
 62
     1
 10
1131.678692715
 20
464.133317
 30
0.0
 11
1171.983333
 21
464.133317
 31
0.0
  0
LINE
  8
0
  6
CONTINUOUS
 62
     1
 10
1071.983333
 20
464.133317
 30
0.0
 11
1112.287973285
 21
464.133317
 31
0.0
  0
LINE
  8
0
  6
CONTINUOUS
 62
     1
 10
1065.983333
 20
559.633317
 30
0.0
 11
1177.983333
 21
559.633317
 31
0.0
  0
CIRCLE
  8
0
  6
CONTINUOUS
 62
     1
 10
1121.983333
 20
620.633317
 30
0.0
 40
15.5
  0
LINE
  8
0
  6
CONTINUOUS
 62
     1
 10
1126.936163189
 20
637.417817979
 30
0.0
 11
1151.313521679
 21
630.224460417
 31
0.0
  0
LINE
  8
0
  6
CONTINUOUS
 62
     1
 10
1126.936163189
 20
603.848816021
 30
0.0
 11
1151.313521679
 21
611.042173583
 31
0.0
  0
LINE
  8
0
  6
CONTINUOUS
 62
     1
 10
1136.654733751
 20
615.633317
 30
0.0
 11
1139.823078962
 21
615.633317
 31
0.0
  0
LINE
  8
0
  6
CONTINUOUS
 62
     1
 10
1136.654733751
 20
625.633317
 30
0.0
 11
1139.823078962
 21
625.633317
 31
0.0
  0
ARC
  8
0
  6
LTYPE2
 62
     2
 10
1121.983333
 20
620.633317
 30
0.0
 40
26.5
 50
345.963756532
 51
14.715071651
  0
LINE
  8
0
  6
CONTINUOUS
 62
     1
 10
1117.030502811
 20
637.417817979
 30
0.0
 11
1092.653144321
 21
630.224460417
 31
0.0
  0
LINE
  8
0
  6
CONTINUOUS
 62
     1
 10
1117.030502811
 20
603.848816021
 30
0.0
 11
1092.653144321
 21
611.042173583
 31
0.0
  0
ARC
  8
0
  6
CONTINUOUS
 62
     1
 10
1095.483333
 20
620.633317
 30
0.0
 40
10.0
 50
30.0
 51
180.0
  0
ARC
  8
0
  6
CONTINUOUS
 62
     1
 10
1095.483333
 20
620.633317
 30
0.0
 40
10.0
 50
180.0
 51
330.0
  0
LINE
  8
0
  6
CONTINUOUS
 62
     1
 10
1107.311932249
 20
615.633317
 30
0.0
 11
1104.143587038
 21
615.633317
 31
0.0
  0
LINE
  8
0
  6
CONTINUOUS
 62
     1
 10
1107.311932249
 20
625.633317
 30
0.0
 11
1104.143587038
 21
625.633317
 31
0.0
  0
ARC
  8
0
  6
LTYPE2
 62
     2
 10
1121.983333
 20
620.633317
 30
0.0
 40
26.5
 50
165.284928349
 51
194.036243468
  0
ARC
  8
0
  6
CONTINUOUS
 62
     1
 10
1121.983333
 20
620.633317
 30
0.0
 40
17.5
 50
16.601549599
 51
163.398450401
  0
ARC
  8
0
  6
CONTINUOUS
 62
     1
 10
1121.983333
 20
620.633317
 30
0.0
 40
17.5
 50
196.601549599
 51
343.398450401
  0
ARC
  8
0
  6
LTYPE2
 62
     2
 10
1121.983333
 20
620.633317
 30
0.0
 40
51.0
 50
34.902495616
 51
52.696051722
  0
LINE
  8
0
  6
LTYPE2
 62
     2
 10
1153.983333
 20
652.633317
 30
0.0
 11
1162.983333
 21
661.633317
 31
0.0
  0
ARC
  8
0
  6
LTYPE2
 62
     2
 10
1121.983333
 20
620.633317
 30
0.0
 40
25.0
 50
63.434948823
 51
114.623564786
  0
ARC
  8
0
  6
LTYPE2
 62
     2
 10
1121.983333
 20
620.633317
 30
0.0
 40
25.0
 50
245.376435214
 51
296.565051177
  0
ARC
  8
0
  6
LTYPE2
 62
     2
 10
1121.983333
 20
620.633317
 30
0.0
 40
51.0
 50
124.902495616
 51
142.696051722
  0
LINE
  8
0
  6
LTYPE2
 62
     2
 10
1089.983333
 20
652.633317
 30
0.0
 11
1080.983333
 21
661.633317
 31
0.0
  0
ARC
  8
0
  6
LTYPE2
 62
     2
 10
1121.983333
 20
620.633317
 30
0.0
 40
51.0
 50
307.303948278
 51
325.097504384
  0
LINE
  8
0
  6
LTYPE2
 62
     2
 10
1153.983333
 20
588.633317
 30
0.0
 11
1162.983333
 21
579.633317
 31
0.0
  0
ARC
  8
0
  6
LTYPE2
 62
     2
 10
1121.983333
 20
620.633317
 30
0.0
 40
51.0
 50
217.303948278
 51
235.097504384
  0
LINE
  8
0
  6
LTYPE2
 62
     2
 10
1089.983333
 20
588.633317
 30
0.0
 11
1080.983333
 21
579.633317
 31
0.0
  0
LINE
  8
0
  6
LTYPE2
 62
     2
 10
1163.983333
 20
671.633317
 30
0.0
 11
1180.983333
 21
671.633317
 31
0.0
  0
LINE
  8
0
  6
LTYPE2
 62
     2
 10
1172.983333
 20
679.633317
 30
0.0
 11
1172.983333
 21
663.133317
 31
0.0
  0
LINE
  8
0
  6
LTYPE2
 62
     2
 10
1079.983333
 20
671.633317
 30
0.0
 11
1062.983333
 21
671.633317
 31
0.0
  0
LINE
  8
0
  6
LTYPE2
 62
     2
 10
1070.983333
 20
679.633317
 30
0.0
 11
1070.983333
 21
663.133317
 31
0.0
  0
LINE
  8
0
  6
LTYPE2
 62
     2
 10
1163.983333
 20
569.633317
 30
0.0
 11
1180.983333
 21
569.633317
 31
0.0
  0
LINE
  8
0
  6
LTYPE2
 62
     2
 10
1172.983333
 20
561.633317
 30
0.0
 11
1172.983333
 21
578.133317
 31
0.0
  0
LINE
  8
0
  6
LTYPE2
 62
     2
 10
1079.983333
 20
569.633317
 30
0.0
 11
1062.983333
 21
569.633317
 31
0.0
  0
LINE
  8
0
  6
LTYPE2
 62
     2
 10
1070.983333
 20
561.633317
 30
0.0
 11
1070.983333
 21
578.133317
 31
0.0
  0
LINE
  8
0
  6
CONTINUOUS
 62
     1
 10
1151.983333
 20
690.633317
 30
0.0
 11
1151.983333
 21
693.633317
 31
0.0
  0
ARC
  8
0
  6
CONTINUOUS
 62
     1
 10
1147.983333
 20
687.633317
 30
0.0
 40
3.0
 50
90.0
 51
180.0
  0
LINE
  8
0
  6
CONTINUOUS
 62
     1
 10
1144.983333
 20
676.786936242
 30
0.0
 11
1144.983333
 21
687.633317
 31
0.0
  0
ARC
  8
0
  6
CONTINUOUS
 62
     1
 10
1140.983333
 20
676.786936242
 30
0.0
 40
4.0
 50
304.936144888
 51
0.0
  0
ARC
  8
0
  6
CONTINUOUS
 62
     1
 10
1095.983333
 20
687.633317
 30
0.0
 40
3.0
 50
0.0
 51
90.0
  0
LINE
  8
0
  6
CONTINUOUS
 62
     1
 10
1098.983333
 20
676.786936242
 30
0.0
 11
1098.983333
 21
687.633317
 31
0.0
  0
ARC
  8
0
  6
CONTINUOUS
 62
     1
 10
1102.983333
 20
676.786936242
 30
0.0
 40
4.0
 50
180.0
 51
235.063855112
  0
CIRCLE
  8
0
  6
CONTINUOUS
 62
     1
 10
1121.983333
 20
715.633317
 30
0.0
 40
17.0
  0
LINE
  8
0
  6
LTYPE2
 62
     2
 10
1098.983333
 20
715.633317
 30
0.0
 11
1144.983333
 21
715.633317
 31
0.0
  0
ARC
  8
0
  6
CONTINUOUS
 62
     1
 10
1079.983333
 20
737.653362888
 30
0.0
 40
2.0
 50
90.0
 51
180.0
  0
ARC
  8
0
  6
CONTINUOUS
 62
     1
 10
1087.983333
 20
743.633317
 30
0.0
 40
2.0
 50
90.0
 51
180.0
  0
LINE
  8
0
  6
CONTINUOUS
 62
     1
 10
1087.983333
 20
745.633317
 30
0.0
 11
1155.983333
 21
745.633317
 31
0.0
  0
ARC
  8
0
  6
CONTINUOUS
 62
     1
 10
1155.983333
 20
743.633317
 30
0.0
 40
2.0
 50
0.0
 51
90.0
  0
LINE
  8
0
  6
CONTINUOUS
 62
     1
 10
1163.983333
 20
739.653362888
 30
0.0
 11
1079.983333
 21
739.653362888
 31
0.0
  0
ARC
  8
0
  6
CONTINUOUS
 62
     1
 10
1163.983333
 20
737.653362888
 30
0.0
 40
2.0
 50
0.0
 51
90.0
  0
ARC
  8
0
  6
CONTINUOUS
 62
     1
 10
1079.983333
 20
741.653362888
 30
0.0
 40
2.0
 50
90.0
 51
180.0
  0
ARC
  8
0
  6
CONTINUOUS
 62
     1
 10
1087.983333
 20
734.633317
 30
0.0
 40
2.0
 50
90.0
 51
180.0
  0
LINE
  8
0
  6
CONTINUOUS
 62
     1
 10
1087.983333
 20
736.633317
 30
0.0
 11
1155.983333
 21
736.633317
 31
0.0
  0
ARC
  8
0
  6
CONTINUOUS
 62
     1
 10
1155.983333
 20
734.633317
 30
0.0
 40
2.0
 50
0.0
 51
90.0
  0
LINE
  8
0
  6
CONTINUOUS
 62
     1
 10
1163.983333
 20
743.653362888
 30
0.0
 11
1079.983333
 21
743.653362888
 31
0.0
  0
ARC
  8
0
  6
CONTINUOUS
 62
     1
 10
1163.983333
 20
741.653362888
 30
0.0
 40
2.0
 50
0.0
 51
90.0
  0
LINE
  8
0
  6
CONTINUOUS
 62
     1
 10
1091.983333
 20
690.633317
 30
0.0
 11
1151.983333
 21
690.633317
 31
0.0
  0
LINE
  8
0
  6
CONTINUOUS
 62
     1
 10
1091.983333
 20
690.633317
 30
0.0
 11
1091.983333
 21
693.633317
 31
0.0
  0
LINE
  8
0
  6
CONTINUOUS
 62
     1
 10
1157.983333
 20
695.633317
 30
0.0
 11
1163.983333
 21
695.633317
 31
0.0
  0
LINE
  8
0
  6
CONTINUOUS
 62
     1
 10
1165.983333
 20
697.633317
 30
0.0
 11
1165.983333
 21
741.653362888
 31
0.0
  0
ARC
  8
0
  6
CONTINUOUS
 62
     1
 10
1163.983333
 20
697.633317
 30
0.0
 40
2.0
 50
270.0
 51
0.0
  0
LINE
  8
0
  6
CONTINUOUS
 62
     1
 10
1157.983333
 20
695.633317
 30
0.0
 11
1157.983333
 21
734.633317
 31
0.0
  0
ARC
  8
0
  6
CONTINUOUS
 62
     1
 10
1155.983333
 20
695.633317
 30
0.0
 40
2.0
 50
270.0
 51
0.0
  0
LINE
  8
0
  6
CONTINUOUS
 62
     1
 10
1085.983333
 20
695.633317
 30
0.0
 11
1085.983333
 21
734.633317
 31
0.0
  0
LINE
  8
0
  6
CONTINUOUS
 62
     1
 10
1087.983333
 20
693.633317
 30
0.0
 11
1155.983333
 21
693.633317
 31
0.0
  0
ARC
  8
0
  6
CONTINUOUS
 62
     1
 10
1087.983333
 20
695.633317
 30
0.0
 40
2.0
 50
180.0
 51
270.0
  0
LINE
  8
0
  6
CONTINUOUS
 62
     1
 10
1085.983333
 20
695.633317
 30
0.0
 11
1079.983333
 21
695.633317
 31
0.0
  0
LINE
  8
0
  6
CONTINUOUS
 62
     1
 10
1077.983333
 20
697.633317
 30
0.0
 11
1077.983333
 21
741.653362888
 31
0.0
  0
ARC
  8
0
  6
CONTINUOUS
 62
     1
 10
1079.983333
 20
697.633317
 30
0.0
 40
2.0
 50
180.0
 51
270.0
  0
CIRCLE
  8
0
  6
CONTINUOUS
 62
     2
 10
1121.983333
 20
715.633317
 30
0.0
 40
15.0
  0
LINE
  8
0
  6
CONTINUOUS
 62
     1
 10
1181.983333
 20
456.633317
 30
0.0
 11
1181.983333
 21
561.633317
 31
0.0
  0
LINE
  8
0
  6
CONTINUOUS
 62
     1
 10
1163.991553679
 20
558.698224874
 30
0.0
 11
1156.67067019
 21
559.633317
 31
0.0
  0
LINE
  8
0
  6
CONTINUOUS
 62
     1
 10
1079.975112321
 20
558.698224874
 30
0.0
 11
1087.29599581
 21
559.633317
 31
0.0
  0
LINE
  8
0
  6
LTYPE2
 62
     2
 10
1152.898435543
 20
549.633317
 30
0.0
 11
1169.398435543
 21
549.633317
 31
0.0
  0
LINE
  8
0
  6
LTYPE2
 62
     2
 10
1160.983333
 20
557.306194017
 30
0.0
 11
1160.983333
 21
541.006194017
 31
0.0
  0
LINE
  8
0
  6
LTYPE2
 62
     2
 10
1091.068230457
 20
549.633317
 30
0.0
 11
1074.568230457
 21
549.633317
 31
0.0
  0
LINE
  8
0
  6
LTYPE2
 62
     2
 10
1082.983333
 20
557.306194017
 30
0.0
 11
1082.983333
 21
541.006194017
 31
0.0
  0
LINE
  8
0
  6
LTYPE1
 62
     2
 10
1159.983333
 20
502.633317
 30
0.0
 11
1159.983333
 21
518.633317
 31
0.0
  0
LINE
  8
0
  6
LTYPE1
 62
     2
 10
1159.983333
 20
502.633317
 30
0.0
 11
1181.983333
 21
502.633317
 31
0.0
  0
LINE
  8
0
  6
LTYPE1
 62
     2
 10
1159.983333
 20
518.633317
 30
0.0
 11
1181.983333
 21
518.633317
 31
0.0
  0
LINE
  8
0
  6
LTYPE1
 62
     2
 10
1083.983333
 20
502.633317
 30
0.0
 11
1083.983333
 21
518.633317
 31
0.0
  0
LINE
  8
0
  6
LTYPE1
 62
     2
 10
1083.983333
 20
502.633317
 30
0.0
 11
1061.983333
 21
502.633317
 31
0.0
  0
LINE
  8
0
  6
LTYPE1
 62
     2
 10
1083.983333
 20
518.633317
 30
0.0
 11
1061.983333
 21
518.633317
 31
0.0
  0
LINE
  8
0
  6
LTYPE3
 62
     2
 10
1049.983333
 20
620.633317
 30
0.0
 11
1189.501190143
 21
620.633317
 31
0.0
  0
LINE
  8
0
  6
LTYPE2
 62
     2
 10
1121.983333
 20
409.586888429
 30
0.0
 11
1121.983333
 21
753.586888429
 31
0.0
  0
LINE
  8
7
  6
CONTINUOUS
 62
     2
 10
1187.983333
 20
518.633317
 30
0.0
 11
1241.983333
 21
518.633317
 31
0.0
  0
LINE
  8
7
  6
CONTINUOUS
 62
     2
 10
1235.983333
 20
518.633317
 30
0.0
 11
1238.571523451
 21
528.292575263
 31
0.0
  0
LINE
  8
7
  6
CONTINUOUS
 62
     2
 10
1235.983333
 20
518.633317
 30
0.0
 11
1233.395142549
 21
528.292575263
 31
0.0
  0
LINE
  8
7
  6
CONTINUOUS
 62
     2
 10
1235.983333
 20
502.633317
 30
0.0
 11
1233.395142549
 21
492.974058737
 31
0.0
  0
LINE
  8
7
  6
CONTINUOUS
 62
     2
 10
1235.983333
 20
502.633317
 30
0.0
 11
1238.571523451
 21
492.974058737
 31
0.0
  0
LINE
  8
7
  6
CONTINUOUS
 62
     2
 10
1187.983333
 20
502.633317
 30
0.0
 11
1241.983333
 21
502.633317
 31
0.0
  0
LINE
  8
7
  6
CONTINUOUS
 62
     2
 10
1198.983333
 20
510.633317
 30
0.0
 11
1273.983333
 21
510.633317
 31
0.0
  0
LINE
  8
7
  6
CONTINUOUS
 62
     2
 10
1267.983333
 20
510.633317
 30
0.0
 11
1270.571523451
 21
520.292575263
 31
0.0
  0
LINE
  8
7
  6
CONTINUOUS
 62
     2
 10
1267.983333
 20
510.633317
 30
0.0
 11
1265.395142549
 21
520.292575263
 31
0.0
  0
LINE
  8
7
  6
CONTINUOUS
 62
     2
 10
1267.983333
 20
510.633317
 30
0.0
 11
1267.983333
 21
620.633317
 31
0.0
  0
LINE
  8
7
  6
CONTINUOUS
 62
     2
 10
1267.983333
 20
620.633317
 30
0.0
 11
1265.395142549
 21
610.974058737
 31
0.0
  0
LINE
  8
7
  6
CONTINUOUS
 62
     2
 10
1267.983333
 20
620.633317
 30
0.0
 11
1270.571523451
 21
610.974058737
 31
0.0
  0
LINE
  8
7
  6
CONTINUOUS
 62
     2
 10
1161.983333
 20
745.633317
 30
0.0
 11
1305.983333
 21
745.633317
 31
0.0
  0
LINE
  8
7
  6
CONTINUOUS
 62
     2
 10
1299.983333
 20
745.633317
 30
0.0
 11
1297.395142549
 21
735.974058737
 31
0.0
  0
LINE
  8
7
  6
CONTINUOUS
 62
     2
 10
1299.983333
 20
745.633317
 30
0.0
 11
1302.571523451
 21
735.974058737
 31
0.0
  0
LINE
  8
7
  6
CONTINUOUS
 62
     2
 10
1299.983333
 20
745.633317
 30
0.0
 11
1299.983333
 21
408.133707
 31
0.0
  0
LINE
  8
7
  6
CONTINUOUS
 62
     2
 10
1299.983333
 20
408.133707
 30
0.0
 11
1302.571523451
 21
417.792965263
 31
0.0
  0
LINE
  8
7
  6
CONTINUOUS
 62
     2
 10
1299.983333
 20
408.133707
 30
0.0
 11
1297.395142549
 21
417.792965263
 31
0.0
  0
LINE
  8
7
  6
CONTINUOUS
 62
     2
 10
1179.336235
 20
408.133707
 30
0.0
 11
1305.983333
 21
408.133707
 31
0.0
  0
LINE
  8
7
  6
CONTINUOUS
 62
     2
 10
1267.983333
 20
510.633317
 30
0.0
 11
1265.395142549
 21
500.974058737
 31
0.0
  0
LINE
  8
7
  6
CONTINUOUS
 62
     2
 10
1267.983333
 20
510.633317
 30
0.0
 11
1270.571523451
 21
500.974058737
 31
0.0
  0
LINE
  8
7
  6
CONTINUOUS
 62
     2
 10
1267.983333
 20
510.633317
 30
0.0
 11
1267.983333
 21
408.133707
 31
0.0
  0
LINE
  8
7
  6
CONTINUOUS
 62
     2
 10
1267.983333
 20
408.133707
 30
0.0
 11
1270.571523451
 21
417.792965263
 31
0.0
  0
LINE
  8
7
  6
CONTINUOUS
 62
     2
 10
1267.983333
 20
408.133707
 30
0.0
 11
1265.395142549
 21
417.792965263
 31
0.0
  0
LINE
  8
7
  6
CONTINUOUS
 62
     2
 10
1270.983333
 20
408.133707
 30
0.0
 11
1273.983333
 21
408.133707
 31
0.0
  0
LINE
  8
7
  6
CONTINUOUS
 62
     2
 10
1267.983333
 20
620.633317
 30
0.0
 11
1270.571523451
 21
630.292575263
 31
0.0
  0
LINE
  8
7
  6
CONTINUOUS
 62
     2
 10
1267.983333
 20
620.633317
 30
0.0
 11
1265.395142549
 21
630.292575263
 31
0.0
  0
LINE
  8
7
  6
CONTINUOUS
 62
     2
 10
1267.983333
 20
620.633317
 30
0.0
 11
1267.983333
 21
745.633317
 31
0.0
  0
LINE
  8
7
  6
CONTINUOUS
 62
     2
 10
1267.983333
 20
745.633317
 30
0.0
 11
1265.395142549
 21
735.974058737
 31
0.0
  0
LINE
  8
7
  6
CONTINUOUS
 62
     2
 10
1267.983333
 20
745.633317
 30
0.0
 11
1270.571523451
 21
735.974058737
 31
0.0
  0
LINE
  8
7
  6
CONTINUOUS
 62
     2
 10
1262.983333
 20
745.633317
 30
0.0
 11
1261.983333
 21
745.633317
 31
0.0
  0
LINE
  8
7
  6
CONTINUOUS
 62
     2
 10
1235.983333
 20
633.633317
 30
0.0
 11
1235.983333
 21
487.633317
 31
0.0
  0
LINE
  8
7
  6
CONTINUOUS
 62
     2
 10
1238.983333
 20
620.633317
 30
0.0
 11
1273.983333
 21
620.633317
 31
0.0
  0
LINE
  8
0
  6
CONTINUOUS
 62
     1
 10
1141.983333
 20
421.133317
 30
0.0
 11
1141.983333
 21
464.133317
 31
0.0
  0
LINE
  8
0
  6
CONTINUOUS
 62
     1
 10
1101.983333
 20
421.133317
 30
0.0
 11
1101.983333
 21
464.133317
 31
0.0
  0
LINE
  8
0
  6
LTYPE2
 62
     2
 10
1105.983333
 20
438.133317
 30
0.0
 11
1136.983333
 21
438.133317
 31
0.0
  0
CIRCLE
  8
0
  6
CONTINUOUS
 62
     2
 10
1121.983333
 20
438.133317
 30
0.0
 40
11.0
  0
CIRCLE
  8
0
  6
CONTINUOUS
 62
     2
 10
1121.983333
 20
438.133317
 30
0.0
 40
9.5
  0
LINE
  8
7
  6
CONTINUOUS
 62
     2
 10
1060.983333
 20
682.633332259
 30
0.0
 11
1060.983333
 21
776.633317
 31
0.0
  0
LINE
  8
7
  6
CONTINUOUS
 62
     2
 10
1060.983333
 20
770.633317
 30
0.0
 11
1070.642591263
 21
768.045126549
 31
0.0
  0
LINE
  8
7
  6
CONTINUOUS
 62
     2
 10
1060.983333
 20
770.633317
 30
0.0
 11
1070.642591263
 21
773.221507451
 31
0.0
  0
LINE
  8
7
  6
CONTINUOUS
 62
     2
 10
1060.983333
 20
770.633317
 30
0.0
 11
1182.983333
 21
770.633317
 31
0.0
  0
LINE
  8
7
  6
CONTINUOUS
 62
     2
 10
1182.983333
 20
770.633317
 30
0.0
 11
1173.324074737
 21
773.221507451
 31
0.0
  0
LINE
  8
7
  6
CONTINUOUS
 62
     2
 10
1182.983333
 20
770.633317
 30
0.0
 11
1173.324074737
 21
768.045126549
 31
0.0
  0
LINE
  8
7
  6
CONTINUOUS
 62
     2
 10
1182.983333
 20
682.633332259
 30
0.0
 11
1182.983333
 21
776.633317
 31
0.0
  0
LINE
  8
0
  6
LTYPE3
 62
     2
 10
1035.65801509
 20
510.633317
 30
0.0
 11
1192.983333
 21
510.633317
 31
0.0
  0
LINE
  8
0
  6
CONTINUOUS
 62
     1
 10
1061.983333
 20
456.633317
 30
0.0
 11
1061.983333
 21
561.633317
 31
0.0
  0
CIRCLE
  8
0
  6
CONTINUOUS
 62
     1
 10
1121.983333
 20
510.633317
 30
0.0
 40
31.75
  0
LINE
  8
0
  6
CONTINUOUS
 62
     1
 10
1073.918425126
 20
552.641537679
 30
0.0
 11
1071.305786676
 21
532.187059279
 31
0.0
  0
LINE
  8
0
  6
CONTINUOUS
 62
     1
 10
1080.467936014
 20
533.714084169
 30
0.0
 11
1061.983333
 21
530.633317
 31
0.0
  0
LINE
  8
0
  6
CONTINUOUS
 62
     1
 10
1076.983333
 20
487.633317
 30
0.0
 11
1078.162509712
 21
492.303411207
 31
0.0
  0
LINE
  8
0
  6
CONTINUOUS
 62
     1
 10
1088.226768359
 20
660.695760841
 30
0.0
 11
1090.532649559
 21
656.695762841
 31
0.0
  0
LINE
  8
0
  6
CONTINUOUS
 62
     1
 10
1088.226768359
 20
652.695764841
 30
0.0
 11
1090.532649559
 21
656.695762841
 31
0.0
  0
LINE
  8
0
  6
CONTINUOUS
 62
     1
 10
1083.615005959
 20
652.695764841
 30
0.0
 11
1081.309124759
 21
656.695762841
 31
0.0
  0
LINE
  8
0
  6
CONTINUOUS
 62
     1
 10
1083.615005959
 20
652.695764841
 30
0.0
 11
1088.226768359
 21
652.695764841
 31
0.0
  0
CIRCLE
  8
0
  6
CONTINUOUS
 62
     1
 10
1121.983333
 20
645.633317
 30
0.0
 40
3.999998
  0
LINE
  8
0
  6
CONTINUOUS
 62
     1
 10
1125.983331
 20
647.9391982
 30
0.0
 11
1125.983331
 21
643.3274358
 31
0.0
  0
LINE
  8
0
  6
CONTINUOUS
 62
     1
 10
1125.983331
 20
643.3274358
 30
0.0
 11
1121.983333
 21
641.0215546
 31
0.0
  0
LINE
  8
0
  6
CONTINUOUS
 62
     1
 10
1117.983335
 20
647.9391982
 30
0.0
 11
1117.983335
 21
643.3274358
 31
0.0
  0
LINE
  8
0
  6
CONTINUOUS
 62
     1
 10
1117.983335
 20
643.3274358
 30
0.0
 11
1121.983333
 21
641.0215546
 31
0.0
  0
LINE
  8
0
  6
CONTINUOUS
 62
     1
 10
1125.983331
 20
647.9391982
 30
0.0
 11
1121.983333
 21
650.2450794
 31
0.0
  0
LINE
  8
0
  6
CONTINUOUS
 62
     1
 10
1117.983335
 20
647.9391982
 30
0.0
 11
1121.983333
 21
650.2450794
 31
0.0
  0
LINE
  8
0
  6
CONTINUOUS
 62
     1
 10
1098.990735885
 20
618.608317
 30
0.0
 11
1095.483333
 21
616.583317
 31
0.0
  0
LINE
  8
0
  6
CONTINUOUS
 62
     1
 10
1095.483333
 20
616.583317
 30
0.0
 11
1091.975930115
 21
618.608317
 31
0.0
  0
LINE
  8
0
  6
CONTINUOUS
 62
     1
 10
1098.990735885
 20
622.658317
 30
0.0
 11
1098.990735885
 21
618.608317
 31
0.0
  0
LINE
  8
0
  6
CONTINUOUS
 62
     1
 10
1091.975930115
 20
618.608317
 30
0.0
 11
1091.975930115
 21
622.658317
 31
0.0
  0
CIRCLE
  8
0
  6
CONTINUOUS
 62
     1
 10
1095.483333
 20
620.633317
 30
0.0
 40
3.5
  0
LINE
  8
0
  6
CONTINUOUS
 62
     1
 10
1091.975930115
 20
622.658317
 30
0.0
 11
1095.483333
 21
624.683317
 31
0.0
  0
LINE
  8
0
  6
CONTINUOUS
 62
     1
 10
1095.483333
 20
624.683317
 30
0.0
 11
1098.990735885
 21
622.658317
 31
0.0
  0
LINE
  8
0
  6
CONTINUOUS
 62
     1
 10
1083.615005959
 20
580.570873159
 30
0.0
 11
1088.226768359
 21
580.570873159
 31
0.0
  0
LINE
  8
0
  6
CONTINUOUS
 62
     1
 10
1088.226768359
 20
580.570873159
 30
0.0
 11
1090.532649559
 21
584.570871159
 31
0.0
  0
LINE
  8
0
  6
CONTINUOUS
 62
     1
 10
1088.226768359
 20
588.570869159
 30
0.0
 11
1090.532649559
 21
584.570871159
 31
0.0
  0
LINE
  8
0
  6
CONTINUOUS
 62
     1
 10
1083.615005959
 20
588.570869159
 30
0.0
 11
1088.226768359
 21
588.570869159
 31
0.0
  0
LINE
  8
0
  6
CONTINUOUS
 62
     1
 10
1083.615005959
 20
580.570873159
 30
0.0
 11
1081.309124759
 21
584.570871159
 31
0.0
  0
LINE
  8
0
  6
CONTINUOUS
 62
     1
 10
1083.615005959
 20
588.570869159
 30
0.0
 11
1081.309124759
 21
584.570871159
 31
0.0
  0
CIRCLE
  8
0
  6
CONTINUOUS
 62
     1
 10
1085.920887159
 20
584.570871159
 30
0.0
 40
3.999998
  0
ARC
  8
0
  6
CONTINUOUS
 62
     1
 10
1065.983333
 20
564.633317
 30
0.0
 40
5.0
 50
180.0
 51
270.0
  0
LINE
  8
0
  6
CONTINUOUS
 62
     1
 10
1077.483283
 20
565.886287
 30
0.0
 11
1077.483283
 21
573.380347
 31
0.0
  0
LINE
  8
0
  6
CONTINUOUS
 62
     1
 10
1077.483283
 20
573.380347
 30
0.0
 11
1070.983333
 21
577.127377
 31
0.0
  0
LINE
  8
0
  6
CONTINUOUS
 62
     1
 10
1064.483383
 20
565.886287
 30
0.0
 11
1070.983333
 21
562.139257
 31
0.0
  0
LINE
  8
0
  6
CONTINUOUS
 62
     1
 10
1077.483283
 20
565.886287
 30
0.0
 11
1070.983333
 21
562.139257
 31
0.0
  0
LINE
  8
0
  6
CONTINUOUS
 62
     1
 10
1064.483383
 20
573.380347
 30
0.0
 11
1070.983333
 21
577.127377
 31
0.0
  0
LINE
  8
0
  6
CONTINUOUS
 62
     1
 10
1064.483383
 20
565.886287
 30
0.0
 11
1064.483383
 21
573.380347
 31
0.0
  0
CIRCLE
  8
0
  6
CONTINUOUS
 62
     1
 10
1070.983333
 20
569.633317
 30
0.0
 40
6.49995
  0
ARC
  8
0
  6
CONTINUOUS
 62
     1
 10
1177.983333
 20
564.633317
 30
0.0
 40
5.0
 50
270.0
 51
0.0
  0
LINE
  8
0
  6
CONTINUOUS
 62
     1
 10
1154.045780841
 20
582.264989959
 30
0.0
 11
1154.045780841
 21
586.876752359
 31
0.0
  0
LINE
  8
0
  6
CONTINUOUS
 62
     1
 10
1162.045776841
 20
586.876752359
 30
0.0
 11
1158.045778841
 21
589.182633559
 31
0.0
  0
LINE
  8
0
  6
CONTINUOUS
 62
     1
 10
1154.045780841
 20
586.876752359
 30
0.0
 11
1158.045778841
 21
589.182633559
 31
0.0
  0
LINE
  8
0
  6
CONTINUOUS
 62
     1
 10
1162.045776841
 20
582.264989959
 30
0.0
 11
1158.045778841
 21
579.959108759
 31
0.0
  0
LINE
  8
0
  6
CONTINUOUS
 62
     1
 10
1154.045780841
 20
582.264989959
 30
0.0
 11
1158.045778841
 21
579.959108759
 31
0.0
  0
LINE
  8
0
  6
CONTINUOUS
 62
     1
 10
1162.045776841
 20
582.264989959
 30
0.0
 11
1162.045776841
 21
586.876752359
 31
0.0
  0
CIRCLE
  8
0
  6
CONTINUOUS
 62
     1
 10
1158.045778841
 20
584.570871159
 30
0.0
 40
3.999998
  0
LINE
  8
0
  6
CONTINUOUS
 62
     1
 10
1166.483383
 20
565.886287
 30
0.0
 11
1166.483383
 21
573.380347
 31
0.0
  0
LINE
  8
0
  6
CONTINUOUS
 62
     1
 10
1166.483383
 20
565.886287
 30
0.0
 11
1172.983333
 21
562.139257
 31
0.0
  0
LINE
  8
0
  6
CONTINUOUS
 62
     1
 10
1179.483283
 20
565.886287
 30
0.0
 11
1179.483283
 21
573.380347
 31
0.0
  0
LINE
  8
0
  6
CONTINUOUS
 62
     1
 10
1179.483283
 20
565.886287
 30
0.0
 11
1172.983333
 21
562.139257
 31
0.0
  0
LINE
  8
0
  6
CONTINUOUS
 62
     1
 10
1179.483283
 20
573.380347
 30
0.0
 11
1172.983333
 21
577.127377
 31
0.0
  0
LINE
  8
0
  6
CONTINUOUS
 62
     1
 10
1166.483383
 20
573.380347
 30
0.0
 11
1172.983333
 21
577.127377
 31
0.0
  0
CIRCLE
  8
0
  6
CONTINUOUS
 62
     1
 10
1172.983333
 20
569.633317
 30
0.0
 40
6.49995
  0
LINE
  8
0
  6
CONTINUOUS
 62
     1
 10
1162.045776841
 20
659.001644041
 30
0.0
 11
1158.045778841
 21
661.307525241
 31
0.0
  0
LINE
  8
0
  6
CONTINUOUS
 62
     1
 10
1154.045780841
 20
659.001644041
 30
0.0
 11
1158.045778841
 21
661.307525241
 31
0.0
  0
LINE
  8
0
  6
CONTINUOUS
 62
     1
 10
1162.045776841
 20
659.001644041
 30
0.0
 11
1162.045776841
 21
654.389881641
 31
0.0
  0
LINE
  8
0
  6
CONTINUOUS
 62
     1
 10
1162.045776841
 20
654.389881641
 30
0.0
 11
1158.045778841
 21
652.084000441
 31
0.0
  0
LINE
  8
0
  6
CONTINUOUS
 62
     1
 10
1154.045780841
 20
654.389881641
 30
0.0
 11
1158.045778841
 21
652.084000441
 31
0.0
  0
LINE
  8
0
  6
CONTINUOUS
 62
     1
 10
1154.045780841
 20
659.001644041
 30
0.0
 11
1154.045780841
 21
654.389881641
 31
0.0
  0
CIRCLE
  8
0
  6
CONTINUOUS
 62
     1
 10
1158.045778841
 20
656.695762841
 30
0.0
 40
3.999998
  0
CIRCLE
  8
0
  6
CONTINUOUS
 62
     1
 10
1121.983333
 20
620.633317
 30
0.0
 40
42.0
  0
ARC
  8
0
  6
CONTINUOUS
 62
     1
 10
1148.483333
 20
620.633317
 30
0.0
 40
10.0
 50
0.0
 51
150.0
  0
ARC
  8
0
  6
CONTINUOUS
 62
     1
 10
1148.483333
 20
620.633317
 30
0.0
 40
10.0
 50
210.0
 51
0.0
  0
CIRCLE
  8
0
  6
CONTINUOUS
 62
     1
 10
1148.483333
 20
620.633317
 30
0.0
 40
3.5
  0
LINE
  8
0
  6
CONTINUOUS
 62
     1
 10
1151.990735885
 20
622.658317
 30
0.0
 11
1148.483333
 21
624.683317
 31
0.0
  0
LINE
  8
0
  6
CONTINUOUS
 62
     1
 10
1148.483333
 20
624.683317
 30
0.0
 11
1144.975930115
 21
622.658317
 31
0.0
  0
LINE
  8
0
  6
CONTINUOUS
 62
     1
 10
1144.975930115
 20
622.658317
 30
0.0
 11
1144.975930115
 21
618.608317
 31
0.0
  0
LINE
  8
0
  6
CONTINUOUS
 62
     1
 10
1144.975930115
 20
618.608317
 30
0.0
 11
1148.483333
 21
616.583317
 31
0.0
  0
LINE
  8
0
  6
CONTINUOUS
 62
     1
 10
1148.483333
 20
616.583317
 30
0.0
 11
1151.990735885
 21
618.608317
 31
0.0
  0
LINE
  8
0
  6
CONTINUOUS
 62
     1
 10
1151.990735885
 20
618.608317
 30
0.0
 11
1151.990735885
 21
622.658317
 31
0.0
  0
CIRCLE
  8
0
  6
CONTINUOUS
 62
     1
 10
1121.983333
 20
620.633317
 30
0.0
 40
36.5
  0
CIRCLE
  8
0
  6
CONTINUOUS
 62
     1
 10
1121.983333
 20
595.633317
 30
0.0
 40
3.999998
  0
LINE
  8
0
  6
CONTINUOUS
 62
     1
 10
1125.983331
 20
593.3274358
 30
0.0
 11
1125.983331
 21
597.9391982
 31
0.0
  0
LINE
  8
0
  6
CONTINUOUS
 62
     1
 10
1125.983331
 20
597.9391982
 30
0.0
 11
1121.983333
 21
600.2450794
 31
0.0
  0
LINE
  8
0
  6
CONTINUOUS
 62
     1
 10
1117.983335
 20
593.3274358
 30
0.0
 11
1117.983335
 21
597.9391982
 31
0.0
  0
LINE
  8
0
  6
CONTINUOUS
 62
     1
 10
1117.983335
 20
597.9391982
 30
0.0
 11
1121.983333
 21
600.2450794
 31
0.0
  0
LINE
  8
0
  6
CONTINUOUS
 62
     1
 10
1125.983331
 20
593.3274358
 30
0.0
 11
1121.983333
 21
591.0215546
 31
0.0
  0
LINE
  8
0
  6
CONTINUOUS
 62
     1
 10
1117.983335
 20
593.3274358
 30
0.0
 11
1121.983333
 21
591.0215546
 31
0.0
  0
ARC
  8
0
  6
CONTINUOUS
 62
     1
 10
1177.983333
 20
676.633317
 30
0.0
 40
5.0
 50
0.0
 51
90.0
  0
LINE
  8
0
  6
CONTINUOUS
 62
     1
 10
1144.983333
 20
681.633317
 30
0.0
 11
1177.983333
 21
681.633317
 31
0.0
  0
LINE
  8
0
  6
CONTINUOUS
 62
     1
 10
1166.483383
 20
675.380347
 30
0.0
 11
1166.483383
 21
667.886287
 31
0.0
  0
LINE
  8
0
  6
CONTINUOUS
 62
     1
 10
1166.483383
 20
667.886287
 30
0.0
 11
1172.983333
 21
664.139257
 31
0.0
  0
LINE
  8
0
  6
CONTINUOUS
 62
     1
 10
1179.483283
 20
675.380347
 30
0.0
 11
1179.483283
 21
667.886287
 31
0.0
  0
LINE
  8
0
  6
CONTINUOUS
 62
     1
 10
1179.483283
 20
675.380347
 30
0.0
 11
1172.983333
 21
679.127377
 31
0.0
  0
LINE
  8
0
  6
CONTINUOUS
 62
     1
 10
1166.483383
 20
675.380347
 30
0.0
 11
1172.983333
 21
679.127377
 31
0.0
  0
LINE
  8
0
  6
CONTINUOUS
 62
     1
 10
1179.483283
 20
667.886287
 30
0.0
 11
1172.983333
 21
664.139257
 31
0.0
  0
CIRCLE
  8
0
  6
CONTINUOUS
 62
     1
 10
1172.983333
 20
671.633317
 30
0.0
 40
6.49995
  0
LINE
  8
0
  6
CONTINUOUS
 62
     1
 10
1182.983333
 20
564.633317
 30
0.0
 11
1182.983333
 21
676.633317
 31
0.0
  0
ARC
  8
0
  6
CONTINUOUS
 62
     1
 10
1065.983333
 20
676.633317
 30
0.0
 40
5.0
 50
90.0
 51
180.0
  0
LINE
  8
0
  6
CONTINUOUS
 62
     1
 10
1060.983333
 20
564.633317
 30
0.0
 11
1060.983333
 21
676.633317
 31
0.0
  0
LINE
  8
0
  6
CONTINUOUS
 62
     1
 10
1065.983333
 20
681.633317
 30
0.0
 11
1098.983333
 21
681.633317
 31
0.0
  0
LINE
  8
0
  6
CONTINUOUS
 62
     1
 10
1064.483383
 20
675.380347
 30
0.0
 11
1064.483383
 21
667.886287
 31
0.0
  0
LINE
  8
0
  6
CONTINUOUS
 62
     1
 10
1077.483283
 20
675.380347
 30
0.0
 11
1077.483283
 21
667.886287
 31
0.0
  0
LINE
  8
0
  6
CONTINUOUS
 62
     1
 10
1064.483383
 20
675.380347
 30
0.0
 11
1070.983333
 21
679.127377
 31
0.0
  0
LINE
  8
0
  6
CONTINUOUS
 62
     1
 10
1077.483283
 20
675.380347
 30
0.0
 11
1070.983333
 21
679.127377
 31
0.0
  0
LINE
  8
0
  6
CONTINUOUS
 62
     1
 10
1064.483383
 20
667.886287
 30
0.0
 11
1070.983333
 21
664.139257
 31
0.0
  0
CIRCLE
  8
0
  6
CONTINUOUS
 62
     1
 10
1070.983333
 20
671.633317
 30
0.0
 40
6.49995
  0
LINE
  8
0
  6
CONTINUOUS
 62
     1
 10
1077.483283
 20
667.886287
 30
0.0
 11
1070.983333
 21
664.139257
 31
0.0
  0
LINE
  8
0
  6
CONTINUOUS
 62
     1
 10
1083.615005959
 20
660.695760841
 30
0.0
 11
1088.226768359
 21
660.695760841
 31
0.0
  0
LINE
  8
0
  6
CONTINUOUS
 62
     1
 10
1083.615005959
 20
660.695760841
 30
0.0
 11
1081.309124759
 21
656.695762841
 31
0.0
  0
CIRCLE
  8
0
  6
CONTINUOUS
 62
     1
 10
1085.920887159
 20
656.695762841
 30
0.0
 40
3.999998
  0
CIRCLE
  8
0
  6
CONTINUOUS
 62
     1
 10
1121.983333
 20
620.633317
 30
0.0
 40
57.0
  0
LINE
  8
0
  6
CONTINUOUS
 62
     1
 10
1174.983333
 20
413.633317
 30
0.0
 11
1174.983333
 21
461.133317
 31
0.0
  0
LINE
  8
0
  6
CONTINUOUS
 62
     1
 10
1068.983333
 20
413.633317
 30
0.0
 11
1068.983333
 21
461.133317
 31
0.0
  0
LINE
  8
0
  6
CONTINUOUS
 62
     1
 10
1068.983333
 20
413.633317
 30
0.0
 11
1174.983333
 21
413.633317
 31
0.0
  0
LINE
  8
7
  6
CONTINUOUS
 62
     2
 10
1181.983333
 20
353.48382445
 30
0.0
 11
1172.324074737
 21
356.072014901
 31
0.0
  0
LINE
  8
7
  6
CONTINUOUS
 62
     2
 10
1061.983333
 20
353.48382445
 30
0.0
 11
1071.642591263
 21
356.072014901
 31
0.0
  0
TEXT
  8
7
  6
CONTINUOUS
 62
     2
 10
1263.983333
 20
548.233317
 30
0.0
 40
15.0
  1
１１０
 50
90.0
 41
0.9
 51
0.0
  7
KANJI24
  0
TEXT
  8
7
  6
CONTINUOUS
 62
     2
 10
1295.983333
 20
559.483512
 30
0.0
 40
15.0
  1
３３８
 50
90.0
 41
0.9
 51
0.0
  7
KANJI24
  0
TEXT
  8
7
  6
CONTINUOUS
 62
     2
 10
1263.983333
 20
441.983512
 30
0.0
 40
15.0
  1
１０３
 50
90.0
 41
0.9
 51
0.0
  7
KANJI24
  0
TEXT
  8
7
  6
CONTINUOUS
 62
     2
 10
1263.983333
 20
665.733317
 30
0.0
 40
15.0
  1
１２５
 50
90.0
 41
0.9
 51
0.0
  7
KANJI24
  0
TEXT
  8
7
  6
CONTINUOUS
 62
     2
 10
1231.983333
 20
528.633317
 30
0.0
 40
15.0
  1
φ１６Ｈ１０深２２
 50
90.0
 41
0.9
 51
0.0
  7
KANJI24
  0
TEXT
  8
7
  6
CONTINUOUS
 62
     2
 10
1104.583333
 20
774.633317
 30
0.0
 40
15.0
  1
１２２
 50
0.0
 41
0.9
 51
0.0
  7
KANJI24
  0
TEXT
  8
7
  6
CONTINUOUS
 62
     2
 10
1104.583333
 20
357.48382445
 30
0.0
 40
15.0
  1
１２０
 50
0.0
 41
0.9
 51
0.0
  7
KANJI24
  0
LINE
  8
0
  6
CONTINUOUS
 62
     1
 10
1152.983333
 20
518.633317
 30
0.0
 11
1152.983333
 21
502.633317
 31
0.0
  0
LINE
  8
0
  6
CONTINUOUS
 62
     1
 10
1152.983333
 20
518.633317
 30
0.0
 11
1152.983333
 21
502.633317
 31
0.0
  0
LINE
  8
0
  6
CONTINUOUS
 62
     1
 10
1144.983333
 20
518.633317
 30
0.0
 11
1152.983333
 21
518.633317
 31
0.0
  0
LINE
  8
0
  6
CONTINUOUS
 62
     1
 10
1144.983333
 20
518.633317
 30
0.0
 11
1152.983333
 21
518.633317
 31
0.0
  0
LINE
  8
0
  6
LTYPE2
 62
     2
 10
1147.633333
 20
506.233317
 30
0.0
 11
1147.633333
 21
514.633317
 31
0.0
  0
CIRCLE
  8
0
  6
CONTINUOUS
 62
     1
 10
1147.633333
 20
510.633317
 30
0.0
 40
2.0
  0
LINE
  8
0
  6
CONTINUOUS
 62
     1
 10
1152.983333
 20
502.633317
 30
0.0
 11
1144.983333
 21
502.633317
 31
0.0
  0
LINE
  8
0
  6
CONTINUOUS
 62
     1
 10
1152.983333
 20
502.633317
 30
0.0
 11
1144.983333
 21
502.633317
 31
0.0
  0
LINE
  8
0
  6
CONTINUOUS
 62
     1
 10
1144.983333
 20
495.633317
 30
0.0
 11
1144.983333
 21
525.633317
 31
0.0
  0
LINE
  8
0
  6
LTYPE1
 62
     2
 10
1129.983333
 20
518.633317
 30
0.0
 11
1144.983333
 21
518.633317
 31
0.0
  0
LINE
  8
0
  6
LTYPE1
 62
     2
 10
1144.983333
 20
502.633317
 30
0.0
 11
1129.983333
 21
502.633317
 31
0.0
  0
LINE
  8
0
  6
CONTINUOUS
 62
     1
 10
1141.983333
 20
525.633317
 30
0.0
 11
1144.983333
 21
525.633317
 31
0.0
  0
LINE
  8
0
  6
CONTINUOUS
 62
     1
 10
1141.983333
 20
495.633317
 30
0.0
 11
1144.983333
 21
495.633317
 31
0.0
  0
LINE
  8
0
  6
CONTINUOUS
 62
     1
 10
1098.983333
 20
495.633317
 30
0.0
 11
1098.983333
 21
525.633317
 31
0.0
  0
LINE
  8
0
  6
CONTINUOUS
 62
     1
 10
1101.983333
 20
495.633317
 30
0.0
 11
1098.983333
 21
495.633317
 31
0.0
  0
LINE
  8
0
  6
LTYPE1
 62
     2
 10
1098.983333
 20
502.633317
 30
0.0
 11
1113.983333
 21
502.633317
 31
0.0
  0
LINE
  8
0
  6
CONTINUOUS
 62
     1
 10
1098.983333
 20
502.633317
 30
0.0
 11
1090.983333
 21
502.633317
 31
0.0
  0
CIRCLE
  8
0
  6
CONTINUOUS
 62
     1
 10
1096.333333
 20
510.633317
 30
0.0
 40
2.0
  0
LINE
  8
0
  6
LTYPE2
 62
     2
 10
1096.333333
 20
506.233317
 30
0.0
 11
1096.333333
 21
514.633317
 31
0.0
  0
LINE
  8
0
  6
CONTINUOUS
 62
     1
 10
1090.983333
 20
518.633317
 30
0.0
 11
1090.983333
 21
502.633317
 31
0.0
  0
LINE
  8
0
  6
CONTINUOUS
 62
     1
 10
1098.983333
 20
518.633317
 30
0.0
 11
1090.983333
 21
518.633317
 31
0.0
  0
LINE
  8
0
  6
LTYPE1
 62
     2
 10
1113.983333
 20
518.633317
 30
0.0
 11
1098.983333
 21
518.633317
 31
0.0
  0
LINE
  8
0
  6
CONTINUOUS
 62
     1
 10
1101.983333
 20
525.633317
 30
0.0
 11
1098.983333
 21
525.633317
 31
0.0
  0
ARC
  8
0
  6
CONTINUOUS
 62
     1
 10
1075.383333
 20
414.633317
 30
0.0
 40
5.0
 50
272.3
 51
348.5
  0
ARC
  8
0
  6
CONTINUOUS
 62
     1
 10
1074.583333
 20
414.633317
 30
0.0
 40
5.0
 50
191.5
 51
267.7
  0
LINE
  8
0
  6
CONTINUOUS
 62
     1
 10
1075.583333
 20
409.633317
 30
0.0
 11
1074.383333
 21
409.633317
 31
0.0
  0
LINE
  8
0
  6
LTYPE5
 62
     2
 10
1074.983333
 20
406.233317
 30
0.0
 11
1074.983333
 21
419.633317
 31
0.0
  0
ARC
  8
0
  6
CONTINUOUS
 62
     1
 10
1169.383333
 20
414.633317
 30
0.0
 40
5.0
 50
272.3
 51
348.5
  0
ARC
  8
0
  6
CONTINUOUS
 62
     1
 10
1168.583333
 20
414.633317
 30
0.0
 40
5.0
 50
191.5
 51
267.7
  0
LINE
  8
0
  6
CONTINUOUS
 62
     1
 10
1169.583333
 20
409.633317
 30
0.0
 11
1168.383333
 21
409.633317
 31
0.0
  0
LINE
  8
0
  6
LTYPE5
 62
     2
 10
1168.983333
 20
406.233317
 30
0.0
 11
1168.983333
 21
419.633317
 31
0.0
  0
CIRCLE
  8
0
  6
CONTINUOUS
 62
     1
 10
1121.983333
 20
510.633317
 30
0.0
 40
47.5
  0
CIRCLE
  8
0
  6
CONTINUOUS
 62
     1
 10
1082.983333
 20
549.633317
 30
0.0
 40
5.0
  0
LINE
  8
7
  6
CONTINUOUS
 62
     2
 10
1181.983333
 20
451.0
 30
0.0
 11
1181.983333
 21
347.48382445
 31
0.0
  0
LINE
  8
7
  6
CONTINUOUS
 62
     2
 10
1061.983333
 20
451.0
 30
0.0
 11
1061.983333
 21
347.48382445
 31
0.0
  0
TEXT
  8
0
  6
CONTINUOUS
 62
     2
 10
1490.25
 20
538.25
 30
10.0
 40
20.0
  1
特記事項
 50
0.0
 41
0.9
 51
0.0
  7
KANJI45
  0
TEXT
  8
0
  6
CONTINUOUS
 62
     2
 10
1420.25
 20
498.25
 30
5.142857143
 40
18.0
  1
１。運転時は必ずピストンロッドの回転防止を行って下さい。
 50
0.0
 41
0.857142857
 51
0.0
  7
KANJI46
  0
TEXT
  8
0
  6
CONTINUOUS
 62
     2
 10
1420.25
 20
464.25
 30
5.13
 40
18.0
  1
２。モートル：全閉自冷かご形３０分定格
 50
0.0
 41
0.857222222
 51
0.0
  7
KANJI47
  0
TEXT
  8
0
  6
CONTINUOUS
 62
     2
 10
1419.9165915
 20
430.250003
 30
5.13
 40
18.0
  1
３。呼称ストロークは、機械的ストロークです。
 50
0.0
 41
0.857222222
 51
0.0
  7
KANJI47
  0
TEXT
  8
0
  6
CONTINUOUS
 62
     2
 10
1419.9165915
 20
401.500003
 30
5.13
 40
18.0
  1
　　必ず、常用はストローク両端に余裕を取って下さい。
 50
0.0
 41
0.857222222
 51
0.0
  7
KANJI47
  0
LINE
  8
0
  6
CONTINUOUS
 62
     2
 10
1476.25
 20
532.75
 30
0.0
 11
1598.25
 21
532.75
 31
0.0
  0
LINE
  8
7
  6
CONTINUOUS
 62
     2
 10
1181.983333
 20
353.48382445
 30
0.0
 11
1172.324074737
 21
350.895633999
 31
0.0
  0
LINE
  8
7
  6
CONTINUOUS
 62
     2
 10
1181.983333
 20
353.48382445
 30
0.0
 11
1061.983333
 21
353.48382445
 31
0.0
  0
LINE
  8
7
  6
CONTINUOUS
 62
     2
 10
1061.983333
 20
353.48382445
 30
0.0
 11
1071.642591263
 21
350.895633999
 31
0.0
  0
TEXT
  8
0
  6
CONTINUOUS
 62
     2
 10
880.4275
 20
1253.325
 30
1.3475
 40
13.475
  1
注意：サーマルリレー等の選定は、上記の値で選定して下さい。
 50
0.0
 41
0.9
 51
0.0
  7
KANJI48
  0
LINE
  8
0
  6
CONTINUOUS
 62
     2
 10
872.7275
 20
1249.475
 30
0.0
 11
1261.25
 21
1249.475
 31
0.0
  0
TEXT
  8
0
  6
CONTINUOUS
 62
     2
 10
1420.6765915
 20
368.460003
 30
5.13
 40
18.0
  1
　　前後の推奨余裕寸法は、各々１０ｍｍです。
 50
0.0
 41
0.857222222
 51
0.0
  7
KANJI47
  0
LINE
  8
0
  6
CONTINUOUS
 62
     2
 10
961.234258263
 20
562.788190451
 30
0.0
 11
949.160185434
 21
566.023428515
 31
0.0
  0
TEXT
  8
0
  6
CONTINUOUS
 62
     3
 10
927.234258263
 20
572.788190451
 30
0.0
 40
20.0
  1
前進
 50
0.0
 41
0.925
 51
0.0
  7
KANJI42
  0
LINE
  8
0
  6
CONTINUOUS
 62
     2
 10
961.234258263
 20
562.788190451
 30
0.0
 11
949.160185434
 21
559.552952387
 31
0.0
  0
LINE
  8
0
  6
CONTINUOUS
 62
     2
 10
961.234258263
 20
562.788190451
 30
0.0
 11
920.234258263
 21
562.788190451
 31
0.0
  0
TEXT
  8
0
  6
CONTINUOUS
 62
     2
 10
1432.25
 20
1084.4
 30
1.2
 40
12.0
  1
　　３６
 50
0.0
 41
0.9
 51
0.0
  7
KANJI1
  0
TEXT
  8
0
  6
CONTINUOUS
 62
     2
 10
1432.25
 20
1056.4
 30
1.2
 40
12.0
  1
　　３７
 50
0.0
 41
0.9
 51
0.0
  7
KANJI1
  0
TEXT
  8
0
  6
CONTINUOUS
 62
     2
 10
1432.25
 20
1028.4
 30
1.2
 40
12.0
  1
　　３９
 50
0.0
 41
0.9
 51
0.0
  7
KANJI1
  0
TEXT
  8
0
  6
CONTINUOUS
 62
     2
 10
1432.25
 20
1000.4
 30
1.2
 40
12.0
  1
　　４１
 50
0.0
 41
0.9
 51
0.0
  7
KANJI1
  0
TEXT
  8
0
  6
CONTINUOUS
 62
     6
 10
382.343715102
 20
1308.121931782
 30
0.0
 40
11.8638
  1
ＡＣ１００Ｖ　１２５Ｖ　２５０Ｖ　－１０Ａ
 50
0.0
 41
0.726495726
 51
0.0
  7
KANJI30
  0
LINE
  8
0
  6
CONTINUOUS
 62
     2
 10
481.333333
 20
176.883315
 30
0.0
 11
489.06073961
 21
174.812762639
 31
0.0
  0
LINE
  8
0
  6
CONTINUOUS
 62
     2
 10
481.333333
 20
176.883315
 30
0.0
 11
489.06073961
 21
178.953867361
 31
0.0
  0
LINE
  8
0
  6
CONTINUOUS
 62
     2
 10
481.333333
 20
176.883315
 30
0.0
 11
618.933333
 21
176.883315
 31
0.0
  0
LINE
  8
0
  6
CONTINUOUS
 62
     2
 10
618.933333
 20
176.883315
 30
0.0
 11
611.20592639
 21
178.953867361
 31
0.0
  0
LINE
  8
0
  6
CONTINUOUS
 62
     2
 10
618.933333
 20
176.883315
 30
0.0
 11
611.20592639
 21
174.812762639
 31
0.0
  0
LINE
  8
0
  6
CONTINUOUS
 62
     2
 10
618.933333
 20
175.683315
 30
0.0
 11
618.933333
 21
172.883315
 31
0.0
  0
LINE
  8
0
  6
CONTINUOUS
 62
     2
 10
618.933333
 20
176.883315
 30
0.0
 11
626.66073961
 21
174.812762639
 31
0.0
  0
LINE
  8
0
  6
CONTINUOUS
 62
     2
 10
618.933333
 20
176.883315
 30
0.0
 11
626.66073961
 21
178.953867361
 31
0.0
  0
LINE
  8
0
  6
CONTINUOUS
 62
     2
 10
618.933333
 20
176.883315
 30
0.0
 11
821.333333
 21
176.883315
 31
0.0
  0
LINE
  8
0
  6
CONTINUOUS
 62
     2
 10
821.333333
 20
176.883315
 30
0.0
 11
813.60592639
 21
178.953867361
 31
0.0
  0
LINE
  8
0
  6
CONTINUOUS
 62
     2
 10
821.333333
 20
176.883315
 30
0.0
 11
813.60592639
 21
174.812762639
 31
0.0
  0
LINE
  8
0
  6
CONTINUOUS
 62
     2
 10
618.933333
 20
150.553867361
 30
0.0
 11
611.20592639
 21
152.624419722
 31
0.0
  0
LINE
  8
0
  6
CONTINUOUS
 62
     2
 10
618.933333
 20
150.553867361
 30
0.0
 11
611.20592639
 21
148.483315
 31
0.0
  0
LINE
  8
0
  6
CONTINUOUS
 62
     2
 10
606.933333
 20
150.553867361
 30
0.0
 11
618.933333
 21
150.553867361
 31
0.0
  0
LINE
  8
0
  6
CONTINUOUS
 62
     2
 10
618.933333
 20
150.553867361
 30
0.0
 11
639.733333
 21
150.553867361
 31
0.0
  0
LINE
  8
0
  6
CONTINUOUS
 62
     2
 10
639.733333
 20
150.553867361
 30
0.0
 11
647.46073961
 21
148.483315
 31
0.0
  0
LINE
  8
0
  6
CONTINUOUS
 62
     2
 10
639.733333
 20
150.553867361
 30
0.0
 11
647.46073961
 21
152.624419722
 31
0.0
  0
LINE
  8
0
  6
CONTINUOUS
 62
     2
 10
481.333333
 20
125.283315
 30
0.0
 11
481.333333
 21
119.283315
 31
0.0
  0
LINE
  8
0
  6
CONTINUOUS
 62
     2
 10
481.333333
 20
123.283315
 30
0.0
 11
489.06073961
 21
121.212762639
 31
0.0
  0
LINE
  8
0
  6
CONTINUOUS
 62
     2
 10
481.333333
 20
123.283315
 30
0.0
 11
489.06073961
 21
125.353867361
 31
0.0
  0
LINE
  8
0
  6
CONTINUOUS
 62
     2
 10
481.333333
 20
123.283315
 30
0.0
 11
639.733333
 21
123.283315
 31
0.0
  0
LINE
  8
0
  6
CONTINUOUS
 62
     2
 10
639.733333
 20
123.283315
 30
0.0
 11
632.00592639
 21
125.353867361
 31
0.0
  0
LINE
  8
0
  6
CONTINUOUS
 62
     2
 10
639.733333
 20
123.283315
 30
0.0
 11
632.00592639
 21
121.212762639
 31
0.0
  0
LINE
  8
0
  6
CONTINUOUS
 62
     2
 10
639.733333
 20
124.483315
 30
0.0
 11
639.733333
 21
119.283315
 31
0.0
  0
LINE
  8
0
  6
CONTINUOUS
 62
     2
 10
639.733333
 20
123.283315
 30
0.0
 11
647.46073961
 21
121.212762639
 31
0.0
  0
LINE
  8
0
  6
CONTINUOUS
 62
     2
 10
639.733333
 20
123.283315
 30
0.0
 11
647.46073961
 21
125.353867361
 31
0.0
  0
LINE
  8
0
  6
CONTINUOUS
 62
     2
 10
821.333333
 20
119.683315
 30
0.0
 11
821.333333
 21
119.283315
 31
0.0
  0
LINE
  8
0
  6
CONTINUOUS
 62
     2
 10
481.333333
 20
94.083315
 30
0.0
 11
489.06073961
 21
92.012762639
 31
0.0
  0
LINE
  8
0
  6
CONTINUOUS
 62
     2
 10
481.333333
 20
94.083315
 30
0.0
 11
489.06073961
 21
96.153867361
 31
0.0
  0
LINE
  8
0
  6
CONTINUOUS
 62
     2
 10
481.333333
 20
94.083315
 30
0.0
 11
798.933333
 21
94.083315
 31
0.0
  0
LINE
  8
0
  6
CONTINUOUS
 62
     2
 10
798.933333
 20
94.083315
 30
0.0
 11
791.20592639
 21
96.153867361
 31
0.0
  0
LINE
  8
0
  6
CONTINUOUS
 62
     2
 10
798.933333
 20
94.083315
 30
0.0
 11
791.20592639
 21
92.012762639
 31
0.0
  0
LINE
  8
0
  6
CONTINUOUS
 62
     2
 10
798.933333
 20
94.883315
 30
0.0
 11
798.933333
 21
90.083315
 31
0.0
  0
LINE
  8
0
  6
CONTINUOUS
 62
     2
 10
798.933333
 20
94.083315
 30
0.0
 11
791.20592639
 21
96.153867361
 31
0.0
  0
LINE
  8
0
  6
CONTINUOUS
 62
     2
 10
798.933333
 20
94.083315
 30
0.0
 11
791.20592639
 21
92.012762639
 31
0.0
  0
LINE
  8
0
  6
CONTINUOUS
 62
     2
 10
786.933333
 20
94.083315
 30
0.0
 11
798.933333
 21
94.083315
 31
0.0
  0
LINE
  8
0
  6
CONTINUOUS
 62
     2
 10
798.933333
 20
94.083315
 30
0.0
 11
821.333333
 21
94.083315
 31
0.0
  0
LINE
  8
0
  6
CONTINUOUS
 62
     2
 10
821.333333
 20
94.083315
 30
0.0
 11
829.06073961
 21
92.012762639
 31
0.0
  0
LINE
  8
0
  6
CONTINUOUS
 62
     2
 10
821.333333
 20
94.083315
 30
0.0
 11
829.06073961
 21
96.153867361
 31
0.0
  0
LINE
  8
0
  6
CONTINUOUS
 62
     2
 10
481.333333
 20
187.683315
 30
0.0
 11
481.333333
 21
172.883315
 31
0.0
  0
LINE
  8
0
  6
CONTINUOUS
 62
     2
 10
821.333333
 20
187.683315
 30
0.0
 11
821.333333
 21
172.883315
 31
0.0
  0
LINE
  8
0
  6
CONTINUOUS
 62
     2
 10
618.933333
 20
176.483315
 30
0.0
 11
618.933333
 21
187.683315
 31
0.0
  0
LINE
  8
0
  6
CONTINUOUS
 62
     2
 10
639.733333
 20
163.353867361
 30
0.0
 11
639.733333
 21
146.553867361
 31
0.0
  0
LINE
  8
0
  6
CONTINUOUS
 62
     2
 10
481.333333
 20
172.883315
 30
0.0
 11
481.333333
 21
80.883315
 31
0.0
  0
LINE
  8
0
  6
CONTINUOUS
 62
     2
 10
821.333333
 20
176.883315
 30
0.0
 11
821.333333
 21
82.083315
 31
0.0
  0
LINE
  8
0
  6
CONTINUOUS
 62
     2
 10
639.733333
 20
150.553867361
 30
0.0
 11
639.733333
 21
114.083315
 31
0.0
  0
LINE
  8
0
  6
CONTINUOUS
 62
     2
 10
618.933333
 20
176.883315
 30
0.0
 11
618.933333
 21
141.283315
 31
0.0
  0
TEXT
  8
0
  6
CONTINUOUS
 62
     3
 10
523.133333
 20
178.883315
 30
0.0
 40
15.0
  1
ｍｉｎ．Ｌ
 50
0.0
 41
0.9
 51
0.0
  7
KANJI24
  0
TEXT
  8
0
  6
CONTINUOUS
 62
     3
 10
676.933333
 20
178.883315
 30
0.0
 40
15.0
  1
機械的ストローク
 50
0.0
 41
0.9
 51
0.0
  7
KANJI24
  0
TEXT
  8
0
  6
CONTINUOUS
 62
     3
 10
651.733333
 20
152.553867361
 30
0.0
 40
15.0
  1
余裕
 50
0.0
 41
0.9
 51
0.0
  7
KANJI24
  0
TEXT
  8
0
  6
CONTINUOUS
 62
     3
 10
533.533333
 20
125.283315
 30
0.0
 40
15.0
  1
常用ｍｉｎ
 50
0.0
 41
0.9
 51
0.0
  7
KANJI24
  0
TEXT
  8
0
  6
CONTINUOUS
 62
     3
 10
613.133333
 20
96.083315
 30
0.0
 40
15.0
  1
常用ｍａｘ
 50
0.0
 41
0.9
 51
0.0
  7
KANJI24
  0
TEXT
  8
0
  6
CONTINUOUS
 62
     3
 10
833.333333
 20
96.083315
 30
0.0
 40
15.0
  1
余裕
 50
0.0
 41
0.9
 51
0.0
  7
KANJI24
  0
LINE
  8
0
  6
CONTINUOUS
 62
     2
 10
639.733333
 20
150.553867361
 30
0.0
 11
679.833333
 21
150.553867361
 31
0.0
  0
LINE
  8
0
  6
CONTINUOUS
 62
     2
 10
821.333333
 20
94.083315
 30
0.0
 11
863.833333
 21
94.083315
 31
0.0
  0
LINE
  8
0
  6
CONTINUOUS
 62
     1
 10
457.283333
 20
413.633317
 30
0.0
 11
446.683333
 21
413.633317
 31
0.0
  0
ARC
  8
0
  6
CONTINUOUS
 62
     1
 10
452.383333
 20
414.633317
 30
0.0
 40
5.0
 50
272.3
 51
348.5
  0
ARC
  8
0
  6
CONTINUOUS
 62
     1
 10
451.583333
 20
414.633317
 30
0.0
 40
5.0
 50
191.5
 51
267.7
  0
LINE
  8
0
  6
CONTINUOUS
 62
     1
 10
452.583333
 20
409.633317
 30
0.0
 11
451.383333
 21
409.633317
 31
0.0
  0
LINE
  8
0
  6
LTYPE5
 62
     2
 10
451.983333
 20
406.233317
 30
0.0
 11
451.983333
 21
419.633317
 31
0.0
  0
LINE
  8
0
  6
CONTINUOUS
 62
     1
 10
573.283333
 20
413.633317
 30
0.0
 11
562.683333
 21
413.633317
 31
0.0
  0
ARC
  8
0
  6
CONTINUOUS
 62
     1
 10
568.383333
 20
414.633317
 30
0.0
 40
5.0
 50
272.3
 51
348.5
  0
ARC
  8
0
  6
CONTINUOUS
 62
     1
 10
567.583333
 20
414.633317
 30
0.0
 40
5.0
 50
191.5
 51
267.7
  0
LINE
  8
0
  6
CONTINUOUS
 62
     1
 10
568.583333
 20
409.633317
 30
0.0
 11
567.383333
 21
409.633317
 31
0.0
  0
LINE
  8
0
  6
LTYPE5
 62
     2
 10
567.983333
 20
406.233317
 30
0.0
 11
567.983333
 21
419.633317
 31
0.0
  0
LINE
  8
7
  6
CONTINUOUS
 62
     2
 10
492.983333
 20
575.0
 30
0.0
 11
492.983333
 21
563.633317
 31
0.0
  0
LINE
  8
7
  6
CONTINUOUS
 62
     2
 10
492.983333
 20
677.633317
 30
0.0
 11
492.983333
 21
592.0
 31
0.0
  0
LINE
  8
0
  6
CONTINUOUS
 62
     1
 10
846.25
 20
965.7
 30
0.0
 11
1494.25
 21
965.7
 31
0.0
  0
LINE
  8
0
  6
CONTINUOUS
 62
     1
 10
846.25
 20
1217.7
 30
0.0
 11
846.25
 21
965.7
 31
0.0
  0
LINE
  8
0
  6
CONTINUOUS
 62
     1
 10
1014.25
 20
1217.7
 30
0.0
 11
1014.25
 21
965.7
 31
0.0
  0
LINE
  8
0
  6
CONTINUOUS
 62
     2
 10
1094.25
 20
1217.7
 30
0.0
 11
1094.25
 21
965.7
 31
0.0
  0
LINE
  8
0
  6
CONTINUOUS
 62
     2
 10
1174.25
 20
1217.7
 30
0.0
 11
1174.25
 21
965.7
 31
0.0
  0
LINE
  8
0
  6
CONTINUOUS
 62
     2
 10
1254.25
 20
1217.7
 30
0.0
 11
1254.25
 21
965.7
 31
0.0
  0
LINE
  8
0
  6
CONTINUOUS
 62
     2
 10
1334.25
 20
1217.7
 30
0.0
 11
1334.25
 21
965.7
 31
0.0
  0
LINE
  8
0
  6
CONTINUOUS
 62
     2
 10
1414.25
 20
1217.7
 30
0.0
 11
1414.25
 21
965.7
 31
0.0
  0
LINE
  8
0
  6
CONTINUOUS
 62
     1
 10
1494.25
 20
1217.7
 30
0.0
 11
1494.25
 21
965.7
 31
0.0
  0
TEXT
  8
0
  6
CONTINUOUS
 62
     2
 10
859.25
 20
972.1
 30
0.8
 40
12.0
  1
ＭＤ０３　－　　　Ｊ
 50
0.0
 41
0.833333333
 51
0.0
  7
KANJI23
  0
LINE
  8
7
  6
CONTINUOUS
 62
     2
 10
888.983333
 20
702.633317
 30
0.0
 11
886.395142549
 21
712.292575263
 31
0.0
  0
LINE
  8
7
  6
CONTINUOUS
 62
     2
 10
888.983333
 20
702.633317
 30
0.0
 11
891.571523451
 21
712.292575263
 31
0.0
  0
LINE
  8
7
  6
CONTINUOUS
 62
     2
 10
888.983333
 20
662.633317
 30
0.0
 11
886.395142549
 21
652.974058737
 31
0.0
  0
LINE
  8
7
  6
CONTINUOUS
 62
     2
 10
888.983333
 20
662.633317
 30
0.0
 11
891.571523451
 21
652.974058737
 31
0.0
  0
LINE
  8
7
  6
CONTINUOUS
 62
     2
 10
888.983333
 20
674.633317
 30
0.0
 11
886.395142549
 21
684.292575263
 31
0.0
  0
LINE
  8
7
  6
CONTINUOUS
 62
     2
 10
888.983333
 20
674.633317
 30
0.0
 11
891.571523451
 21
684.292575263
 31
0.0
  0
LINE
  8
7
  6
CONTINUOUS
 62
     2
 10
888.983333
 20
690.633317
 30
0.0
 11
886.395142549
 21
680.974058737
 31
0.0
  0
LINE
  8
7
  6
CONTINUOUS
 62
     2
 10
888.983333
 20
690.633317
 30
0.0
 11
891.571523451
 21
680.974058737
 31
0.0
  0
LINE
  8
0
  6
CONTINUOUS
 62
     2
 10
798.933333
 20
139.083315
 30
0.0
 11
798.933333
 21
81.283315
 31
0.0
  0
LINE
  8
0
  6
CONTINUOUS
 62
     2
 10
639.733333
 20
123.283315
 30
0.0
 11
798.933333
 21
123.283315
 31
0.0
  0
LINE
  8
0
  6
CONTINUOUS
 62
     2
 10
798.933333
 20
123.283315
 30
0.0
 11
791.20592639
 21
125.353867361
 31
0.0
  0
LINE
  8
0
  6
CONTINUOUS
 62
     2
 10
798.933333
 20
123.283315
 30
0.0
 11
791.20592639
 21
121.212762639
 31
0.0
  0
TEXT
  8
0
  6
CONTINUOUS
 62
     3
 10
678.733333
 20
125.283315
 30
0.0
 40
15.0
  1
常用ストローク
 50
0.0
 41
0.9
 51
0.0
  7
KANJI24
  0
TEXT
  8
0
  6
CONTINUOUS
 62
     2
 10
1374.9166945
 20
80.749995
 30
1.5
 40
17.5
  1
０７．０９．２７
 50
0.0
 41
0.571428571
 51
0.0
  7
KANJI49
  0
TEXT
  8
7
  6
CONTINUOUS
 62
     2
 10
812.083333
 20
568.633317
 30
0.0
 40
15.0
  1
２５
 50
0.0
 41
0.9
 51
0.0
  7
KANJI24
  0
LINE
  8
7
  6
CONTINUOUS
 62
     2
 10
1195.501190143
 20
620.633317
 30
0.0
 11
1211.983333
 21
620.633317
 31
0.0
  0
LINE
  8
0
  6
CONTINUOUS
 62
     1
 10
1562.75
 20
1333.25
 30
0.0
 11
2000.25
 21
1333.25
 31
0.0
  0
TEXT
  8
0
  6
CONTINUOUS
 62
     2
 10
1625.25
 20
1296.75
 30
14.2497
 40
22.5
  1
マイティシリンダ仕様
 50
0.0
 41
0.9
 51
0.0
  7
KANJI50
  0
LINE
  8
0
  6
CONTINUOUS
 62
     2
 10
1562.75
 20
723.25
 30
0.0
 11
2000.25
 21
723.25
 31
0.0
  0
LINE
  8
0
  6
CONTINUOUS
 62
     2
 10
1562.75
 20
688.25
 30
0.0
 11
2000.25
 21
688.25
 31
0.0
  0
LINE
  8
0
  6
CONTINUOUS
 62
     2
 10
1602.75
 20
758.25
 30
0.0
 11
2000.25
 21
758.25
 31
0.0
  0
LINE
  8
0
  6
CONTINUOUS
 62
     2
 10
1602.75
 20
1003.25
 30
0.0
 11
1602.75
 21
723.25
 31
0.0
  0
LINE
  8
0
  6
CONTINUOUS
 62
     2
 10
1602.75
 20
863.25
 30
0.0
 11
2000.25
 21
863.25
 31
0.0
  0
LINE
  8
0
  6
CONTINUOUS
 62
     2
 10
1602.75
 20
898.25
 30
0.0
 11
2000.25
 21
898.25
 31
0.0
  0
LINE
  8
0
  6
CONTINUOUS
 62
     2
 10
1562.75
 20
1073.25
 30
0.0
 11
2000.25
 21
1073.25
 31
0.0
  0
LINE
  8
0
  6
CONTINUOUS
 62
     2
 10
1562.75
 20
1038.25
 30
0.0
 11
2000.25
 21
1038.25
 31
0.0
  0
LINE
  8
0
  6
CONTINUOUS
 62
     2
 10
1562.75
 20
1003.25
 30
0.0
 11
2000.25
 21
1003.25
 31
0.0
  0
LINE
  8
0
  6
CONTINUOUS
 62
     2
 10
1602.75
 20
933.25
 30
0.0
 11
2000.25
 21
933.25
 31
0.0
  0
LINE
  8
0
  6
CONTINUOUS
 62
     2
 10
1602.75
 20
968.25
 30
0.0
 11
2000.25
 21
968.25
 31
0.0
  0
LINE
  8
0
  6
CONTINUOUS
 62
     2
 10
1562.75
 20
1248.25
 30
0.0
 11
2000.25
 21
1248.25
 31
0.0
  0
LINE
  8
0
  6
CONTINUOUS
 62
     2
 10
1562.75
 20
1213.25
 30
0.0
 11
2000.25
 21
1213.25
 31
0.0
  0
LINE
  8
0
  6
CONTINUOUS
 62
     2
 10
1562.75
 20
1178.25
 30
0.0
 11
2000.25
 21
1178.25
 31
0.0
  0
LINE
  8
0
  6
CONTINUOUS
 62
     2
 10
1562.75
 20
1143.25
 30
0.0
 11
2000.25
 21
1143.25
 31
0.0
  0
LINE
  8
0
  6
CONTINUOUS
 62
     2
 10
1562.75
 20
1108.25
 30
0.0
 11
2000.25
 21
1108.25
 31
0.0
  0
LINE
  8
0
  6
CONTINUOUS
 62
     2
 10
1562.75
 20
1283.25
 30
0.0
 11
2000.25
 21
1283.25
 31
0.0
  0
TEXT
  8
0
  6
CONTINUOUS
 62
     2
 10
1625.25
 20
942.25
 30
27.866485714
 40
19.0
  1
電源電圧
 50
0.0
 41
0.9
 51
0.0
  7
KANJI51
  0
TEXT
  8
0
  6
CONTINUOUS
 62
     2
 10
1625.25
 20
907.25
 30
50.35
 40
19.0
  1
周波数
 50
0.0
 41
0.9
 51
0.0
  7
KANJI52
  0
TEXT
  8
0
  6
CONTINUOUS
 62
     2
 10
1625.25
 20
872.25
 30
117.8
 40
19.0
  1
電流
 50
0.0
 41
0.9
 51
0.0
  7
KANJI53
  0
TEXT
  8
0
  6
CONTINUOUS
 62
     2
 10
1625.25
 20
837.25
 30
50.35
 40
19.0
  1
絶縁級
 50
0.0
 41
0.9
 51
0.0
  7
KANJI52
  0
TEXT
  8
0
  6
CONTINUOUS
 62
     2
 10
1590.25
 20
1257.25
 30
150.371428571
 40
19.0
  1
形式
 50
0.0
 41
0.9
 51
0.0
  7
KANJI54
  0
TEXT
  8
0
  6
CONTINUOUS
 62
     2
 10
1590.25
 20
1222.25
 30
150.371428571
 40
19.0
  1
推力
 50
0.0
 41
0.9
 51
0.0
  7
KANJI54
  0
TEXT
  8
0
  6
CONTINUOUS
 62
     2
 10
1590.25
 20
1187.25
 30
24.767857143
 40
19.0
  1
ストローク
 50
0.0
 41
0.9
 51
0.0
  7
KANJI55
  0
TEXT
  8
0
  6
CONTINUOUS
 62
     2
 10
1590.25
 20
1082.25
 30
150.371428571
 40
19.0
  1
構造
 50
0.0
 41
0.9
 51
0.0
  7
KANJI54
  0
TEXT
  8
0
  6
CONTINUOUS
 62
     2
 10
1590.25
 20
1047.25
 30
10.811542857
 40
19.0
  1
過負荷安全装置
 50
0.0
 41
0.9
 51
0.0
  7
KANJI56
  0
TEXT
  8
0
  6
CONTINUOUS
 62
     2
 10
1590.25
 20
1012.25
 30
66.635714286
 40
19.0
  1
塗装色
 50
0.0
 41
0.9
 51
0.0
  7
KANJI57
  0
TEXT
  8
0
  6
CONTINUOUS
 62
     2
 10
1570.25
 20
1117.25
 30
1.628571429
 40
19.0
  1
ピストンロッド回転トルク
 50
0.0
 41
0.9
 51
0.0
  7
KANJI58
  0
TEXT
  8
0
  6
CONTINUOUS
 62
     2
 10
1590.25
 20
697.25
 30
66.635714286
 40
19.0
  1
付属品
 50
0.0
 41
0.9
 51
0.0
  7
KANJI57
  0
TEXT
  8
0
  6
CONTINUOUS
 62
     2
 10
1590.25
 20
662.25
 30
150.371428571
 40
19.0
  1
台数
 50
0.0
 41
0.9
 51
0.0
  7
KANJI54
  0
LINE
  8
0
  6
CONTINUOUS
 62
     2
 10
1562.75
 20
828.25
 30
0.0
 11
2000.25
 21
828.25
 31
0.0
  0
LINE
  8
0
  6
CONTINUOUS
 62
     2
 10
1602.75
 20
793.25
 30
0.0
 11
2000.25
 21
793.25
 31
0.0
  0
TEXT
  8
0
  6
CONTINUOUS
 62
     2
 10
1583.125
 20
998.25
 30
11.0
 40
17.5
  1
モ　トル仕様
 50
0.0
 41
0.9
 51
0.0
  7
KANJI59
  0
TEXT
  8
0
  6
CONTINUOUS
 62
     2
 10
1583.125
 20
813.25
 30
1.0
 40
17.5
  1
ブレ　キ
 50
0.0
 41
0.9
 51
0.0
  7
KANJI60
  0
LINE
  8
0
  6
CONTINUOUS
 62
     2
 10
1581.75
 20
771.75
 30
0.0
 11
1581.75
 21
761.25
 31
0.0
  0
TEXT
  8
0
  6
CONTINUOUS
 62
     2
 10
1841.5
 20
1048.25
 30
7.5
 40
17.5
  1
推力リミッタ
 50
0.0
 41
0.9
 51
0.0
  7
KANJI61
  0
TEXT
  8
0
  6
CONTINUOUS
 62
     2
 10
1889.0
 20
838.25
 30
1.5
 40
15.0
  1
Ｅ
 50
0.0
 41
0.9
 51
0.0
  7
KANJI62
  0
TEXT
  8
0
  6
CONTINUOUS
 62
     2
 10
1852.75
 20
767.25
 30
10.0
 40
17.5
  1
同時切り
 50
0.0
 41
0.9
 51
0.0
  7
KANJI63
  0
TEXT
  8
0
  6
CONTINUOUS
 62
     2
 10
1625.25
 20
802.25
 30
117.8
 40
19.0
  1
形式
 50
0.0
 41
0.9
 51
0.0
  7
KANJI53
  0
TEXT
  8
0
  6
CONTINUOUS
 62
     2
 10
1625.25
 20
767.25
 30
27.866485714
 40
19.0
  1
操作方式
 50
0.0
 41
0.9
 51
0.0
  7
KANJI51
  0
LINE
  8
0
  6
CONTINUOUS
 62
     2
 10
1581.75
 20
967.75
 30
0.0
 11
1581.75
 21
956.25
 31
0.0
  0
TEXT
  8
0
  6
CONTINUOUS
 62
     2
 10
1625.25
 20
977.25
 30
2.5
 40
19.0
  1
出力　相数　極数
 50
0.0
 41
0.9
 51
0.0
  7
KANJI64
  0
TEXT
  8
0
  6
CONTINUOUS
 62
     2
 10
1841.5
 20
1083.25
 30
7.5
 40
17.5
  1
全閉屋外形
 50
0.0
 41
0.9
 51
0.0
  7
KANJI61
  0
TEXT
  8
0
  6
CONTINUOUS
 62
     2
 10
1590.25
 20
1152.25
 30
10.0
 40
19.0
  1
公称速度
 50
0.0
 41
0.9
 51
0.0
  7
KANJI65
  0
TEXT
  8
0
  6
CONTINUOUS
 62
     2
 10
1693.5
 20
1151.25
 30
0.0
 40
17.5
  1
（５０／６０Ｈｚ）
 50
0.0
 41
0.628571429
 51
0.0
  7
KANJI66
  0
TEXT
  8
0
  6
CONTINUOUS
 62
     2
 10
1794.0
 20
802.625
 30
2.75
 40
17.0
  1
スプリング制動式電磁ブレーキ
 50
0.0
 41
0.705882353
 51
0.0
  7
KANJI67
  0
TEXT
  8
0
  6
CONTINUOUS
 62
     2
 10
1976.5
 20
942.25
 30
0.18
 40
15.0
  1
Ｖ
 50
0.0
 41
0.8
 51
0.0
  7
KANJI68
  0
TEXT
  8
0
  6
CONTINUOUS
 62
     2
 10
1967.5
 20
907.25
 30
0.18
 40
15.0
  1
Ｈｚ
 50
0.0
 41
0.8
 51
0.0
  7
KANJI68
  0
TEXT
  8
0
  6
CONTINUOUS
 62
     2
 10
1976.5
 20
872.25
 30
0.18
 40
15.0
  1
Ａ
 50
0.0
 41
0.8
 51
0.0
  7
KANJI68
  0
TEXT
  8
0
  6
CONTINUOUS
 62
     2
 10
1910.75
 20
978.25
 30
1.5
 40
15.0
  1
３φ
 50
0.0
 41
0.9
 51
0.0
  7
KANJI62
  0
TEXT
  8
0
  6
CONTINUOUS
 62
     2
 10
1960.75
 20
978.25
 30
1.5
 40
15.0
  1
４Ｐ
 50
0.0
 41
0.9
 51
0.0
  7
KANJI62
  0
TEXT
  8
0
  6
CONTINUOUS
 62
     2
 10
1792.75
 20
1013.25
 30
1.0
 40
16.0
  1
マンセル　７．５ＧＹ　５／４．５
 50
0.0
 41
0.71875
 51
0.0
  7
KANJI69
  0
TEXT
  8
0
  6
CONTINUOUS
 62
     2
 10
1792.75
 20
943.25
 30
1.5
 40
15.0
  1
　　　　　　　／　　　
 50
0.0
 41
0.9
 51
0.0
  7
KANJI62
  0
TEXT
  8
0
  6
CONTINUOUS
 62
     2
 10
1792.75
 20
908.25
 30
1.5
 40
15.0
  1
　　　　５０／　６０
 50
0.0
 41
0.9
 51
0.0
  7
KANJI62
  0
TEXT
  8
0
  6
CONTINUOUS
 62
     2
 10
1792.75
 20
873.25
 30
1.5
 40
15.0
  1
　　　　　　　／　　　
 50
0.0
 41
0.9
 51
0.0
  7
KANJI62
  0
TEXT
  8
0
  6
CONTINUOUS
 62
     2
 10
1963.25
 20
1189.25
 30
0.128
 40
16.0
  1
ｍｍ
 50
0.0
 41
0.8
 51
0.0
  7
KANJI70
  0
TEXT
  8
0
  6
CONTINUOUS
 62
     2
 10
1930.75
 20
1153.25
 30
0.0
 40
17.5
  1
ｍｍ／ｓｅｃ
 50
0.0
 41
0.571428571
 51
0.0
  7
KANJI71
  0
TEXT
  8
0
  6
CONTINUOUS
 62
     2
 10
1790.25
 20
1153.25
 30
1.5
 40
15.0
  1
　９．７／１１．６
 50
0.0
 41
0.9
 51
0.0
  7
KANJI62
  0
TEXT
  8
0
  6
CONTINUOUS
 62
     2
 10
1797.75
 20
978.25
 30
1.5
 40
15.0
  1
　０．３ＫＷ
 50
0.0
 41
0.9
 51
0.0
  7
KANJI62
  0
TEXT
  8
0
  6
CONTINUOUS
 62
     2
 10
1817.25
 20
1223.25
 30
1.5
 40
15.0
  1
２９４０Ｎ（３００ｋｇ）
 50
0.0
 41
0.9
 51
0.0
  7
KANJI62
  0
TEXT
  8
0
  6
CONTINUOUS
 62
     2
 10
1804.0
 20
1256.5
 30
1.0
 40
15.0
  1
ＭＤ０３－　　Ｊ
 50
0.0
 41
0.833333333
 51
0.0
  7
KANJI72
  0
LINE
  8
0
  6
CONTINUOUS
 62
     1
 10
1562.75
 20
618.25
 30
0.0
 11
2000.25
 21
618.25
 31
0.0
  0
TEXT
  8
0
  6
CONTINUOUS
 62
     2
 10
1589.25
 20
627.25
 30
5.0
 40
17.5
  1
概算重量（１台当り）
 50
0.0
 41
0.857142857
 51
0.0
  7
KANJI22
  0
TEXT
  8
0
  6
CONTINUOUS
 62
     2
 10
1954.25
 20
628.4
 30
0.0
 40
17.5
  1
ｋｇ
 50
0.0
 41
0.9
 51
0.0
  7
KANJI73
  0
LINE
  8
0
  6
CONTINUOUS
 62
     2
 10
1562.75
 20
653.25
 30
0.0
 11
2000.25
 21
653.25
 31
0.0
  0
TEXT
  8
0
  6
CONTINUOUS
 62
     2
 10
1809.875
 20
1117.125
 30
0.0
 40
15.0
  1
８．３Ｎ・ｍ（０．８５ｋｇ・ｍ）
 50
0.0
 41
0.766666667
 51
0.0
  7
KANJI74
  0
LINE
  8
0
  6
CONTINUOUS
 62
     1
 10
1562.75
 20
1333.25
 30
0.0
 11
1562.75
 21
618.25
 31
0.0
  0
LINE
  8
0
  6
CONTINUOUS
 62
     2
 10
1792.75
 20
1283.25
 30
0.0
 11
1792.75
 21
618.25
 31
0.0
  0
LINE
  8
0
  6
CONTINUOUS
 62
     1
 10
2000.25
 20
1333.25
 30
0.0
 11
2000.25
 21
618.25
 31
0.0
  0
ENDSEC
  0
EOF
