  0
SECTION
  2
HEADER
  9
$ACADVER
  1
AC1009
  9
$DWGCODEPAGE
  3
dos932
  9
$EXTMIN
 10
0.0
 20
0.0
 30
0.0
  9
$EXTMAX
 10
2100.0
 20
1485.0
 30
0.0
  9
$LIMMIN
 10
0.0
 20
0.0
  9
$LIMMAX
 10
2100.0
 20
1485.0
  9
$LTSCALE
 40
1.0
  9
$PDMODE
 70
     0
  0
ENDSEC
  0
SECTION
  2
TABLES
  0
TABLE
  2
VPORT
 70
     1
  0
VPORT
  2
*ACTIVE
 70
     0
 10
0.0
 20
0.0
 11
1.0
 21
1.0
 12
1050.0
 22
742.5
 13
0.0
 23
0.0
 14
10.0
 24
10.0
 15
10.0
 25
10.0
 16
0.0
 26
0.0
 36
1.0
 17
0.0
 27
0.0
 37
0.0
 40
2100.0
 41
1.414141414
 42
50.0
 43
0.0
 44
0.0
 50
0.0
 51
0.0
 71
     0
 72
  1000
 73
     1
 74
     3
 75
     0
 76
     0
 77
     0
 78
     0
  0
ENDTAB
  0
TABLE
  2
LTYPE
 70
     6
  0
LTYPE
  2
CONTINUOUS
 70
    64
  3
Solid line
 72
    65
 73
     0
 40
0.0
  0
LTYPE
  2
LTYPE1
 70
    64
  3
HIDDEN
 72
    65
 73
     2
 40
15.0
 49
9.0
 49
-6.0
  0
LTYPE
  2
LTYPE2
 70
    64
  3
CENTER
 72
    65
 73
     4
 40
50.0
 49
35.0
 49
-5.0
 49
5.0
 49
-5.0
  0
LTYPE
  2
LTYPE3
 70
    64
  3
CENTER
 72
    65
 73
     4
 40
75.0
 49
52.5
 49
-7.5
 49
7.5
 49
-7.5
  0
LTYPE
  2
LTYPE4
 70
    64
  3
PHANTOM
 72
    65
 73
     6
 40
50.0
 49
37.5
 49
-2.5
 49
2.5
 49
-2.5
 49
2.5
 49
-2.5
  0
LTYPE
  2
LTYPE5
 70
    64
  3
CENTER
 72
    65
 73
     4
 40
45.0
 49
31.5
 49
-4.5
 49
4.5
 49
-4.5
  0
ENDTAB
  0
TABLE
  2
LAYER
 70
   128
  0
LAYER
  2
0
 70
     0
 62
     7
  6
CONTINUOUS
  0
LAYER
  2
2
 70
     0
 62
     7
  6
CONTINUOUS
  0
LAYER
  2
3
 70
     0
 62
     7
  6
CONTINUOUS
  0
LAYER
  2
4
 70
     0
 62
     7
  6
CONTINUOUS
  0
LAYER
  2
5
 70
     0
 62
     7
  6
CONTINUOUS
  0
LAYER
  2
6
 70
     0
 62
     7
  6
CONTINUOUS
  0
LAYER
  2
7
 70
     0
 62
     7
  6
CONTINUOUS
  0
LAYER
  2
8
 70
     0
 62
     7
  6
CONTINUOUS
  0
LAYER
  2
9
 70
     0
 62
     7
  6
CONTINUOUS
  0
LAYER
  2
10
 70
     0
 62
     7
  6
CONTINUOUS
  0
LAYER
  2
11
 70
     0
 62
     7
  6
CONTINUOUS
  0
LAYER
  2
12
 70
     0
 62
     7
  6
CONTINUOUS
  0
LAYER
  2
13
 70
     0
 62
     7
  6
CONTINUOUS
  0
LAYER
  2
14
 70
     0
 62
     7
  6
CONTINUOUS
  0
LAYER
  2
15
 70
     0
 62
     7
  6
CONTINUOUS
  0
LAYER
  2
16
 70
     0
 62
     7
  6
CONTINUOUS
  0
LAYER
  2
17
 70
     0
 62
     7
  6
CONTINUOUS
  0
LAYER
  2
18
 70
     0
 62
     7
  6
CONTINUOUS
  0
LAYER
  2
19
 70
     0
 62
     7
  6
CONTINUOUS
  0
LAYER
  2
20
 70
     0
 62
     7
  6
CONTINUOUS
  0
LAYER
  2
21
 70
     0
 62
     7
  6
CONTINUOUS
  0
LAYER
  2
22
 70
     0
 62
     7
  6
CONTINUOUS
  0
LAYER
  2
23
 70
     0
 62
     7
  6
CONTINUOUS
  0
LAYER
  2
24
 70
     0
 62
     7
  6
CONTINUOUS
  0
LAYER
  2
25
 70
     0
 62
     7
  6
CONTINUOUS
  0
LAYER
  2
26
 70
     0
 62
     7
  6
CONTINUOUS
  0
LAYER
  2
27
 70
     0
 62
     7
  6
CONTINUOUS
  0
LAYER
  2
28
 70
     0
 62
     7
  6
CONTINUOUS
  0
LAYER
  2
29
 70
     0
 62
     7
  6
CONTINUOUS
  0
LAYER
  2
30
 70
     0
 62
     7
  6
CONTINUOUS
  0
LAYER
  2
31
 70
     0
 62
     7
  6
CONTINUOUS
  0
LAYER
  2
32
 70
     0
 62
     7
  6
CONTINUOUS
  0
LAYER
  2
33
 70
     0
 62
     7
  6
CONTINUOUS
  0
LAYER
  2
34
 70
     0
 62
     7
  6
CONTINUOUS
  0
LAYER
  2
35
 70
     0
 62
     7
  6
CONTINUOUS
  0
LAYER
  2
36
 70
     0
 62
     7
  6
CONTINUOUS
  0
LAYER
  2
37
 70
     0
 62
     7
  6
CONTINUOUS
  0
LAYER
  2
38
 70
     0
 62
     7
  6
CONTINUOUS
  0
LAYER
  2
39
 70
     0
 62
     7
  6
CONTINUOUS
  0
LAYER
  2
40
 70
     0
 62
     7
  6
CONTINUOUS
  0
LAYER
  2
41
 70
     0
 62
     7
  6
CONTINUOUS
  0
LAYER
  2
42
 70
     0
 62
     7
  6
CONTINUOUS
  0
LAYER
  2
43
 70
     0
 62
     7
  6
CONTINUOUS
  0
LAYER
  2
44
 70
     0
 62
     7
  6
CONTINUOUS
  0
LAYER
  2
45
 70
     0
 62
     7
  6
CONTINUOUS
  0
LAYER
  2
46
 70
     0
 62
     7
  6
CONTINUOUS
  0
LAYER
  2
47
 70
     0
 62
     7
  6
CONTINUOUS
  0
LAYER
  2
48
 70
     0
 62
     7
  6
CONTINUOUS
  0
LAYER
  2
49
 70
     0
 62
     7
  6
CONTINUOUS
  0
LAYER
  2
50
 70
     0
 62
     7
  6
CONTINUOUS
  0
LAYER
  2
51
 70
     0
 62
     7
  6
CONTINUOUS
  0
LAYER
  2
52
 70
     0
 62
     7
  6
CONTINUOUS
  0
LAYER
  2
53
 70
     0
 62
     7
  6
CONTINUOUS
  0
LAYER
  2
54
 70
     0
 62
     7
  6
CONTINUOUS
  0
LAYER
  2
55
 70
     0
 62
     7
  6
CONTINUOUS
  0
LAYER
  2
56
 70
     0
 62
     7
  6
CONTINUOUS
  0
LAYER
  2
57
 70
     0
 62
     7
  6
CONTINUOUS
  0
LAYER
  2
58
 70
     0
 62
     7
  6
CONTINUOUS
  0
LAYER
  2
59
 70
     0
 62
     7
  6
CONTINUOUS
  0
LAYER
  2
60
 70
     0
 62
     7
  6
CONTINUOUS
  0
LAYER
  2
61
 70
     0
 62
     7
  6
CONTINUOUS
  0
LAYER
  2
62
 70
     0
 62
     7
  6
CONTINUOUS
  0
LAYER
  2
63
 70
     0
 62
     7
  6
CONTINUOUS
  0
LAYER
  2
64
 70
     0
 62
     7
  6
CONTINUOUS
  0
LAYER
  2
65
 70
     0
 62
     7
  6
CONTINUOUS
  0
LAYER
  2
66
 70
     0
 62
     7
  6
CONTINUOUS
  0
LAYER
  2
67
 70
     0
 62
     7
  6
CONTINUOUS
  0
LAYER
  2
68
 70
     0
 62
     7
  6
CONTINUOUS
  0
LAYER
  2
69
 70
     0
 62
     7
  6
CONTINUOUS
  0
LAYER
  2
70
 70
     0
 62
     7
  6
CONTINUOUS
  0
LAYER
  2
71
 70
     0
 62
     7
  6
CONTINUOUS
  0
LAYER
  2
72
 70
     0
 62
     7
  6
CONTINUOUS
  0
LAYER
  2
73
 70
     0
 62
     7
  6
CONTINUOUS
  0
LAYER
  2
74
 70
     0
 62
     7
  6
CONTINUOUS
  0
LAYER
  2
75
 70
     0
 62
     7
  6
CONTINUOUS
  0
LAYER
  2
76
 70
     0
 62
     7
  6
CONTINUOUS
  0
LAYER
  2
77
 70
     0
 62
     7
  6
CONTINUOUS
  0
LAYER
  2
78
 70
     0
 62
     7
  6
CONTINUOUS
  0
LAYER
  2
79
 70
     0
 62
     7
  6
CONTINUOUS
  0
LAYER
  2
80
 70
     0
 62
     7
  6
CONTINUOUS
  0
LAYER
  2
81
 70
     0
 62
     7
  6
CONTINUOUS
  0
LAYER
  2
82
 70
     0
 62
     7
  6
CONTINUOUS
  0
LAYER
  2
83
 70
     0
 62
     7
  6
CONTINUOUS
  0
LAYER
  2
84
 70
     0
 62
     7
  6
CONTINUOUS
  0
LAYER
  2
85
 70
     0
 62
     7
  6
CONTINUOUS
  0
LAYER
  2
86
 70
     0
 62
     7
  6
CONTINUOUS
  0
LAYER
  2
87
 70
     0
 62
     7
  6
CONTINUOUS
  0
LAYER
  2
88
 70
     0
 62
     7
  6
CONTINUOUS
  0
LAYER
  2
89
 70
     0
 62
     7
  6
CONTINUOUS
  0
LAYER
  2
90
 70
     0
 62
     7
  6
CONTINUOUS
  0
LAYER
  2
91
 70
     0
 62
     7
  6
CONTINUOUS
  0
LAYER
  2
92
 70
     0
 62
     7
  6
CONTINUOUS
  0
LAYER
  2
93
 70
     0
 62
     7
  6
CONTINUOUS
  0
LAYER
  2
94
 70
     0
 62
     7
  6
CONTINUOUS
  0
LAYER
  2
95
 70
     0
 62
     7
  6
CONTINUOUS
  0
LAYER
  2
96
 70
     0
 62
     7
  6
CONTINUOUS
  0
LAYER
  2
97
 70
     0
 62
     7
  6
CONTINUOUS
  0
LAYER
  2
98
 70
     0
 62
     7
  6
CONTINUOUS
  0
LAYER
  2
99
 70
     0
 62
     7
  6
CONTINUOUS
  0
LAYER
  2
100
 70
     0
 62
     7
  6
CONTINUOUS
  0
LAYER
  2
101
 70
     0
 62
     7
  6
CONTINUOUS
  0
LAYER
  2
102
 70
     0
 62
     7
  6
CONTINUOUS
  0
LAYER
  2
103
 70
     0
 62
     7
  6
CONTINUOUS
  0
LAYER
  2
104
 70
     0
 62
     7
  6
CONTINUOUS
  0
LAYER
  2
105
 70
     0
 62
     7
  6
CONTINUOUS
  0
LAYER
  2
106
 70
     0
 62
     7
  6
CONTINUOUS
  0
LAYER
  2
107
 70
     0
 62
     7
  6
CONTINUOUS
  0
LAYER
  2
108
 70
     0
 62
     7
  6
CONTINUOUS
  0
LAYER
  2
109
 70
     0
 62
     7
  6
CONTINUOUS
  0
LAYER
  2
110
 70
     0
 62
     7
  6
CONTINUOUS
  0
LAYER
  2
111
 70
     0
 62
     7
  6
CONTINUOUS
  0
LAYER
  2
112
 70
     0
 62
     7
  6
CONTINUOUS
  0
LAYER
  2
113
 70
     0
 62
     7
  6
CONTINUOUS
  0
LAYER
  2
114
 70
     0
 62
     7
  6
CONTINUOUS
  0
LAYER
  2
115
 70
     0
 62
     7
  6
CONTINUOUS
  0
LAYER
  2
116
 70
     0
 62
     7
  6
CONTINUOUS
  0
LAYER
  2
117
 70
     0
 62
     7
  6
CONTINUOUS
  0
LAYER
  2
118
 70
     0
 62
     7
  6
CONTINUOUS
  0
LAYER
  2
119
 70
     0
 62
     7
  6
CONTINUOUS
  0
LAYER
  2
120
 70
     0
 62
     7
  6
CONTINUOUS
  0
LAYER
  2
121
 70
     0
 62
     7
  6
CONTINUOUS
  0
LAYER
  2
122
 70
     0
 62
     7
  6
CONTINUOUS
  0
LAYER
  2
123
 70
     0
 62
     7
  6
CONTINUOUS
  0
LAYER
  2
124
 70
     0
 62
     7
  6
CONTINUOUS
  0
LAYER
  2
125
 70
     0
 62
     7
  6
CONTINUOUS
  0
LAYER
  2
126
 70
     0
 62
     7
  6
CONTINUOUS
  0
LAYER
  2
127
 70
     0
 62
     7
  6
CONTINUOUS
  0
LAYER
  2
128
 70
     0
 62
     7
  6
CONTINUOUS
  0
ENDTAB
  0
TABLE
  2
STYLE
 70
    77
  0
STYLE
  2
STANDARD
 70
     0
 40
0.0
 41
1.0
 50
0.0
 71
     0
 42
0.2
  3
txt.shx
  4
extfont.shx
  0
STYLE
  2
KANJI0
 70
     0
 40
12.8
 41
0.9
 50
0.0
 71
     0
 42
12.8
  3
txt.shx
  4
extfont.shx
  0
STYLE
  2
KANJI1
 70
     0
 40
12.0
 41
0.9
 50
0.0
 71
     0
 42
12.0
  3
txt.shx
  4
extfont.shx
  0
STYLE
  2
KANJI2
 70
     0
 40
12.0
 41
0.9
 50
0.0
 71
     0
 42
12.0
  3
txt.shx
  4
extfont.shx
  0
STYLE
  2
KANJI3
 70
     0
 40
14.0
 41
0.9
 50
0.0
 71
     0
 42
14.0
  3
txt.shx
  4
extfont.shx
  0
STYLE
  2
KANJI4
 70
     0
 40
10.8
 41
0.740740741
 50
0.0
 71
     0
 42
10.8
  3
txt.shx
  4
extfont.shx
  0
STYLE
  2
KANJI5
 70
     0
 40
14.0
 41
0.857142857
 50
0.0
 71
     0
 42
14.0
  3
txt.shx
  4
extfont.shx
  0
STYLE
  2
KANJI6
 70
     0
 40
9.999997897
 41
0.6
 50
0.0
 71
     0
 42
9.999997897
  3
txt.shx
  4
extfont.shx
  0
STYLE
  2
KANJI7
 70
     0
 40
11.999997477
 41
0.9
 50
0.0
 71
     0
 42
11.999997477
  3
txt.shx
  4
extfont.shx
  0
STYLE
  2
KANJI8
 70
     0
 40
14.999996846
 41
0.9
 50
0.0
 71
     0
 42
14.999996846
  3
txt.shx
  4
extfont.shx
  0
STYLE
  2
KANJI9
 70
     0
 40
12.999999
 41
0.75
 50
0.0
 71
     0
 42
12.999999
  3
txt.shx
  4
extfont.shx
  0
STYLE
  2
KANJI10
 70
     0
 40
8.666666
 41
0.6
 50
0.0
 71
     0
 42
8.666666
  3
txt.shx
  4
extfont.shx
  0
STYLE
  2
KANJI11
 70
     0
 40
10.3999992
 41
0.6
 50
0.0
 71
     0
 42
10.3999992
  3
txt.shx
  4
extfont.shx
  0
STYLE
  2
KANJI12
 70
     0
 40
15.1666655
 41
0.42031746
 50
0.0
 71
     0
 42
15.1666655
  3
txt.shx
  4
extfont.shx
  0
STYLE
  2
KANJI13
 70
     0
 40
25.999998
 41
0.9
 50
0.0
 71
     0
 42
25.999998
  3
txt.shx
  4
extfont.shx
  0
STYLE
  2
KANJI14
 70
     0
 40
22.5
 41
0.666666667
 50
0.0
 71
     0
 42
22.5
  3
txt.shx
  4
extfont.shx
  0
STYLE
  2
KANJI15
 70
     0
 40
18.0
 41
1.111111111
 50
0.0
 71
     0
 42
18.0
  3
txt.shx
  4
extfont.shx
  0
STYLE
  2
KANJI16
 70
     0
 40
8.666666
 41
0.8
 50
0.0
 71
     0
 42
8.666666
  3
txt.shx
  4
extfont.shx
  0
STYLE
  2
KANJI17
 70
     0
 40
10.3999992
 41
0.8
 50
0.0
 71
     0
 42
10.3999992
  3
txt.shx
  4
extfont.shx
  0
STYLE
  2
KANJI18
 70
     0
 40
25.0
 41
1.0
 50
0.0
 71
     0
 42
25.0
  3
txt.shx
  4
extfont.shx
  0
STYLE
  2
KANJI19
 70
     0
 40
25.0
 41
1.0
 50
0.0
 71
     0
 42
25.0
  3
txt.shx
  4
extfont.shx
  0
STYLE
  2
KANJI20
 70
     0
 40
25.0
 41
0.8
 50
0.0
 71
     0
 42
25.0
  3
txt.shx
  4
extfont.shx
  0
STYLE
  2
KANJI21
 70
     0
 40
20.0
 41
1.0
 50
0.0
 71
     0
 42
20.0
  3
txt.shx
  4
extfont.shx
  0
STYLE
  2
KANJI22
 70
     0
 40
17.5
 41
0.857142857
 50
0.0
 71
     0
 42
17.5
  3
txt.shx
  4
extfont.shx
  0
STYLE
  2
KANJI23
 70
     0
 40
12.0
 41
0.9
 50
0.0
 71
     0
 42
12.0
  3
txt.shx
  4
extfont.shx
  0
STYLE
  2
KANJI24
 70
     0
 40
12.0
 41
0.833333333
 50
0.0
 71
     0
 42
12.0
  3
txt.shx
  4
extfont.shx
  0
STYLE
  2
KANJI25
 70
     0
 40
17.5
 41
0.793650794
 50
0.0
 71
     0
 42
17.5
  3
txt.shx
  4
extfont.shx
  0
STYLE
  2
KANJI26
 70
     0
 40
25.0
 41
0.8
 50
0.0
 71
     0
 42
25.0
  3
txt.shx
  4
extfont.shx
  0
STYLE
  2
KANJI27
 70
     0
 40
15.0
 41
0.9
 50
0.0
 71
     0
 42
15.0
  3
txt.shx
  4
extfont.shx
  0
STYLE
  2
KANJI28
 70
     0
 40
13.182
 41
0.85
 50
0.0
 71
     0
 42
13.182
  3
txt.shx
  4
extfont.shx
  0
STYLE
  2
KANJI29
 70
     0
 40
11.661
 41
0.822608696
 50
0.0
 71
     0
 42
11.661
  3
txt.shx
  4
extfont.shx
  0
STYLE
  2
KANJI30
 70
     0
 40
11.8638
 41
0.726495726
 50
0.0
 71
     0
 42
11.8638
  3
txt.shx
  4
extfont.shx
  0
STYLE
  2
KANJI31
 70
     4
 40
45.0
 41
0.538166667
 50
0.0
 71
     0
 42
45.0
  3
txt.shx
  4
extfont.shx
  0
STYLE
  2
KANJI32
 70
     0
 40
11.55
 41
0.9
 50
0.0
 71
     0
 42
11.55
  3
txt.shx
  4
extfont.shx
  0
STYLE
  2
KANJI33
 70
     0
 40
13.475
 41
0.9
 50
0.0
 71
     0
 42
13.475
  3
txt.shx
  4
extfont.shx
  0
STYLE
  2
KANJI34
 70
     0
 40
17.740702234
 41
0.880962996
 50
0.0
 71
     0
 42
17.740702234
  3
txt.shx
  4
extfont.shx
  0
STYLE
  2
KANJI35
 70
     0
 40
11.7
 41
0.8
 50
0.0
 71
     0
 42
11.7
  3
txt.shx
  4
extfont.shx
  0
STYLE
  2
KANJI36
 70
     0
 40
15.0
 41
0.911
 50
0.0
 71
     0
 42
15.0
  3
txt.shx
  4
extfont.shx
  0
STYLE
  2
KANJI37
 70
     0
 40
15.0
 41
0.833333333
 50
0.0
 71
     0
 42
15.0
  3
txt.shx
  4
extfont.shx
  0
STYLE
  2
KANJI38
 70
     0
 40
20.0
 41
0.9
 50
0.0
 71
     0
 42
20.0
  3
txt.shx
  4
extfont.shx
  0
STYLE
  2
KANJI39
 70
     0
 40
18.0
 41
0.857142857
 50
0.0
 71
     0
 42
18.0
  3
txt.shx
  4
extfont.shx
  0
STYLE
  2
KANJI40
 70
     0
 40
18.0
 41
0.857222222
 50
0.0
 71
     0
 42
18.0
  3
txt.shx
  4
extfont.shx
  0
STYLE
  2
KANJI41
 70
     0
 40
20.0
 41
0.925
 50
0.0
 71
     0
 42
20.0
  3
txt.shx
  4
extfont.shx
  0
STYLE
  2
KANJI42
 70
     0
 40
10.933904043
 41
0.9
 50
0.0
 71
     0
 42
10.933904043
  3
txt.shx
  4
extfont.shx
  0
STYLE
  2
KANJI43
 70
     0
 40
15.185977837
 41
0.66671875
 50
0.0
 71
     0
 42
15.185977837
  3
txt.shx
  4
extfont.shx
  0
STYLE
  2
KANJI44
 70
     0
 40
18.223173404
 41
0.9
 50
0.0
 71
     0
 42
18.223173404
  3
txt.shx
  4
extfont.shx
  0
STYLE
  2
KANJI45
 70
     0
 40
15.6
 41
0.925
 50
0.0
 71
     0
 42
15.6
  3
txt.shx
  4
extfont.shx
  0
STYLE
  2
KANJI46
 70
     0
 40
14.578538724
 41
0.9
 50
0.0
 71
     0
 42
14.578538724
  3
txt.shx
  4
extfont.shx
  0
STYLE
  2
KANJI47
 70
     0
 40
15.0
 41
0.9
 50
0.0
 71
     0
 42
15.0
  3
txt.shx
  4
extfont.shx
  0
STYLE
  2
KANJI48
 70
     0
 40
20.0
 41
0.925
 50
0.0
 71
     0
 42
20.0
  3
txt.shx
  4
extfont.shx
  0
STYLE
  2
KANJI49
 70
     0
 40
9.0
 41
0.9
 50
0.0
 71
     0
 42
9.0
  3
txt.shx
  4
extfont.shx
  0
STYLE
  2
KANJI50
 70
     0
 40
22.5
 41
0.9
 50
0.0
 71
     0
 42
22.5
  3
txt.shx
  4
extfont.shx
  0
STYLE
  2
KANJI51
 70
     0
 40
19.0
 41
0.9
 50
0.0
 71
     0
 42
19.0
  3
txt.shx
  4
extfont.shx
  0
STYLE
  2
KANJI52
 70
     0
 40
19.0
 41
0.9
 50
0.0
 71
     0
 42
19.0
  3
txt.shx
  4
extfont.shx
  0
STYLE
  2
KANJI53
 70
     0
 40
19.0
 41
0.9
 50
0.0
 71
     0
 42
19.0
  3
txt.shx
  4
extfont.shx
  0
STYLE
  2
KANJI54
 70
     0
 40
19.0
 41
0.9
 50
0.0
 71
     0
 42
19.0
  3
txt.shx
  4
extfont.shx
  0
STYLE
  2
KANJI55
 70
     0
 40
19.0
 41
0.9
 50
0.0
 71
     0
 42
19.0
  3
txt.shx
  4
extfont.shx
  0
STYLE
  2
KANJI56
 70
     0
 40
19.0
 41
0.9
 50
0.0
 71
     0
 42
19.0
  3
txt.shx
  4
extfont.shx
  0
STYLE
  2
KANJI57
 70
     0
 40
19.0
 41
0.9
 50
0.0
 71
     0
 42
19.0
  3
txt.shx
  4
extfont.shx
  0
STYLE
  2
KANJI58
 70
     0
 40
19.0
 41
0.9
 50
0.0
 71
     0
 42
19.0
  3
txt.shx
  4
extfont.shx
  0
STYLE
  2
KANJI59
 70
     4
 40
17.5
 41
0.9
 50
0.0
 71
     0
 42
17.5
  3
txt.shx
  4
extfont.shx
  0
STYLE
  2
KANJI60
 70
     4
 40
17.5
 41
0.9
 50
0.0
 71
     0
 42
17.5
  3
txt.shx
  4
extfont.shx
  0
STYLE
  2
KANJI61
 70
     0
 40
17.5
 41
0.9
 50
0.0
 71
     0
 42
17.5
  3
txt.shx
  4
extfont.shx
  0
STYLE
  2
KANJI62
 70
     0
 40
15.0
 41
0.9
 50
0.0
 71
     0
 42
15.0
  3
txt.shx
  4
extfont.shx
  0
STYLE
  2
KANJI63
 70
     0
 40
17.5
 41
0.9
 50
0.0
 71
     0
 42
17.5
  3
txt.shx
  4
extfont.shx
  0
STYLE
  2
KANJI64
 70
     0
 40
19.0
 41
0.9
 50
0.0
 71
     0
 42
19.0
  3
txt.shx
  4
extfont.shx
  0
STYLE
  2
KANJI65
 70
     0
 40
19.0
 41
0.9
 50
0.0
 71
     0
 42
19.0
  3
txt.shx
  4
extfont.shx
  0
STYLE
  2
KANJI66
 70
     0
 40
17.5
 41
0.628571429
 50
0.0
 71
     0
 42
17.5
  3
txt.shx
  4
extfont.shx
  0
STYLE
  2
KANJI67
 70
     0
 40
17.0
 41
0.705882353
 50
0.0
 71
     0
 42
17.0
  3
txt.shx
  4
extfont.shx
  0
STYLE
  2
KANJI68
 70
     0
 40
15.0
 41
0.8
 50
0.0
 71
     0
 42
15.0
  3
txt.shx
  4
extfont.shx
  0
STYLE
  2
KANJI69
 70
     0
 40
16.0
 41
0.71875
 50
0.0
 71
     0
 42
16.0
  3
txt.shx
  4
extfont.shx
  0
STYLE
  2
KANJI70
 70
     0
 40
16.0
 41
0.8
 50
0.0
 71
     0
 42
16.0
  3
txt.shx
  4
extfont.shx
  0
STYLE
  2
KANJI71
 70
     0
 40
17.5
 41
0.571428571
 50
0.0
 71
     0
 42
17.5
  3
txt.shx
  4
extfont.shx
  0
STYLE
  2
KANJI72
 70
     0
 40
15.0
 41
0.833333333
 50
0.0
 71
     0
 42
15.0
  3
txt.shx
  4
extfont.shx
  0
STYLE
  2
KANJI73
 70
     0
 40
15.0
 41
0.833333333
 50
0.0
 71
     0
 42
15.0
  3
txt.shx
  4
extfont.shx
  0
STYLE
  2
KANJI74
 70
     0
 40
17.5
 41
0.9
 50
0.0
 71
     0
 42
17.5
  3
txt.shx
  4
extfont.shx
  0
STYLE
  2
KANJI75
 70
     0
 40
17.5
 41
0.571428571
 50
0.0
 71
     0
 42
17.5
  3
txt.shx
  4
extfont.shx
  0
ENDTAB
  0
TABLE
  2
VIEW
 70
     0
  0
ENDTAB
  0
ENDSEC
  0
SECTION
  2
BLOCKS
  0
ENDSEC
  0
SECTION
  2
ENTITIES
  0
LINE
  8
0
  6
CONTINUOUS
 62
     6
 10
77.6
 20
51.75
 30
0.0
 11
77.6
 21
1396.75
 31
0.0
  0
LINE
  8
0
  6
CONTINUOUS
 62
     6
 10
77.6
 20
1396.75
 30
0.0
 11
2012.6
 21
1396.75
 31
0.0
  0
LINE
  8
0
  6
CONTINUOUS
 62
     1
 10
853.6
 20
1234.7
 30
0.0
 11
1501.6
 21
1234.7
 31
0.0
  0
LINE
  8
0
  6
CONTINUOUS
 62
     1
 10
853.6
 20
1206.7
 30
0.0
 11
1501.6
 21
1206.7
 31
0.0
  0
LINE
  8
0
  6
CONTINUOUS
 62
     2
 10
853.6
 20
1178.7
 30
0.0
 11
1501.6
 21
1178.7
 31
0.0
  0
LINE
  8
0
  6
CONTINUOUS
 62
     2
 10
853.6
 20
1150.7
 30
0.0
 11
1501.6
 21
1150.7
 31
0.0
  0
LINE
  8
0
  6
CONTINUOUS
 62
     2
 10
853.6
 20
1122.7
 30
0.0
 11
1501.6
 21
1122.7
 31
0.0
  0
TEXT
  8
0
  6
CONTINUOUS
 62
     2
 10
893.6
 20
1214.7
 30
1.28
 40
12.8
  1
形
 50
0.0
 41
0.9
 51
0.0
  7
KANJI0
  0
TEXT
  8
0
  6
CONTINUOUS
 62
     2
 10
971.6
 20
1214.7
 30
1.28
 40
12.8
  1
式
 50
0.0
 41
0.9
 51
0.0
  7
KANJI0
  0
TEXT
  8
0
  6
CONTINUOUS
 62
     2
 10
1032.0
 20
1213.9
 30
1.2
 40
12.0
  1
ストローク
 50
0.0
 41
0.9
 51
0.0
  7
KANJI1
  0
TEXT
  8
0
  6
CONTINUOUS
 62
     2
 10
1108.8
 20
1213.1
 30
0.0
 40
12.0
  1
ｍｉｎ　
 50
0.0
 41
0.9
 51
0.0
  7
KANJI2
  0
TEXT
  8
0
  6
CONTINUOUS
 62
     2
 10
1188.8
 20
1213.1
 30
0.0
 40
12.0
  1
ｍｉｎ　
 50
0.0
 41
0.9
 51
0.0
  7
KANJI2
  0
TEXT
  8
0
  6
CONTINUOUS
 62
     2
 10
1348.8
 20
1213.1
 30
0.0
 40
12.0
  1
ｍｉｎ　
 50
0.0
 41
0.9
 51
0.0
  7
KANJI2
  0
TEXT
  8
0
  6
CONTINUOUS
 62
     2
 10
1149.6
 20
1213.9
 30
1.4
 40
14.0
  1
ＡＬ
 50
0.0
 41
0.9
 51
0.0
  7
KANJI3
  0
TEXT
  8
0
  6
CONTINUOUS
 62
     2
 10
1229.6
 20
1213.9
 30
1.4
 40
14.0
  1
Ｌ
 50
0.0
 41
0.9
 51
0.0
  7
KANJI3
  0
TEXT
  8
0
  6
CONTINUOUS
 62
     2
 10
1297.6
 20
1213.9
 30
1.4
 40
14.0
  1
Ｃ
 50
0.0
 41
0.9
 51
0.0
  7
KANJI3
  0
TEXT
  8
0
  6
CONTINUOUS
 62
     2
 10
1389.6
 20
1213.9
 30
1.4
 40
14.0
  1
Ｐ
 50
0.0
 41
0.9
 51
0.0
  7
KANJI3
  0
TEXT
  8
0
  6
CONTINUOUS
 62
     2
 10
1471.9
 20
1213.6
 30
0.0
 40
10.8
  1
（ｋｇ）
 50
0.0
 41
0.740740741
 51
0.0
  7
KANJI4
  0
TEXT
  8
0
  6
CONTINUOUS
 62
     2
 10
1423.9
 20
1213.4
 30
1.2
 40
14.0
  1
概算重量
 50
0.0
 41
0.857142857
 51
0.0
  7
KANJI5
  0
TEXT
  8
0
  6
CONTINUOUS
 62
     2
 10
1039.6
 20
1185.4
 30
1.2
 40
12.0
  1
　１００
 50
0.0
 41
0.9
 51
0.0
  7
KANJI1
  0
TEXT
  8
0
  6
CONTINUOUS
 62
     2
 10
1039.6
 20
1157.4
 30
1.2
 40
12.0
  1
　２００
 50
0.0
 41
0.9
 51
0.0
  7
KANJI1
  0
TEXT
  8
0
  6
CONTINUOUS
 62
     2
 10
1039.6
 20
1129.4
 30
1.2
 40
12.0
  1
　３００
 50
0.0
 41
0.9
 51
0.0
  7
KANJI1
  0
TEXT
  8
0
  6
CONTINUOUS
 62
     2
 10
1199.6
 20
1129.4
 30
1.2
 40
12.0
  1
　５０８
 50
0.0
 41
0.9
 51
0.0
  7
KANJI1
  0
TEXT
  8
0
  6
CONTINUOUS
 62
     2
 10
1199.6
 20
1157.4
 30
1.2
 40
12.0
  1
　４０８
 50
0.0
 41
0.9
 51
0.0
  7
KANJI1
  0
TEXT
  8
0
  6
CONTINUOUS
 62
     2
 10
1279.6
 20
1185.4
 30
1.2
 40
12.0
  1
　２３８
 50
0.0
 41
0.9
 51
0.0
  7
KANJI1
  0
TEXT
  8
0
  6
CONTINUOUS
 62
     2
 10
1279.6
 20
1157.4
 30
1.2
 40
12.0
  1
　３３８
 50
0.0
 41
0.9
 51
0.0
  7
KANJI1
  0
TEXT
  8
0
  6
CONTINUOUS
 62
     2
 10
1279.6
 20
1129.4
 30
1.2
 40
12.0
  1
　４３８
 50
0.0
 41
0.9
 51
0.0
  7
KANJI1
  0
TEXT
  8
0
  6
CONTINUOUS
 62
     2
 10
1359.6
 20
1129.4
 30
1.2
 40
12.0
  1
　　３５
 50
0.0
 41
0.9
 51
0.0
  7
KANJI1
  0
TEXT
  8
0
  6
CONTINUOUS
 62
     2
 10
1359.6
 20
1157.4
 30
1.2
 40
12.0
  1
　　３５
 50
0.0
 41
0.9
 51
0.0
  7
KANJI1
  0
TEXT
  8
0
  6
CONTINUOUS
 62
     2
 10
1359.6
 20
1185.4
 30
1.2
 40
12.0
  1
　　３５
 50
0.0
 41
0.9
 51
0.0
  7
KANJI1
  0
TEXT
  8
0
  6
CONTINUOUS
 62
     2
 10
1039.6
 20
1017.4
 30
1.2
 40
12.0
  1
　７００
 50
0.0
 41
0.9
 51
0.0
  7
KANJI1
  0
TEXT
  8
0
  6
CONTINUOUS
 62
     2
 10
1279.6
 20
1017.4
 30
1.2
 40
12.0
  1
　８７８
 50
0.0
 41
0.9
 51
0.0
  7
KANJI1
  0
LINE
  8
0
  6
CONTINUOUS
 62
     2
 10
853.6
 20
1066.7
 30
0.0
 11
1501.6
 21
1066.7
 31
0.0
  0
LINE
  8
0
  6
CONTINUOUS
 62
     2
 10
853.6
 20
1094.7
 30
0.0
 11
1501.6
 21
1094.7
 31
0.0
  0
LINE
  8
0
  6
CONTINUOUS
 62
     2
 10
853.6
 20
1010.7
 30
0.0
 11
1501.6
 21
1010.7
 31
0.0
  0
LINE
  8
0
  6
CONTINUOUS
 62
     2
 10
853.6
 20
1038.7
 30
0.0
 11
1501.6
 21
1038.7
 31
0.0
  0
TEXT
  8
0
  6
CONTINUOUS
 62
     2
 10
1039.6
 20
1073.4
 30
1.2
 40
12.0
  1
　５００
 50
0.0
 41
0.9
 51
0.0
  7
KANJI1
  0
TEXT
  8
0
  6
CONTINUOUS
 62
     2
 10
1279.6
 20
1073.4
 30
1.2
 40
12.0
  1
　６３８
 50
0.0
 41
0.9
 51
0.0
  7
KANJI1
  0
TEXT
  8
0
  6
CONTINUOUS
 62
     2
 10
1039.6
 20
1101.4
 30
1.2
 40
12.0
  1
　４００
 50
0.0
 41
0.9
 51
0.0
  7
KANJI1
  0
TEXT
  8
0
  6
CONTINUOUS
 62
     2
 10
1039.6
 20
1045.4
 30
1.2
 40
12.0
  1
　６００
 50
0.0
 41
0.9
 51
0.0
  7
KANJI1
  0
TEXT
  8
0
  6
CONTINUOUS
 62
     2
 10
1279.6
 20
1101.4
 30
1.2
 40
12.0
  1
　５３８
 50
0.0
 41
0.9
 51
0.0
  7
KANJI1
  0
TEXT
  8
0
  6
CONTINUOUS
 62
     2
 10
1279.6
 20
1045.4
 30
1.2
 40
12.0
  1
　７７８
 50
0.0
 41
0.9
 51
0.0
  7
KANJI1
  0
TEXT
  8
0
  6
CONTINUOUS
 62
     2
 10
1199.6
 20
1185.4
 30
1.2
 40
12.0
  1
　３０８
 50
0.0
 41
0.9
 51
0.0
  7
KANJI1
  0
TEXT
  8
0
  6
CONTINUOUS
 62
     2
 10
1119.6
 20
1185.4
 30
1.2
 40
12.0
  1
　４５０
 50
0.0
 41
0.9
 51
0.0
  7
KANJI1
  0
TEXT
  8
0
  6
CONTINUOUS
 62
     2
 10
1119.6
 20
1157.4
 30
1.2
 40
12.0
  1
　５５０
 50
0.0
 41
0.9
 51
0.0
  7
KANJI1
  0
TEXT
  8
0
  6
CONTINUOUS
 62
     2
 10
1119.6
 20
1129.4
 30
1.2
 40
12.0
  1
　６５０
 50
0.0
 41
0.9
 51
0.0
  7
KANJI1
  0
TEXT
  8
0
  6
CONTINUOUS
 62
     4
 10
92.599996846
 20
76.749994744
 30
0.99999979
 40
9.999997897
  1
ＰＡＲＴＳ　ＬＩＳＴ
 50
0.0
 41
0.6
 51
0.0
  7
KANJI6
  0
TEXT
  8
0
  6
CONTINUOUS
 62
     4
 10
92.599996846
 20
61.749997897
 30
1.199999748
 40
11.999997477
  1
部品表
 50
0.0
 41
0.9
 51
0.0
  7
KANJI7
  0
LINE
  8
0
  6
CONTINUOUS
 62
     6
 10
82.599998949
 20
126.749984231
 30
0.0
 11
407.599930615
 21
126.749984231
 31
0.0
  0
LINE
  8
0
  6
CONTINUOUS
 62
     6
 10
82.599998949
 20
56.749998949
 30
0.0
 11
407.599930615
 21
56.749998949
 31
0.0
  0
LINE
  8
0
  6
CONTINUOUS
 62
     6
 10
82.599998949
 20
56.749998949
 30
0.0
 11
82.599998949
 21
126.749984231
 31
0.0
  0
LINE
  8
0
  6
CONTINUOUS
 62
     6
 10
82.599998949
 20
91.74999159
 30
0.0
 11
407.599930615
 21
91.74999159
 31
0.0
  0
TEXT
  8
0
  6
CONTINUOUS
 62
     3
 10
92.599996846
 20
101.749989487
 30
1.499999685
 40
14.999996846
  1
ＰＬ
 50
0.0
 41
0.9
 51
0.0
  7
KANJI8
  0
LINE
  8
0
  6
CONTINUOUS
 62
     4
 10
20.683333
 20
56.083333
 30
0.0
 11
72.683329
 21
56.083333
 31
0.0
  0
LINE
  8
0
  6
CONTINUOUS
 62
     4
 10
20.683333
 20
82.083331
 30
0.0
 11
72.683329
 21
82.083331
 31
0.0
  0
LINE
  8
0
  6
CONTINUOUS
 62
     4
 10
20.683333
 20
108.083329
 30
0.0
 11
72.683329
 21
108.083329
 31
0.0
  0
LINE
  8
0
  6
CONTINUOUS
 62
     4
 10
20.683333
 20
134.083327
 30
0.0
 11
72.683329
 21
134.083327
 31
0.0
  0
LINE
  8
0
  6
CONTINUOUS
 62
     4
 10
20.683333
 20
160.083325
 30
0.0
 11
72.683329
 21
160.083325
 31
0.0
  0
LINE
  8
0
  6
CONTINUOUS
 62
     4
 10
20.683333
 20
186.083323
 30
0.0
 11
72.683329
 21
186.083323
 31
0.0
  0
LINE
  8
0
  6
CONTINUOUS
 62
     4
 10
20.683333
 20
212.083321
 30
0.0
 11
72.683329
 21
212.083321
 31
0.0
  0
LINE
  8
0
  6
CONTINUOUS
 62
     4
 10
20.683333
 20
238.083319
 30
0.0
 11
72.683329
 21
238.083319
 31
0.0
  0
LINE
  8
0
  6
CONTINUOUS
 62
     4
 10
20.683333
 20
264.083317
 30
0.0
 11
72.683329
 21
264.083317
 31
0.0
  0
LINE
  8
0
  6
CONTINUOUS
 62
     4
 10
20.683333
 20
290.083315
 30
0.0
 11
72.683329
 21
290.083315
 31
0.0
  0
LINE
  8
0
  6
CONTINUOUS
 62
     4
 10
72.683329
 20
56.083333
 30
0.0
 11
72.683329
 21
290.083315
 31
0.0
  0
LINE
  8
0
  6
CONTINUOUS
 62
     4
 10
46.683331
 20
56.083333
 30
0.0
 11
46.683331
 21
264.083317
 31
0.0
  0
TEXT
  8
0
  6
CONTINUOUS
 62
     4
 10
29.56666565
 20
63.66666575
 30
1.2999999
 40
12.999999
  1
計
 50
0.0
 41
0.75
 51
0.0
  7
KANJI9
  0
TEXT
  8
0
  6
CONTINUOUS
 62
     4
 10
29.56666565
 20
116.09999505
 30
1.2999999
 40
12.999999
  1
設
 50
0.0
 41
0.75
 51
0.0
  7
KANJI9
  0
TEXT
  8
0
  6
CONTINUOUS
 62
     4
 10
29.56666565
 20
141.66665975
 30
1.2999999
 40
12.999999
  1
管
 50
0.0
 41
0.75
 51
0.0
  7
KANJI9
  0
TEXT
  8
0
  6
CONTINUOUS
 62
     4
 10
29.56666565
 20
167.66665775
 30
1.2999999
 40
12.999999
  1
製
 50
0.0
 41
0.75
 51
0.0
  7
KANJI9
  0
TEXT
  8
0
  6
CONTINUOUS
 62
     4
 10
29.56666565
 20
193.66665575
 30
1.2999999
 40
12.999999
  1
資
 50
0.0
 41
0.75
 51
0.0
  7
KANJI9
  0
TEXT
  8
0
  6
CONTINUOUS
 62
     4
 10
29.56666565
 20
219.66665375
 30
1.2999999
 40
12.999999
  1
営
 50
0.0
 41
0.75
 51
0.0
  7
KANJI9
  0
TEXT
  8
0
  6
CONTINUOUS
 62
     4
 10
29.56666565
 20
245.66665175
 30
1.2999999
 40
12.999999
  1
客
 50
0.0
 41
0.75
 51
0.0
  7
KANJI9
  0
TEXT
  8
0
  6
CONTINUOUS
 62
     4
 10
29.349999
 20
272.749983
 30
1.2999999
 40
12.999999
  1
出　図
 50
0.0
 41
0.75
 51
0.0
  7
KANJI9
  0
LINE
  8
0
  6
CONTINUOUS
 62
     4
 10
20.683333
 20
56.083333
 30
0.0
 11
20.683333
 21
290.083315
 31
0.0
  0
TEXT
  8
0
  6
CONTINUOUS
 62
     4
 10
317.599949538
 20
76.749994744
 30
0.99999979
 40
9.999997897
  1
Ｎ０．
 50
0.0
 41
0.6
 51
0.0
  7
KANJI6
  0
TEXT
  8
0
  6
CONTINUOUS
 62
     4
 10
317.599949538
 20
61.749997897
 30
1.199999748
 40
11.999997477
  1
項番
 50
0.0
 41
0.9
 51
0.0
  7
KANJI7
  0
LINE
  8
0
  6
CONTINUOUS
 62
     6
 10
2012.6
 20
51.75
 30
0.0
 11
77.6
 21
51.75
 31
0.0
  0
LINE
  8
0
  6
CONTINUOUS
 62
     6
 10
407.599930615
 20
56.749998949
 30
0.0
 11
407.599930615
 21
126.749984231
 31
0.0
  0
LINE
  8
0
  6
CONTINUOUS
 62
     6
 10
307.599951641
 20
56.749998949
 30
0.0
 11
307.599951641
 21
126.749984231
 31
0.0
  0
LINE
  8
0
  6
CONTINUOUS
 62
     6
 10
2012.6
 20
1396.75
 30
0.0
 11
2012.6
 21
51.75
 31
0.0
  0
LINE
  8
0
  6
CONTINUOUS
 62
     6
 10
1340.933385
 20
56.083333
 30
0.0
 11
1340.933385
 21
333.416645
 31
0.0
  0
LINE
  8
0
  6
CONTINUOUS
 62
     6
 10
2008.266667
 20
56.083333
 30
0.0
 11
2008.266667
 21
333.416645
 31
0.0
  0
LINE
  8
0
  6
CONTINUOUS
 62
     4
 10
1499.1000395
 20
56.083333
 30
0.0
 11
1499.1000395
 21
333.416645
 31
0.0
  0
LINE
  8
0
  6
CONTINUOUS
 62
     4
 10
1340.933385
 20
90.749997
 30
0.0
 11
1499.1000395
 21
90.749997
 31
0.0
  0
TEXT
  8
0
  6
CONTINUOUS
 62
     4
 10
1349.600051
 20
75.5833315
 30
0.8666666
 40
8.666666
  1
ＳＣＡＬＥ
 50
0.0
 41
0.6
 51
0.0
  7
KANJI10
  0
TEXT
  8
0
  6
CONTINUOUS
 62
     4
 10
1349.600051
 20
62.5833325
 30
1.03999992
 40
10.3999992
  1
尺度
 50
0.0
 41
0.6
 51
0.0
  7
KANJI11
  0
LINE
  8
0
  6
CONTINUOUS
 62
     6
 10
998.600078
 20
90.749997
 30
0.0
 11
1340.933385
 21
90.749997
 31
0.0
  0
LINE
  8
0
  6
CONTINUOUS
 62
     6
 10
998.600078
 20
56.083333
 30
0.0
 11
2008.266667
 21
56.083333
 31
0.0
  0
TEXT
  8
0
  6
CONTINUOUS
 62
     6
 10
1503.4333725
 20
75.5833315
 30
0.0
 40
15.1666655
  1
ＵＮＩＴＥＣ　ＩＮＤＵＳＴＲＹ　ＣＯ．，ＬＴＤ．
 50
0.0
 41
0.42031746
 51
0.0
  7
KANJI12
  0
TEXT
  8
0
  6
CONTINUOUS
 62
     6
 10
1716.145856138
 20
69.9499986
 30
2.5999998
 40
25.999998
  1
ユニテック工業株式会社
 50
0.0
 41
0.9
 51
0.0
  7
KANJI13
  0
LINE
  8
0
  6
CONTINUOUS
 62
     6
 10
1681.479192138
 20
79.0499979
 30
0.0
 11
1670.039193018
 21
79.0499979
 31
0.0
  0
LINE
  8
0
  6
CONTINUOUS
 62
     6
 10
1681.479192138
 20
81.12999774
 30
0.0
 11
1670.039193018
 21
81.12999774
 31
0.0
  0
LINE
  8
0
  6
CONTINUOUS
 62
     6
 10
1681.479192138
 20
79.0499979
 30
0.0
 11
1692.919191258
 21
79.0499979
 31
0.0
  0
LINE
  8
0
  6
CONTINUOUS
 62
     6
 10
1681.479192138
 20
81.12999774
 30
0.0
 11
1692.919191258
 21
81.12999774
 31
0.0
  0
LINE
  8
0
  6
CONTINUOUS
 62
     6
 10
1692.919191258
 20
81.12999774
 30
0.0
 11
1692.919191258
 21
79.0499979
 31
0.0
  0
ARC
  8
0
  6
CONTINUOUS
 62
     6
 10
1695.519191058
 20
80.08999782
 30
0.0
 40
10.3999992
 50
185.739170477
 51
90.0
  0
ARC
  8
0
  6
CONTINUOUS
 62
     6
 10
1695.519191058
 20
80.08999782
 30
0.0
 40
12.47999904
 50
184.780191847
 51
90.0
  0
LINE
  8
0
  6
CONTINUOUS
 62
     6
 10
1670.039193018
 20
79.0499979
 30
0.0
 11
1670.039193018
 21
81.12999774
 31
0.0
  0
ARC
  8
0
  6
CONTINUOUS
 62
     6
 10
1667.439193218
 20
80.08999782
 30
0.0
 40
10.3999992
 50
90.0
 51
354.260829523
  0
ARC
  8
0
  6
CONTINUOUS
 62
     6
 10
1667.439193218
 20
80.08999782
 30
0.0
 40
12.47999904
 50
90.0
 51
355.219808153
  0
LINE
  8
0
  6
CONTINUOUS
 62
     6
 10
1679.919192258
 20
92.56999686
 30
0.0
 11
1679.919192258
 21
90.48999702
 31
0.0
  0
LINE
  8
0
  6
CONTINUOUS
 62
     6
 10
1667.439193218
 20
90.48999702
 30
0.0
 11
1679.919192258
 21
90.48999702
 31
0.0
  0
LINE
  8
0
  6
CONTINUOUS
 62
     6
 10
1683.039192018
 20
92.56999686
 30
0.0
 11
1683.039192018
 21
90.48999702
 31
0.0
  0
LINE
  8
0
  6
CONTINUOUS
 62
     6
 10
1695.519191058
 20
90.48999702
 30
0.0
 11
1683.039192018
 21
90.48999702
 31
0.0
  0
TEXT
  8
0
  6
CONTINUOUS
 62
     2
 10
1432.6
 20
61.75
 30
1.5
 40
22.5
  1
１／５
 50
0.0
 41
0.666666667
 51
0.0
  7
KANJI14
  0
TEXT
  8
0
  6
CONTINUOUS
 62
     4
 10
1109.1000695
 20
75.5833315
 30
0.8666666
 40
8.666666
  1
ＢＹ
 50
0.0
 41
0.6
 51
0.0
  7
KANJI10
  0
TEXT
  8
0
  6
CONTINUOUS
 62
     4
 10
1204.4333955
 20
75.5833315
 30
0.8666666
 40
8.666666
  1
ＤＥＳＣＲＩＰＴＩＯＮ
 50
0.0
 41
0.6
 51
0.0
  7
KANJI10
  0
TEXT
  8
0
  6
CONTINUOUS
 62
     4
 10
1109.1000695
 20
62.5833325
 30
1.03999992
 40
10.3999992
  1
担当
 50
0.0
 41
0.6
 51
0.0
  7
KANJI11
  0
TEXT
  8
0
  6
CONTINUOUS
 62
     4
 10
1217.4333945
 20
62.5833325
 30
1.03999992
 40
10.3999992
  1
記　　　　事
 50
0.0
 41
0.6
 51
0.0
  7
KANJI11
  0
LINE
  8
0
  6
CONTINUOUS
 62
     4
 10
1017.01674325
 20
84.2499975
 30
0.0
 11
1002.933411
 21
62.5833325
 31
0.0
  0
TEXT
  8
0
  6
CONTINUOUS
 62
     4
 10
1052.7667405
 20
75.5833315
 30
0.8666666
 40
8.666666
  1
ＤＡＴＥ
 50
0.0
 41
0.6
 51
0.0
  7
KANJI10
  0
TEXT
  8
0
  6
CONTINUOUS
 62
     4
 10
1059.26674
 20
62.5833325
 30
1.03999992
 40
10.3999992
  1
日付
 50
0.0
 41
0.6
 51
0.0
  7
KANJI11
  0
LINE
  8
0
  6
CONTINUOUS
 62
     4
 10
1002.933411
 20
62.5833325
 30
0.0
 11
1031.1000755
 21
62.5833325
 31
0.0
  0
LINE
  8
0
  6
CONTINUOUS
 62
     4
 10
1017.01674325
 20
84.2499975
 30
0.0
 11
1031.1000755
 21
62.5833325
 31
0.0
  0
LINE
  8
0
  6
CONTINUOUS
 62
     6
 10
998.600078
 20
56.083333
 30
0.0
 11
998.600078
 21
90.749997
 31
0.0
  0
LINE
  8
0
  6
CONTINUOUS
 62
     4
 10
1035.4334085
 20
56.083333
 30
0.0
 11
1035.4334085
 21
90.749997
 31
0.0
  0
LINE
  8
0
  6
CONTINUOUS
 62
     4
 10
1096.1000705
 20
56.083333
 30
0.0
 11
1096.1000705
 21
90.749997
 31
0.0
  0
LINE
  8
0
  6
CONTINUOUS
 62
     4
 10
1135.1000675
 20
56.083333
 30
0.0
 11
1135.1000675
 21
90.749997
 31
0.0
  0
TEXT
  8
0
  6
CONTINUOUS
 62
     4
 10
1349.600051
 20
248.9166515
 30
0.8666666
 40
8.666666
  1
ＣＯＤＥ
 50
0.0
 41
0.6
 51
0.0
  7
KANJI10
  0
LINE
  8
0
  6
CONTINUOUS
 62
     4
 10
1340.933385
 20
264.083317
 30
0.0
 11
2008.266667
 21
264.083317
 31
0.0
  0
TEXT
  8
0
  6
CONTINUOUS
 62
     4
 10
1349.600051
 20
235.9166525
 30
1.03999992
 40
10.3999992
  1
分類
 50
0.0
 41
0.6
 51
0.0
  7
KANJI11
  0
LINE
  8
0
  6
CONTINUOUS
 62
     4
 10
2008.266667
 20
298.749981
 30
0.0
 11
2008.266667
 21
333.416645
 31
0.0
  0
LINE
  8
0
  6
CONTINUOUS
 62
     6
 10
1341.558385
 20
298.749981
 30
0.0
 11
2008.891667
 21
298.749981
 31
0.0
  0
LINE
  8
0
  6
CONTINUOUS
 62
     6
 10
1340.933385
 20
333.416645
 30
0.0
 11
2008.266667
 21
333.416645
 31
0.0
  0
TEXT
  8
0
  6
CONTINUOUS
 62
     4
 10
1356.35
 20
303.916664
 30
5.0
 40
18.0
  1
ご用途
 50
0.0
 41
1.111111111
 51
0.0
  7
KANJI15
  0
TEXT
  8
0
  6
CONTINUOUS
 62
     4
 10
1356.35
 20
269.25
 30
5.0
 40
18.0
  1
ご注文主
 50
0.0
 41
1.111111111
 51
0.0
  7
KANJI15
  0
TEXT
  8
0
  6
CONTINUOUS
 62
     4
 10
1349.600051
 20
144.9166595
 30
0.8666666
 40
8.666666
  1
ＤＲＡＷＮ
 50
0.0
 41
0.6
 51
0.0
  7
KANJI10
  0
TEXT
  8
0
  6
CONTINUOUS
 62
     4
 10
1349.600051
 20
179.5833235
 30
0.8666666
 40
8.666666
  1
ＤＥＳＩＧＮ
 50
0.0
 41
0.6
 51
0.0
  7
KANJI10
  0
TEXT
  8
0
  6
CONTINUOUS
 62
     4
 10
1349.600051
 20
214.2499875
 30
0.8666666
 40
8.666666
  1
ＣＨＥＣＫ
 50
0.0
 41
0.6
 51
0.0
  7
KANJI10
  0
LINE
  8
0
  6
CONTINUOUS
 62
     4
 10
1340.933385
 20
194.749989
 30
0.0
 11
1499.1000395
 21
194.749989
 31
0.0
  0
LINE
  8
0
  6
CONTINUOUS
 62
     4
 10
1340.933385
 20
160.083325
 30
0.0
 11
1499.1000395
 21
160.083325
 31
0.0
  0
LINE
  8
0
  6
CONTINUOUS
 62
     4
 10
1340.933385
 20
229.416653
 30
0.0
 11
1499.1000395
 21
229.416653
 31
0.0
  0
TEXT
  8
0
  6
CONTINUOUS
 62
     4
 10
1349.600051
 20
166.5833245
 30
1.03999992
 40
10.3999992
  1
設計
 50
0.0
 41
0.6
 51
0.0
  7
KANJI11
  0
TEXT
  8
0
  6
CONTINUOUS
 62
     4
 10
1349.600051
 20
201.2499885
 30
1.03999992
 40
10.3999992
  1
検図
 50
0.0
 41
0.6
 51
0.0
  7
KANJI11
  0
LINE
  8
0
  6
CONTINUOUS
 62
     4
 10
1511.88337185
 20
229.416653
 30
0.0
 11
2008.266667
 21
229.416653
 31
0.0
  0
LINE
  8
0
  6
CONTINUOUS
 62
     4
 10
1499.1000395
 20
160.083325
 30
0.0
 11
2008.266667
 21
160.083325
 31
0.0
  0
TEXT
  8
0
  6
CONTINUOUS
 62
     4
 10
1507.7667055
 20
144.9166595
 30
0.8666666
 40
8.666666
  1
ＤＲＡＷＩＮＧ　ＮＯ．
 50
0.0
 41
0.8
 51
0.0
  7
KANJI16
  0
TEXT
  8
0
  6
CONTINUOUS
 62
     4
 10
1507.7667055
 20
179.5833235
 30
0.8666666
 40
8.666666
  1
ＭＦＧ　ＮＯ．
 50
0.0
 41
0.8
 51
0.0
  7
KANJI16
  0
TEXT
  8
0
  6
CONTINUOUS
 62
     4
 10
1507.7667055
 20
214.2499875
 30
0.8666666
 40
8.666666
  1
ＴＹＰＥ
 50
0.0
 41
0.8
 51
0.0
  7
KANJI16
  0
LINE
  8
0
  6
CONTINUOUS
 62
     4
 10
1512.1000385
 20
194.749989
 30
0.0
 11
1711.4333565
 21
194.749989
 31
0.0
  0
TEXT
  8
0
  6
CONTINUOUS
 62
     4
 10
1507.7667055
 20
129.749994
 30
1.03999992
 40
10.3999992
  1
図　面　番　号
 50
0.0
 41
0.8
 51
0.0
  7
KANJI17
  0
TEXT
  8
0
  6
CONTINUOUS
 62
     4
 10
1507.7667055
 20
164.416658
 30
1.03999992
 40
10.3999992
  1
製番
 50
0.0
 41
0.8
 51
0.0
  7
KANJI17
  0
TEXT
  8
0
  6
CONTINUOUS
 62
     4
 10
1507.7667055
 20
199.083322
 30
1.03999992
 40
10.3999992
  1
機種
 50
0.0
 41
0.8
 51
0.0
  7
KANJI17
  0
LINE
  8
0
  6
CONTINUOUS
 62
     4
 10
1340.933385
 20
125.416661
 30
0.0
 11
1499.1000395
 21
125.416661
 31
0.0
  0
TEXT
  8
0
  6
CONTINUOUS
 62
     4
 10
1349.600051
 20
110.2499955
 30
0.8666666
 40
8.666666
  1
ＤＡＴＥ
 50
0.0
 41
0.6
 51
0.0
  7
KANJI10
  0
TEXT
  8
0
  6
CONTINUOUS
 62
     4
 10
1349.600051
 20
97.2499965
 30
1.03999992
 40
10.3999992
  1
日付
 50
0.0
 41
0.6
 51
0.0
  7
KANJI11
  0
TEXT
  8
0
  6
CONTINUOUS
 62
     4
 10
1349.600051
 20
131.9166605
 30
1.03999992
 40
10.3999992
  1
作図
 50
0.0
 41
0.6
 51
0.0
  7
KANJI11
  0
LINE
  8
0
  6
CONTINUOUS
 62
     4
 10
1499.1000395
 20
110.2499955
 30
0.0
 11
2008.266667
 21
110.2499955
 31
0.0
  0
LINE
  8
0
  6
LTYPE1
 62
     4
 10
1863.1000115
 20
116.749995
 30
0.0
 11
1863.1000115
 21
151.416659
 31
0.0
  0
LINE
  8
0
  6
LTYPE1
 62
     4
 10
1832.7666805
 20
116.749995
 30
0.0
 11
1832.7666805
 21
151.416659
 31
0.0
  0
LINE
  8
0
  6
LTYPE1
 62
     4
 10
1802.4333495
 20
116.749995
 30
0.0
 11
1802.4333495
 21
151.416659
 31
0.0
  0
LINE
  8
0
  6
LTYPE1
 62
     4
 10
1772.1000185
 20
116.749995
 30
0.0
 11
1772.1000185
 21
151.416659
 31
0.0
  0
LINE
  8
0
  6
LTYPE1
 62
     4
 10
1741.7666875
 20
116.749995
 30
0.0
 11
1741.7666875
 21
151.416659
 31
0.0
  0
LINE
  8
0
  6
LTYPE1
 62
     4
 10
1711.4333565
 20
116.749995
 30
0.0
 11
1711.4333565
 21
151.416659
 31
0.0
  0
LINE
  8
0
  6
LTYPE1
 62
     4
 10
1681.1000255
 20
116.749995
 30
0.0
 11
1681.1000255
 21
151.416659
 31
0.0
  0
LINE
  8
0
  6
LTYPE1
 62
     4
 10
1650.7666945
 20
116.749995
 30
0.0
 11
1650.7666945
 21
151.416659
 31
0.0
  0
LINE
  8
0
  6
LTYPE1
 62
     4
 10
1650.7666945
 20
151.416659
 30
0.0
 11
1863.1000115
 21
151.416659
 31
0.0
  0
LINE
  8
0
  6
LTYPE1
 62
     4
 10
1650.7666945
 20
116.749995
 30
0.0
 11
1863.1000115
 21
116.749995
 31
0.0
  0
LINE
  8
0
  6
CONTINUOUS
 62
     4
 10
1880.4333435
 20
135.16666025
 30
0.0
 11
1889.1000095
 21
135.16666025
 31
0.0
  0
LINE
  8
0
  6
CONTINUOUS
 62
     4
 10
1934.600006
 20
122.16666125
 30
0.0
 11
1904.266675
 21
122.16666125
 31
0.0
  0
LINE
  8
0
  6
CONTINUOUS
 62
     4
 10
1904.266675
 20
122.16666125
 30
0.0
 11
1919.4333405
 21
148.16665925
 31
0.0
  0
LINE
  8
0
  6
CONTINUOUS
 62
     4
 10
1919.4333405
 20
148.16665925
 30
0.0
 11
1934.600006
 21
122.16666125
 31
0.0
  0
TEXT
  8
0
  6
CONTINUOUS
 62
     4
 10
1724.4333555
 20
214.2499875
 30
0.8666666
 40
8.666666
  1
ＴＩＴＬＥ
 50
0.0
 41
0.8
 51
0.0
  7
KANJI16
  0
TEXT
  8
0
  6
CONTINUOUS
 62
     4
 10
1724.4333555
 20
199.083322
 30
1.03999992
 40
10.3999992
  1
名称
 50
0.0
 41
0.8
 51
0.0
  7
KANJI17
  0
TEXT
  8
0
  6
CONTINUOUS
 62
     2
 10
1795.1
 20
166.75
 30
12.5
 40
25.0
  1
外形寸法図
 50
0.0
 41
1.0
 51
0.0
  7
KANJI18
  0
TEXT
  8
0
  6
CONTINUOUS
 62
     2
 10
1765.1
 20
196.75
 30
3.571428571
 40
25.0
  1
マイティシリンダ
 50
0.0
 41
1.0
 51
0.0
  7
KANJI19
  0
TEXT
  8
0
  6
CONTINUOUS
 62
     2
 10
1624.5166945
 20
121.749995
 30
1.5
 40
25.0
  1
Ａ
 50
0.0
 41
0.8
 51
0.0
  7
KANJI20
  0
CIRCLE
  8
0
  6
CONTINUOUS
 62
     2
 10
1592.0166945
 20
175.499995
 30
0.0
 40
12.5
  0
TEXT
  8
0
  6
CONTINUOUS
 62
     2
 10
1582.6416945
 20
166.124995
 30
1.5
 40
20.0
  1
Ｓ
 50
0.0
 41
1.0
 51
0.0
  7
KANJI21
  0
LINE
  8
0
  6
CONTINUOUS
 62
     6
 10
1679.919192258
 20
92.56999686
 30
0.0
 11
1667.439193218
 21
92.56999686
 31
0.0
  0
LINE
  8
0
  6
CONTINUOUS
 62
     6
 10
1683.039192018
 20
92.56999686
 30
0.0
 11
1695.519191058
 21
92.56999686
 31
0.0
  0
TEXT
  8
0
  6
CONTINUOUS
 62
     2
 10
1396.7666945
 20
134.249995
 30
5.0
 40
17.5
  1
岡田
 50
0.0
 41
0.857142857
 51
0.0
  7
KANJI22
  0
TEXT
  8
0
  6
CONTINUOUS
 62
     2
 10
1439.6
 20
1185.4
 30
1.2
 40
12.0
  1
　　３２
 50
0.0
 41
0.9
 51
0.0
  7
KANJI1
  0
TEXT
  8
0
  6
CONTINUOUS
 62
     2
 10
1439.6
 20
1157.4
 30
1.2
 40
12.0
  1
　　３３
 50
0.0
 41
0.9
 51
0.0
  7
KANJI1
  0
TEXT
  8
0
  6
CONTINUOUS
 62
     2
 10
1439.6
 20
1129.4
 30
1.2
 40
12.0
  1
　　３４
 50
0.0
 41
0.9
 51
0.0
  7
KANJI1
  0
TEXT
  8
0
  6
CONTINUOUS
 62
     2
 10
1439.6
 20
1101.4
 30
1.2
 40
12.0
  1
　　３５
 50
0.0
 41
0.9
 51
0.0
  7
KANJI1
  0
TEXT
  8
0
  6
CONTINUOUS
 62
     2
 10
1359.6
 20
1101.4
 30
1.2
 40
12.0
  1
　　３５
 50
0.0
 41
0.9
 51
0.0
  7
KANJI1
  0
TEXT
  8
0
  6
CONTINUOUS
 62
     2
 10
1359.6
 20
1073.4
 30
1.2
 40
12.0
  1
　　３５
 50
0.0
 41
0.9
 51
0.0
  7
KANJI1
  0
TEXT
  8
0
  6
CONTINUOUS
 62
     2
 10
1359.6
 20
1045.4
 30
1.2
 40
12.0
  1
　　３５
 50
0.0
 41
0.9
 51
0.0
  7
KANJI1
  0
TEXT
  8
0
  6
CONTINUOUS
 62
     2
 10
1359.6
 20
1017.4
 30
1.2
 40
12.0
  1
　　３５
 50
0.0
 41
0.9
 51
0.0
  7
KANJI1
  0
TEXT
  8
0
  6
CONTINUOUS
 62
     2
 10
1439.6
 20
1045.4
 30
1.2
 40
12.0
  1
　　３８
 50
0.0
 41
0.9
 51
0.0
  7
KANJI1
  0
TEXT
  8
0
  6
CONTINUOUS
 62
     2
 10
1439.6
 20
1017.4
 30
1.2
 40
12.0
  1
　　３９
 50
0.0
 41
0.9
 51
0.0
  7
KANJI1
  0
TEXT
  8
0
  6
CONTINUOUS
 62
     2
 10
1439.6
 20
1073.4
 30
1.2
 40
12.0
  1
　　３６
 50
0.0
 41
0.9
 51
0.0
  7
KANJI1
  0
LINE
  8
0
  6
CONTINUOUS
 62
     1
 10
331.333333
 20
697.633317
 30
0.0
 11
368.333333
 21
697.633317
 31
0.0
  0
LINE
  8
0
  6
CONTINUOUS
 62
     1
 10
331.333333
 20
678.633317
 30
0.0
 11
331.333333
 21
697.633317
 31
0.0
  0
ARC
  8
0
  6
CONTINUOUS
 62
     1
 10
325.333333
 20
678.633317
 30
0.0
 40
6.0
 50
270.0
 51
360.0
  0
ARC
  8
0
  6
CONTINUOUS
 62
     1
 10
353.333333
 20
675.633317
 30
0.0
 40
3.0
 50
270.0
 51
360.0
  0
ARC
  8
0
  6
CONTINUOUS
 62
     1
 10
353.333333
 20
622.633317
 30
0.0
 40
3.0
 50
270.0
 51
0.0
  0
LINE
  8
0
  6
CONTINUOUS
 62
     1
 10
356.333333
 20
676.585697952
 30
0.0
 11
360.333333
 21
697.633317
 31
0.0
  0
LINE
  8
0
  6
CONTINUOUS
 62
     1
 10
356.333333
 20
622.633317
 30
0.0
 11
356.333333
 21
676.585697952
 31
0.0
  0
CIRCLE
  8
0
  6
CONTINUOUS
 62
     1
 10
438.333333
 20
527.633317
 30
0.0
 40
20.0
  0
CIRCLE
  8
0
  6
CONTINUOUS
 62
     1
 10
438.333333
 20
527.633317
 30
0.0
 40
8.0
  0
ARC
  8
0
  6
CONTINUOUS
 62
     1
 10
374.333333
 20
476.633317
 30
0.0
 40
2.0
 50
270.0
 51
0.0
  0
LINE
  8
0
  6
CONTINUOUS
 62
     1
 10
379.333333
 20
564.633317
 30
0.0
 11
536.333333
 21
564.633317
 31
0.0
  0
LINE
  8
0
  6
CONTINUOUS
 62
     1
 10
379.333333
 20
490.633317
 30
0.0
 11
462.333333
 21
490.633317
 31
0.0
  0
ARC
  8
0
  6
CONTINUOUS
 62
     1
 10
379.333333
 20
487.633317
 30
0.0
 40
3.0
 50
87.047798252
 51
176.185925166
  0
ARC
  8
0
  6
CONTINUOUS
 62
     1
 10
379.133333
 20
567.633317
 30
0.0
 40
3.0
 50
177.893372153
 51
273.822553727
  0
LINE
  8
0
  6
CONTINUOUS
 62
     1
 10
544.333333
 20
567.633317
 30
0.0
 11
544.333333
 21
487.633317
 31
0.0
  0
LINE
  8
0
  6
CONTINUOUS
 62
     1
 10
536.333333
 20
567.633317
 30
0.0
 11
544.333333
 21
567.633317
 31
0.0
  0
LINE
  8
0
  6
CONTINUOUS
 62
     1
 10
536.333333
 20
487.633317
 30
0.0
 11
544.333333
 21
487.633317
 31
0.0
  0
LINE
  8
0
  6
CONTINUOUS
 62
     1
 10
536.333333
 20
529.133317
 30
0.0
 11
544.333333
 21
529.133317
 31
0.0
  0
LINE
  8
0
  6
CONTINUOUS
 62
     1
 10
536.333333
 20
526.133317
 30
0.0
 11
544.333333
 21
526.133317
 31
0.0
  0
LINE
  8
0
  6
CONTINUOUS
 62
     1
 10
462.333333
 20
504.633317
 30
0.0
 11
536.333333
 21
504.633317
 31
0.0
  0
LINE
  8
0
  6
CONTINUOUS
 62
     1
 10
368.333333
 20
474.633317
 30
0.0
 11
374.333333
 21
474.633317
 31
0.0
  0
LINE
  8
0
  6
CONTINUOUS
 62
     1
 10
368.333333
 20
629.433317
 30
0.0
 11
368.333333
 21
637.633317
 31
0.0
  0
LINE
  8
0
  6
CONTINUOUS
 62
     1
 10
368.333333
 20
629.433317
 30
0.0
 11
368.333333
 21
637.633317
 31
0.0
  0
LINE
  8
0
  6
LTYPE2
 62
     2
 10
362.733333
 20
637.633317
 30
0.0
 11
374.733333
 21
637.633317
 31
0.0
  0
LINE
  8
0
  6
LTYPE2
 62
     2
 10
362.733333
 20
637.633317
 30
0.0
 11
374.733333
 21
637.633317
 31
0.0
  0
LINE
  8
0
  6
CONTINUOUS
 62
     1
 10
308.333333
 20
672.633317
 30
0.0
 11
353.333333
 21
672.633317
 31
0.0
  0
CIRCLE
  8
0
  6
CONTINUOUS
 62
     1
 10
438.333333
 20
527.633317
 30
0.0
 40
26.0
  0
LINE
  8
0
  6
CONTINUOUS
 62
     1
 10
462.333333
 20
515.133317
 30
0.0
 11
462.333333
 21
482.633317
 31
0.0
  0
LINE
  8
0
  6
CONTINUOUS
 62
     1
 10
536.333333
 20
567.633317
 30
0.0
 11
536.333333
 21
482.633317
 31
0.0
  0
LINE
  8
0
  6
LTYPE2
 62
     2
 10
499.333333
 20
495.633317
 30
0.0
 11
499.333333
 21
471.633317
 31
0.0
  0
LINE
  8
0
  6
LTYPE2
 62
     2
 10
438.333333
 20
559.633317
 30
0.0
 11
438.333333
 21
495.633317
 31
0.0
  0
LINE
  8
0
  6
LTYPE2
 62
     2
 10
344.333333
 20
687.758317
 30
0.0
 11
344.333333
 21
741.933317
 31
0.0
  0
LINE
  8
0
  6
CONTINUOUS
 62
     1
 10
382.333333
 20
637.633317
 30
0.0
 11
382.333333
 21
694.633317
 31
0.0
  0
ARC
  8
0
  6
CONTINUOUS
 62
     1
 10
377.833333
 20
696.133317
 30
0.0
 40
1.5
 50
180.0
 51
270.0
  0
LINE
  8
0
  6
CONTINUOUS
 62
     1
 10
376.333333
 20
696.133317
 30
0.0
 11
376.333333
 21
697.133317
 31
0.0
  0
ARC
  8
0
  6
CONTINUOUS
 62
     1
 10
374.833333
 20
697.133317
 30
0.0
 40
1.5
 50
0.0
 51
90.0
  0
LINE
  8
0
  6
CONTINUOUS
 62
     1
 10
531.333333
 20
637.633317
 30
0.0
 11
531.333333
 21
694.633317
 31
0.0
  0
ARC
  8
0
  6
CONTINUOUS
 62
     1
 10
534.833333
 20
693.133317
 30
0.0
 40
1.5
 50
0.0
 51
90.0
  0
LINE
  8
0
  6
CONTINUOUS
 62
     1
 10
376.333333
 20
637.633317
 30
0.0
 11
376.333333
 21
696.733317
 31
0.0
  0
LINE
  8
0
  6
CONTINUOUS
 62
     1
 10
552.333333
 20
637.633317
 30
0.0
 11
552.333333
 21
673.062792845
 31
0.0
  0
ARC
  8
0
  6
CONTINUOUS
 62
     1
 10
550.833333
 20
673.062792845
 30
0.0
 40
1.5
 50
0.0
 51
71.029592192
  0
ARC
  8
0
  6
CONTINUOUS
 62
     1
 10
564.333333
 20
654.133317
 30
0.0
 40
1.0
 50
0.0
 51
90.0
  0
LINE
  8
0
  6
CONTINUOUS
 62
     1
 10
564.333333
 20
655.133317
 30
0.0
 11
552.333333
 21
655.133317
 31
0.0
  0
LINE
  8
0
  6
CONTINUOUS
 62
     1
 10
382.333333
 20
637.633317
 30
0.0
 11
382.333333
 21
580.633317
 31
0.0
  0
ARC
  8
0
  6
CONTINUOUS
 62
     1
 10
377.833333
 20
579.133317
 30
0.0
 40
1.5
 50
90.0
 51
180.0
  0
LINE
  8
0
  6
CONTINUOUS
 62
     1
 10
376.333333
 20
579.133317
 30
0.0
 11
376.333333
 21
578.133317
 31
0.0
  0
ARC
  8
0
  6
CONTINUOUS
 62
     1
 10
374.833333
 20
578.133317
 30
0.0
 40
1.5
 50
270.0
 51
0.0
  0
LINE
  8
0
  6
CONTINUOUS
 62
     1
 10
531.333333
 20
637.633317
 30
0.0
 11
531.333333
 21
580.633317
 31
0.0
  0
LINE
  8
0
  6
CONTINUOUS
 62
     1
 10
534.833333
 20
580.633317
 30
0.0
 11
377.833333
 21
580.633317
 31
0.0
  0
ARC
  8
0
  6
CONTINUOUS
 62
     1
 10
534.833333
 20
582.133317
 30
0.0
 40
1.5
 50
270.0
 51
0.0
  0
LINE
  8
0
  6
CONTINUOUS
 62
     1
 10
376.333333
 20
637.633317
 30
0.0
 11
376.333333
 21
578.533317
 31
0.0
  0
LINE
  8
0
  6
CONTINUOUS
 62
     1
 10
552.333333
 20
637.633317
 30
0.0
 11
552.333333
 21
602.203841155
 31
0.0
  0
ARC
  8
0
  6
CONTINUOUS
 62
     1
 10
550.833333
 20
602.203841155
 30
0.0
 40
1.5
 50
288.970407808
 51
0.0
  0
ARC
  8
0
  6
CONTINUOUS
 62
     1
 10
564.333333
 20
621.133317
 30
0.0
 40
1.0
 50
270.0
 51
0.0
  0
LINE
  8
0
  6
CONTINUOUS
 62
     1
 10
564.333333
 20
620.133317
 30
0.0
 11
552.333333
 21
620.133317
 31
0.0
  0
LINE
  8
0
  6
LTYPE3
 62
     2
 10
544.333333
 20
673.695762841
 30
0.0
 11
533.333333
 21
673.695762841
 31
0.0
  0
LINE
  8
0
  6
LTYPE3
 62
     2
 10
544.333333
 20
601.570871159
 30
0.0
 11
533.333333
 21
601.570871159
 31
0.0
  0
LINE
  8
0
  6
CONTINUOUS
 62
     1
 10
481.333333
 20
715.633317
 30
0.0
 11
481.333333
 21
749.633317
 31
0.0
  0
LINE
  8
0
  6
CONTINUOUS
 62
     1
 10
481.333333
 20
715.633317
 30
0.0
 11
455.333333
 21
715.633317
 31
0.0
  0
LINE
  8
0
  6
CONTINUOUS
 62
     1
 10
481.333333
 20
749.633317
 30
0.0
 11
455.333333
 21
749.633317
 31
0.0
  0
LINE
  8
0
  6
CONTINUOUS
 62
     1
 10
385.333333
 20
707.633317
 30
0.0
 11
385.333333
 21
710.633317
 31
0.0
  0
ARC
  8
0
  6
CONTINUOUS
 62
     1
 10
389.333333
 20
704.633317
 30
0.0
 40
3.0
 50
0.0
 51
90.0
  0
LINE
  8
0
  6
CONTINUOUS
 62
     1
 10
392.333333
 20
697.633317
 30
0.0
 11
392.333333
 21
704.633317
 31
0.0
  0
ARC
  8
0
  6
CONTINUOUS
 62
     1
 10
395.333333
 20
697.633317
 30
0.0
 40
3.0
 50
180.0
 51
270.0
  0
LINE
  8
0
  6
CONTINUOUS
 62
     1
 10
534.833333
 20
694.633317
 30
0.0
 11
377.833333
 21
694.633317
 31
0.0
  0
LINE
  8
0
  6
CONTINUOUS
 62
     1
 10
445.333333
 20
707.633317
 30
0.0
 11
445.333333
 21
710.633317
 31
0.0
  0
ARC
  8
0
  6
CONTINUOUS
 62
     1
 10
441.333333
 20
704.633317
 30
0.0
 40
3.0
 50
90.0
 51
180.0
  0
LINE
  8
0
  6
CONTINUOUS
 62
     1
 10
438.333333
 20
697.633317
 30
0.0
 11
438.333333
 21
704.633317
 31
0.0
  0
ARC
  8
0
  6
CONTINUOUS
 62
     1
 10
435.333333
 20
697.633317
 30
0.0
 40
3.0
 50
270.0
 51
0.0
  0
LINE
  8
0
  6
CONTINUOUS
 62
     1
 10
445.333333
 20
707.633317
 30
0.0
 11
385.333333
 21
707.633317
 31
0.0
  0
LINE
  8
0
  6
CONTINUOUS
 62
     1
 10
370.245420912
 20
712.633317
 30
0.0
 11
462.333333
 21
756.653362888
 31
0.0
  0
LINE
  8
0
  6
CONTINUOUS
 62
     1
 10
368.333333
 20
716.633317
 30
0.0
 11
370.245420912
 21
712.633317
 31
0.0
  0
LINE
  8
0
  6
CONTINUOUS
 62
     1
 10
368.333333
 20
716.633317
 30
0.0
 11
460.421245088
 21
760.653362888
 31
0.0
  0
LINE
  8
0
  6
CONTINUOUS
 62
     1
 10
460.421245088
 20
760.653362888
 30
0.0
 11
462.333333
 21
756.653362888
 31
0.0
  0
LINE
  8
0
  6
CONTINUOUS
 62
     1
 10
375.333333
 20
719.979470846
 30
0.0
 11
375.333333
 21
759.633317
 31
0.0
  0
ARC
  8
0
  6
CONTINUOUS
 62
     1
 10
378.333333
 20
759.633317
 30
0.0
 40
3.0
 50
90.0
 51
180.0
  0
LINE
  8
0
  6
CONTINUOUS
 62
     1
 10
375.333333
 20
713.633317
 30
0.0
 11
375.333333
 21
715.0654508
 31
0.0
  0
ARC
  8
0
  6
CONTINUOUS
 62
     1
 10
378.333333
 20
713.633317
 30
0.0
 40
3.0
 50
180.0
 51
270.0
  0
LINE
  8
0
  6
CONTINUOUS
 62
     1
 10
455.333333
 20
713.633317
 30
0.0
 11
455.333333
 21
753.307209042
 31
0.0
  0
LINE
  8
0
  6
CONTINUOUS
 62
     1
 10
452.333333
 20
710.633317
 30
0.0
 11
378.333333
 21
710.633317
 31
0.0
  0
ARC
  8
0
  6
CONTINUOUS
 62
     1
 10
452.333333
 20
713.633317
 30
0.0
 40
3.0
 50
270.0
 51
0.0
  0
LINE
  8
0
  6
CONTINUOUS
 62
     1
 10
455.333333
 20
758.221229088
 30
0.0
 11
455.333333
 21
759.633317
 31
0.0
  0
LINE
  8
0
  6
CONTINUOUS
 62
     1
 10
452.333333
 20
762.633317
 30
0.0
 11
378.333333
 21
762.633317
 31
0.0
  0
ARC
  8
0
  6
CONTINUOUS
 62
     1
 10
452.333333
 20
759.633317
 30
0.0
 40
3.0
 50
0.0
 51
90.0
  0
LINE
  8
0
  6
LTYPE3
 62
     2
 10
415.333333
 20
682.633317
 30
0.0
 11
415.333333
 21
770.5654508
 31
0.0
  0
LINE
  8
0
  6
CONTINUOUS
 62
     1
 10
579.833333
 20
653.133317
 30
0.0
 11
565.333333
 21
653.133317
 31
0.0
  0
ARC
  8
0
  6
CONTINUOUS
 62
     1
 10
579.833333
 20
651.633317
 30
0.0
 40
1.5
 50
0.0
 51
90.0
  0
LINE
  8
0
  6
CONTINUOUS
 62
     1
 10
579.833333
 20
622.133317
 30
0.0
 11
565.333333
 21
622.133317
 31
0.0
  0
LINE
  8
0
  6
CONTINUOUS
 62
     1
 10
581.333333
 20
623.633317
 30
0.0
 11
581.333333
 21
651.633317
 31
0.0
  0
ARC
  8
0
  6
CONTINUOUS
 62
     1
 10
579.833333
 20
623.633317
 30
0.0
 40
1.5
 50
270.0
 51
0.0
  0
LINE
  8
0
  6
CONTINUOUS
 62
     1
 10
376.333333
 20
576.633317
 30
0.0
 11
368.333333
 21
576.633317
 31
0.0
  0
LINE
  8
0
  6
CONTINUOUS
 62
     1
 10
376.333333
 20
576.633317
 30
0.0
 11
376.333333
 21
476.633317
 31
0.0
  0
LINE
  8
0
  6
LTYPE2
 62
     2
 10
319.333333
 20
717.633317
 30
0.0
 11
368.333333
 21
717.633317
 31
0.0
  0
LINE
  8
0
  6
LTYPE4
 62
     2
 10
582.683147745
 20
567.383317
 30
0.0
 11
582.683147745
 21
487.883317
 31
0.0
  0
LINE
  8
0
  6
LTYPE4
 62
     2
 10
588.683147745
 20
567.383317
 30
0.0
 11
588.683147745
 21
487.883317
 31
0.0
  0
LINE
  8
0
  6
CONTINUOUS
 62
     1
 10
544.333333
 20
559.383317
 30
0.0
 11
582.683147745
 21
559.383317
 31
0.0
  0
LINE
  8
0
  6
CONTINUOUS
 62
     1
 10
544.333333
 20
495.883317
 30
0.0
 11
582.683147745
 21
495.883317
 31
0.0
  0
LINE
  8
0
  6
CONTINUOUS
 62
     1
 10
374.833333
 20
698.633317
 30
0.0
 11
368.333333
 21
698.633317
 31
0.0
  0
LINE
  8
0
  6
CONTINUOUS
 62
     1
 10
368.333333
 20
467.633317
 30
0.0
 11
368.333333
 21
698.633317
 31
0.0
  0
LINE
  8
7
  6
CONTINUOUS
 62
     2
 10
481.333333
 20
732.633317
 30
0.0
 11
489.897723096
 21
737.795799183
 31
0.0
  0
LINE
  8
7
  6
CONTINUOUS
 62
     2
 10
481.333333
 20
732.633317
 30
0.0
 11
486.169071299
 21
741.386352765
 31
0.0
  0
LINE
  8
7
  6
CONTINUOUS
 62
     2
 10
481.333333
 20
732.633317
 30
0.0
 11
507.333333
 21
759.633317
 31
0.0
  0
LINE
  8
7
  6
CONTINUOUS
 62
     2
 10
507.333333
 20
759.633317
 30
0.0
 11
566.133333
 21
759.633317
 31
0.0
  0
LINE
  8
7
  6
CONTINUOUS
 62
     2
 10
568.333333
 20
495.883317
 30
0.0
 11
570.921523451
 21
505.542575263
 31
0.0
  0
LINE
  8
7
  6
CONTINUOUS
 62
     2
 10
568.333333
 20
495.883317
 30
0.0
 11
565.745142549
 21
505.542575263
 31
0.0
  0
LINE
  8
7
  6
CONTINUOUS
 62
     2
 10
568.333333
 20
495.883317
 30
0.0
 11
568.333333
 21
559.383317
 31
0.0
  0
LINE
  8
7
  6
CONTINUOUS
 62
     2
 10
568.333333
 20
559.383317
 30
0.0
 11
565.745142549
 21
549.724058737
 31
0.0
  0
LINE
  8
7
  6
CONTINUOUS
 62
     2
 10
568.333333
 20
559.383317
 30
0.0
 11
570.921523451
 21
549.724058737
 31
0.0
  0
LINE
  8
7
  6
CONTINUOUS
 62
     2
 10
501.333333
 20
694.633317
 30
0.0
 11
498.745142549
 21
684.974058737
 31
0.0
  0
LINE
  8
7
  6
CONTINUOUS
 62
     2
 10
501.333333
 20
694.633317
 30
0.0
 11
503.921523451
 21
684.974058737
 31
0.0
  0
LINE
  8
7
  6
CONTINUOUS
 62
     2
 10
501.333333
 20
580.633317
 30
0.0
 11
503.921523451
 21
590.292575263
 31
0.0
  0
LINE
  8
7
  6
CONTINUOUS
 62
     2
 10
501.333333
 20
580.633317
 30
0.0
 11
498.745142549
 21
590.292575263
 31
0.0
  0
LINE
  8
0
  6
LTYPE2
 62
     2
 10
505.333333
 20
637.633317
 30
0.0
 11
588.333333
 21
637.633317
 31
0.0
  0
LINE
  8
0
  6
CONTINUOUS
 62
     1
 10
308.333333
 20
467.633317
 30
0.0
 11
308.333333
 21
672.633317
 31
0.0
  0
LINE
  8
0
  6
CONTINUOUS
 62
     1
 10
536.333333
 20
482.633317
 30
0.0
 11
462.333333
 21
482.633317
 31
0.0
  0
LINE
  8
0
  6
CONTINUOUS
 62
     1
 10
587.333333
 20
438.133317
 30
0.0
 11
454.333333
 21
438.133317
 31
0.0
  0
LINE
  8
0
  6
CONTINUOUS
 62
     1
 10
544.333333
 20
481.133317
 30
0.0
 11
457.333333
 21
481.133317
 31
0.0
  0
ARC
  8
0
  6
CONTINUOUS
 62
     1
 10
457.333333
 20
478.133317
 30
0.0
 40
3.0
 50
90.0
 51
180.0
  0
LINE
  8
0
  6
CONTINUOUS
 62
     1
 10
587.333333
 20
438.133317
 30
0.0
 11
587.333333
 21
477.133317
 31
0.0
  0
LINE
  8
0
  6
CONTINUOUS
 62
     1
 10
584.333333
 20
480.133317
 30
0.0
 11
544.333333
 21
480.133317
 31
0.0
  0
ARC
  8
0
  6
CONTINUOUS
 62
     1
 10
584.333333
 20
477.133317
 30
0.0
 40
3.0
 50
0.0
 51
90.0
  0
LINE
  8
0
  6
CONTINUOUS
 62
     1
 10
582.333333
 20
436.633317
 30
0.0
 11
454.333333
 21
436.633317
 31
0.0
  0
LINE
  8
0
  6
CONTINUOUS
 62
     1
 10
462.333333
 20
481.133317
 30
0.0
 11
462.333333
 21
482.633317
 31
0.0
  0
LINE
  8
0
  6
CONTINUOUS
 62
     1
 10
536.333333
 20
481.133317
 30
0.0
 11
536.333333
 21
482.633317
 31
0.0
  0
LINE
  8
0
  6
CONTINUOUS
 62
     1
 10
544.333333
 20
480.133317
 30
0.0
 11
544.333333
 21
481.133317
 31
0.0
  0
LINE
  8
0
  6
CONTINUOUS
 62
     1
 10
296.333333
 20
619.633317
 30
0.0
 11
353.333333
 21
619.633317
 31
0.0
  0
LINE
  8
0
  6
CONTINUOUS
 62
     1
 10
296.333333
 20
467.633317
 30
0.0
 11
368.333333
 21
467.633317
 31
0.0
  0
LINE
  8
0
  6
CONTINUOUS
 62
     1
 10
296.333333
 20
477.633317
 30
0.0
 11
296.333333
 21
467.833317
 31
0.0
  0
LINE
  8
0
  6
CONTINUOUS
 62
     1
 10
296.333333
 20
467.833317
 30
0.0
 11
290.718973646
 21
467.833317
 31
0.0
  0
LINE
  8
0
  6
CONTINUOUS
 62
     1
 10
289.333333
 20
470.233317
 30
0.0
 11
290.718973646
 21
467.833317
 31
0.0
  0
LINE
  8
0
  6
CONTINUOUS
 62
     1
 10
289.333333
 20
477.633317
 30
0.0
 11
289.333333
 21
470.233317
 31
0.0
  0
LINE
  8
0
  6
CONTINUOUS
 62
     1
 10
296.333333
 20
472.733317
 30
0.0
 11
290.718973646
 21
472.733317
 31
0.0
  0
LINE
  8
0
  6
CONTINUOUS
 62
     1
 10
296.333333
 20
477.633317
 30
0.0
 11
296.333333
 21
487.433317
 31
0.0
  0
LINE
  8
0
  6
CONTINUOUS
 62
     1
 10
296.333333
 20
487.433317
 30
0.0
 11
290.718973646
 21
487.433317
 31
0.0
  0
LINE
  8
0
  6
CONTINUOUS
 62
     1
 10
289.333333
 20
485.033317
 30
0.0
 11
290.718973646
 21
487.433317
 31
0.0
  0
LINE
  8
0
  6
CONTINUOUS
 62
     1
 10
289.333333
 20
477.633317
 30
0.0
 11
289.333333
 21
485.033317
 31
0.0
  0
LINE
  8
0
  6
CONTINUOUS
 62
     1
 10
296.333333
 20
482.533317
 30
0.0
 11
290.718973646
 21
482.533317
 31
0.0
  0
ARC
  8
0
  6
CONTINUOUS
 62
     1
 10
298.6900158
 20
477.633317
 30
0.0
 40
9.3566828
 50
148.419912243
 51
211.580087757
  0
ARC
  8
0
  6
CONTINUOUS
 62
     1
 10
292.191216832
 20
470.283317
 30
0.0
 40
2.858321186
 50
121.002313915
 51
182.989498403
  0
LINE
  8
0
  6
CONTINUOUS
 62
     1
 10
289.333333
 20
485.033317
 30
0.0
 11
290.718973646
 21
487.433317
 31
0.0
  0
ARC
  8
0
  6
CONTINUOUS
 62
     1
 10
292.191216832
 20
484.983317
 30
0.0
 40
2.858321186
 50
177.010501597
 51
238.997686085
  0
LINE
  8
0
  6
LTYPE3
 62
     2
 10
284.333333
 20
477.633317
 30
0.0
 11
317.333333
 21
477.633317
 31
0.0
  0
LINE
  8
0
  6
LTYPE3
 62
     2
 10
284.333333
 20
577.633317
 30
0.0
 11
317.333333
 21
577.633317
 31
0.0
  0
LINE
  8
0
  6
LTYPE2
 62
     2
 10
289.333333
 20
527.633317
 30
0.0
 11
547.833333
 21
527.633317
 31
0.0
  0
LINE
  8
0
  6
CONTINUOUS
 62
     1
 10
304.333333
 20
623.633317
 30
0.0
 11
308.333333
 21
623.633317
 31
0.0
  0
LINE
  8
0
  6
CONTINUOUS
 62
     1
 10
304.333333
 20
651.633317
 30
0.0
 11
308.333333
 21
651.633317
 31
0.0
  0
LINE
  8
0
  6
CONTINUOUS
 62
     1
 10
304.333333
 20
623.633317
 30
0.0
 11
304.333333
 21
651.633317
 31
0.0
  0
LINE
  8
0
  6
CONTINUOUS
 62
     1
 10
303.333333
 20
623.633317
 30
0.0
 11
303.333333
 21
651.633317
 31
0.0
  0
LINE
  8
0
  6
CONTINUOUS
 62
     1
 10
275.333333
 20
651.633317
 30
0.0
 11
303.333333
 21
651.633317
 31
0.0
  0
LINE
  8
0
  6
CONTINUOUS
 62
     1
 10
273.333333
 20
649.633317
 30
0.0
 11
275.333333
 21
651.633317
 31
0.0
  0
LINE
  8
0
  6
CONTINUOUS
 62
     1
 10
275.333333
 20
623.633317
 30
0.0
 11
303.333333
 21
623.633317
 31
0.0
  0
LINE
  8
0
  6
CONTINUOUS
 62
     1
 10
275.333333
 20
623.633317
 30
0.0
 11
273.333333
 21
625.633317
 31
0.0
  0
LINE
  8
0
  6
LTYPE2
 62
     2
 10
260.333333
 20
637.633317
 30
0.0
 11
480.333333
 21
637.633317
 31
0.0
  0
LINE
  8
0
  6
LTYPE2
 62
     2
 10
284.133333
 20
589.633317
 30
0.0
 11
304.333333
 21
589.633317
 31
0.0
  0
LINE
  8
0
  6
CONTINUOUS
 62
     1
 10
596.833333
 20
515.133317
 30
0.0
 11
621.833333
 21
515.133317
 31
0.0
  0
LINE
  8
0
  6
CONTINUOUS
 62
     1
 10
621.833333
 20
540.133317
 30
0.0
 11
621.833333
 21
515.133317
 31
0.0
  0
LINE
  8
0
  6
CONTINUOUS
 62
     1
 10
596.833333
 20
540.133317
 30
0.0
 11
621.833333
 21
540.133317
 31
0.0
  0
LINE
  8
0
  6
CONTINUOUS
 62
     1
 10
596.833333
 20
540.133317
 30
0.0
 11
596.833333
 21
515.133317
 31
0.0
  0
CIRCLE
  8
0
  6
CONTINUOUS
 62
     1
 10
609.333333
 20
527.633317
 30
0.0
 40
12.5
  0
LINE
  8
0
  6
LTYPE2
 62
     2
 10
609.333333
 20
508.933317
 30
0.0
 11
609.333333
 21
548.633317
 31
0.0
  0
LINE
  8
7
  6
CONTINUOUS
 62
     2
 10
613.802757461
 20
537.133317
 30
0.0
 11
619.769333149
 21
545.158276474
 31
0.0
  0
LINE
  8
7
  6
CONTINUOUS
 62
     2
 10
613.802757461
 20
537.133317
 30
0.0
 11
614.957483843
 21
547.066423613
 31
0.0
  0
LINE
  8
7
  6
CONTINUOUS
 62
     2
 10
613.802757461
 20
537.133317
 30
0.0
 11
636.802757461
 21
595.133317
 31
0.0
  0
LINE
  8
7
  6
CONTINUOUS
 62
     2
 10
475.333333
 20
445.633317
 30
0.0
 11
552.602757461
 21
445.633317
 31
0.0
  0
CIRCLE
  8
0
  6
CONTINUOUS
 62
     1
 10
846.333333
 20
527.633317
 30
0.0
 40
8.0
  0
LINE
  8
0
  6
LTYPE1
 62
     2
 10
821.333333
 20
507.633317
 30
0.0
 11
821.333333
 21
547.633317
 31
0.0
  0
LINE
  8
0
  6
CONTINUOUS
 62
     1
 10
854.333333
 20
547.633317
 30
0.0
 11
864.333333
 21
537.633317
 31
0.0
  0
LINE
  8
0
  6
CONTINUOUS
 62
     1
 10
864.333333
 20
517.633317
 30
0.0
 11
864.333333
 21
537.633317
 31
0.0
  0
LINE
  8
0
  6
CONTINUOUS
 62
     1
 10
854.333333
 20
507.633317
 30
0.0
 11
864.333333
 21
517.633317
 31
0.0
  0
LINE
  8
0
  6
CONTINUOUS
 62
     1
 10
864.333333
 20
707.633317
 30
0.0
 11
864.333333
 21
719.633317
 31
0.0
  0
LINE
  8
0
  6
CONTINUOUS
 62
     1
 10
821.333333
 20
707.633317
 30
0.0
 11
864.333333
 21
707.633317
 31
0.0
  0
LINE
  8
0
  6
CONTINUOUS
 62
     1
 10
864.333333
 20
691.633317
 30
0.0
 11
864.333333
 21
679.633317
 31
0.0
  0
LINE
  8
0
  6
CONTINUOUS
 62
     1
 10
821.333333
 20
691.633317
 30
0.0
 11
864.333333
 21
691.633317
 31
0.0
  0
LINE
  8
0
  6
CONTINUOUS
 62
     1
 10
821.333333
 20
691.633317
 30
0.0
 11
821.333333
 21
707.633317
 31
0.0
  0
LINE
  8
0
  6
CONTINUOUS
 62
     1
 10
838.333333
 20
691.633317
 30
0.0
 11
838.333333
 21
707.633317
 31
0.0
  0
LINE
  8
0
  6
CONTINUOUS
 62
     1
 10
854.333333
 20
691.633317
 30
0.0
 11
854.333333
 21
707.633317
 31
0.0
  0
LINE
  8
7
  6
CONTINUOUS
 62
     2
 10
860.333333
 20
547.633317
 30
0.0
 11
905.833333
 21
547.633317
 31
0.0
  0
LINE
  8
7
  6
CONTINUOUS
 62
     2
 10
899.833333
 20
547.633317
 30
0.0
 11
897.245142549
 21
537.974058737
 31
0.0
  0
LINE
  8
7
  6
CONTINUOUS
 62
     2
 10
899.833333
 20
547.633317
 30
0.0
 11
902.421523451
 21
537.974058737
 31
0.0
  0
LINE
  8
7
  6
CONTINUOUS
 62
     2
 10
899.833333
 20
547.633317
 30
0.0
 11
899.833333
 21
507.633317
 31
0.0
  0
LINE
  8
7
  6
CONTINUOUS
 62
     2
 10
899.833333
 20
507.633317
 30
0.0
 11
902.421523451
 21
517.292575263
 31
0.0
  0
LINE
  8
7
  6
CONTINUOUS
 62
     2
 10
899.833333
 20
507.633317
 30
0.0
 11
897.245142549
 21
517.292575263
 31
0.0
  0
LINE
  8
7
  6
CONTINUOUS
 62
     2
 10
860.333333
 20
507.633317
 30
0.0
 11
905.833333
 21
507.633317
 31
0.0
  0
TEXT
  8
7
  6
CONTINUOUS
 62
     2
 10
895.833333
 20
516.233317
 30
1.2
 40
12.0
  1
４０
 50
90.0
 41
0.9
 51
0.0
  7
KANJI23
  0
LINE
  8
7
  6
CONTINUOUS
 62
     2
 10
870.333333
 20
707.633317
 30
0.0
 11
905.833333
 21
707.633317
 31
0.0
  0
LINE
  8
7
  6
CONTINUOUS
 62
     2
 10
870.333333
 20
691.633317
 30
0.0
 11
905.833333
 21
691.633317
 31
0.0
  0
LINE
  8
7
  6
CONTINUOUS
 62
     2
 10
870.333333
 20
719.633317
 30
0.0
 11
951.833333
 21
719.633317
 31
0.0
  0
LINE
  8
7
  6
CONTINUOUS
 62
     2
 10
870.333333
 20
679.633317
 30
0.0
 11
951.833333
 21
679.633317
 31
0.0
  0
LINE
  8
7
  6
CONTINUOUS
 62
     2
 10
897.333333
 20
719.633317
 30
0.0
 11
899.921523451
 21
729.292575263
 31
0.0
  0
LINE
  8
7
  6
CONTINUOUS
 62
     2
 10
897.333333
 20
719.633317
 30
0.0
 11
894.745142549
 21
729.292575263
 31
0.0
  0
LINE
  8
7
  6
CONTINUOUS
 62
     2
 10
897.333333
 20
679.633317
 30
0.0
 11
894.745142549
 21
669.974058737
 31
0.0
  0
LINE
  8
7
  6
CONTINUOUS
 62
     2
 10
897.333333
 20
679.633317
 30
0.0
 11
899.921523451
 21
669.974058737
 31
0.0
  0
LINE
  8
7
  6
CONTINUOUS
 62
     2
 10
901.333333
 20
679.633317
 30
0.0
 11
903.333333
 21
679.633317
 31
0.0
  0
LINE
  8
7
  6
CONTINUOUS
 62
     2
 10
897.333333
 20
757.433317
 30
0.0
 11
897.333333
 21
691.633317
 31
0.0
  0
LINE
  8
7
  6
CONTINUOUS
 62
     2
 10
897.333333
 20
691.633317
 30
0.0
 11
897.333333
 21
641.833317
 31
0.0
  0
LINE
  8
0
  6
LTYPE3
 62
     2
 10
846.333333
 20
491.633317
 30
0.0
 11
846.333333
 21
736.633317
 31
0.0
  0
LINE
  8
7
  6
CONTINUOUS
 62
     2
 10
846.333333
 20
585.633317
 30
0.0
 11
846.333333
 21
587.633317
 31
0.0
  0
LINE
  8
7
  6
CONTINUOUS
 62
     2
 10
846.333333
 20
581.633317
 30
0.0
 11
836.674074737
 21
584.221507451
 31
0.0
  0
LINE
  8
7
  6
CONTINUOUS
 62
     2
 10
846.333333
 20
581.633317
 30
0.0
 11
836.674074737
 21
579.045126549
 31
0.0
  0
LINE
  8
7
  6
CONTINUOUS
 62
     2
 10
846.333333
 20
581.633317
 30
0.0
 11
821.333333
 21
581.633317
 31
0.0
  0
LINE
  8
7
  6
CONTINUOUS
 62
     2
 10
821.333333
 20
581.633317
 30
0.0
 11
830.992591263
 21
579.045126549
 31
0.0
  0
LINE
  8
7
  6
CONTINUOUS
 62
     2
 10
821.333333
 20
581.633317
 30
0.0
 11
830.992591263
 21
584.221507451
 31
0.0
  0
LINE
  8
7
  6
CONTINUOUS
 62
     2
 10
821.333333
 20
685.633317
 30
0.0
 11
821.333333
 21
575.633317
 31
0.0
  0
LINE
  8
7
  6
CONTINUOUS
 62
     2
 10
636.802757461
 20
595.133317
 30
0.0
 11
671.602757461
 21
595.133317
 31
0.0
  0
LINE
  8
0
  6
LTYPE2
 62
     2
 10
573.333333
 20
527.633317
 30
0.0
 11
872.333333
 21
527.633317
 31
0.0
  0
LINE
  8
0
  6
LTYPE3
 62
     2
 10
571.333333
 20
455.133317
 30
0.0
 11
599.333333
 21
455.133317
 31
0.0
  0
LINE
  8
7
  6
CONTINUOUS
 62
     2
 10
581.333333
 20
784.633317
 30
0.0
 11
571.674074737
 21
787.221507451
 31
0.0
  0
LINE
  8
7
  6
CONTINUOUS
 62
     2
 10
581.333333
 20
784.633317
 30
0.0
 11
571.674074737
 21
782.045126549
 31
0.0
  0
LINE
  8
7
  6
CONTINUOUS
 62
     2
 10
581.333333
 20
784.633317
 30
0.0
 11
368.333333
 21
784.633317
 31
0.0
  0
LINE
  8
7
  6
CONTINUOUS
 62
     2
 10
368.333333
 20
784.633317
 30
0.0
 11
377.992591263
 21
782.045126549
 31
0.0
  0
LINE
  8
7
  6
CONTINUOUS
 62
     2
 10
368.333333
 20
784.633317
 30
0.0
 11
377.992591263
 21
787.221507451
 31
0.0
  0
LINE
  8
7
  6
CONTINUOUS
 62
     2
 10
368.333333
 20
778.633317
 30
0.0
 11
368.333333
 21
778.633317
 31
0.0
  0
LINE
  8
7
  6
CONTINUOUS
 62
     2
 10
368.333333
 20
784.633317
 30
0.0
 11
358.674074737
 21
787.221507451
 31
0.0
  0
LINE
  8
7
  6
CONTINUOUS
 62
     2
 10
368.333333
 20
784.633317
 30
0.0
 11
358.674074737
 21
782.045126549
 31
0.0
  0
LINE
  8
7
  6
CONTINUOUS
 62
     2
 10
368.333333
 20
784.633317
 30
0.0
 11
308.333333
 21
784.633317
 31
0.0
  0
LINE
  8
7
  6
CONTINUOUS
 62
     2
 10
308.333333
 20
784.633317
 30
0.0
 11
317.992591263
 21
782.045126549
 31
0.0
  0
LINE
  8
7
  6
CONTINUOUS
 62
     2
 10
308.333333
 20
784.633317
 30
0.0
 11
317.992591263
 21
787.221507451
 31
0.0
  0
LINE
  8
7
  6
CONTINUOUS
 62
     2
 10
581.333333
 20
657.63332779
 30
0.0
 11
581.333333
 21
790.633317
 31
0.0
  0
LINE
  8
7
  6
CONTINUOUS
 62
     2
 10
368.333333
 20
704.633317
 30
0.0
 11
368.333333
 21
790.633317
 31
0.0
  0
LINE
  8
7
  6
CONTINUOUS
 62
     2
 10
308.333333
 20
678.633317
 30
0.0
 11
308.333333
 21
790.633317
 31
0.0
  0
LINE
  8
0
  6
LTYPE3
 62
     2
 10
491.00801509
 20
732.633317
 30
0.0
 11
448.262808845
 21
732.633317
 31
0.0
  0
LINE
  8
0
  6
CONTINUOUS
 62
     1
 10
588.683147745
 20
495.883317
 30
0.0
 11
776.333333
 21
495.883317
 31
0.0
  0
LINE
  8
7
  6
CONTINUOUS
 62
     2
 10
587.333333
 20
455.133317
 30
0.0
 11
592.333333
 21
446.473062962
 31
0.0
  0
LINE
  8
7
  6
CONTINUOUS
 62
     2
 10
587.333333
 20
455.133317
 30
0.0
 11
595.993587038
 21
450.133317
 31
0.0
  0
LINE
  8
7
  6
CONTINUOUS
 62
     2
 10
587.333333
 20
455.133317
 30
0.0
 11
623.333333
 21
419.133317
 31
0.0
  0
LINE
  8
7
  6
CONTINUOUS
 62
     2
 10
623.333333
 20
419.133317
 30
0.0
 11
682.133333
 21
419.133317
 31
0.0
  0
LINE
  8
0
  6
CONTINUOUS
 62
     1
 10
776.333333
 20
508.633317
 30
0.0
 11
811.333333
 21
508.633317
 31
0.0
  0
LINE
  8
0
  6
CONTINUOUS
 62
     1
 10
536.333333
 20
680.703841155
 30
0.0
 11
536.333333
 21
693.133317
 31
0.0
  0
ARC
  8
0
  6
CONTINUOUS
 62
     1
 10
537.833333
 20
680.703841155
 30
0.0
 40
1.5
 50
180.0
 51
251.029592192
  0
LINE
  8
0
  6
CONTINUOUS
 62
     1
 10
551.320952653
 20
674.481322744
 30
0.0
 11
537.345713347
 21
679.285311256
 31
0.0
  0
LINE
  8
0
  6
CONTINUOUS
 62
     1
 10
536.333333
 20
637.633317
 30
0.0
 11
536.333333
 21
680.703841155
 31
0.0
  0
LINE
  8
0
  6
CONTINUOUS
 62
     1
 10
537.633333
 20
673.695762841
 30
0.0
 11
537.633333
 21
669.083882841
 31
0.0
  0
LINE
  8
0
  6
CONTINUOUS
 62
     1
 10
537.633333
 20
673.695762841
 30
0.0
 11
537.633333
 21
678.307642841
 31
0.0
  0
LINE
  8
0
  6
CONTINUOUS
 62
     1
 10
541.133533
 20
670.213322841
 30
0.0
 11
540.481450512
 21
669.083882841
 31
0.0
  0
LINE
  8
0
  6
CONTINUOUS
 62
     1
 10
541.133533
 20
673.695762841
 30
0.0
 11
541.133533
 21
670.213322841
 31
0.0
  0
LINE
  8
0
  6
CONTINUOUS
 62
     1
 10
541.133533
 20
677.178202841
 30
0.0
 11
540.481450512
 21
678.307642841
 31
0.0
  0
LINE
  8
0
  6
CONTINUOUS
 62
     1
 10
541.133533
 20
673.695762841
 30
0.0
 11
541.133533
 21
677.178202841
 31
0.0
  0
ARC
  8
0
  6
CONTINUOUS
 62
     1
 10
536.730278074
 20
673.695762841
 30
0.0
 40
4.403254926
 50
328.419912243
 51
31.580087757
  0
ARC
  8
0
  6
CONTINUOUS
 62
     1
 10
539.788612868
 20
670.236852841
 30
0.0
 40
1.34512595
 50
357.010501597
 51
58.997686085
  0
LINE
  8
0
  6
CONTINUOUS
 62
     1
 10
541.133533
 20
677.178202841
 30
0.0
 11
540.481450512
 21
678.307642841
 31
0.0
  0
ARC
  8
0
  6
CONTINUOUS
 62
     1
 10
539.788612868
 20
677.154672841
 30
0.0
 40
1.34512595
 50
301.002313915
 51
2.989498403
  0
LINE
  8
0
  6
CONTINUOUS
 62
     1
 10
537.633333
 20
669.083882841
 30
0.0
 11
540.481450512
 21
669.083882841
 31
0.0
  0
LINE
  8
0
  6
CONTINUOUS
 62
     1
 10
537.633333
 20
671.389822841
 30
0.0
 11
540.481450512
 21
671.389822841
 31
0.0
  0
LINE
  8
0
  6
CONTINUOUS
 62
     1
 10
537.633333
 20
676.001702841
 30
0.0
 11
540.481450512
 21
676.001702841
 31
0.0
  0
LINE
  8
0
  6
CONTINUOUS
 62
     1
 10
537.633333
 20
678.307642841
 30
0.0
 11
540.481450512
 21
678.307642841
 31
0.0
  0
LINE
  8
0
  6
CONTINUOUS
 62
     1
 10
536.333333
 20
669.095762841
 30
0.0
 11
537.633333
 21
669.095762841
 31
0.0
  0
LINE
  8
0
  6
CONTINUOUS
 62
     1
 10
536.333333
 20
673.695762841
 30
0.0
 11
537.633332554
 21
672.395763287
 31
0.0
  0
LINE
  8
0
  6
CONTINUOUS
 62
     1
 10
537.633332554
 20
673.695762841
 30
0.0
 11
536.333333
 21
674.995762394
 31
0.0
  0
LINE
  8
0
  6
CONTINUOUS
 62
     1
 10
536.333333
 20
678.295762841
 30
0.0
 11
537.633333
 21
678.295762841
 31
0.0
  0
LINE
  8
0
  6
CONTINUOUS
 62
     1
 10
565.333333
 20
637.633317
 30
0.0
 11
565.333333
 21
654.133317
 31
0.0
  0
LINE
  8
0
  6
CONTINUOUS
 62
     1
 10
565.333333
 20
637.633317
 30
0.0
 11
565.333333
 21
621.133317
 31
0.0
  0
LINE
  8
0
  6
CONTINUOUS
 62
     1
 10
566.333333
 20
641.433317
 30
0.0
 11
565.333333
 21
641.433317
 31
0.0
  0
LINE
  8
0
  6
CONTINUOUS
 62
     1
 10
566.333333
 20
637.633317
 30
0.0
 11
565.333333
 21
638.633317
 31
0.0
  0
LINE
  8
0
  6
CONTINUOUS
 62
     1
 10
568.815790352
 20
641.683317
 30
0.0
 11
566.333333
 21
641.683317
 31
0.0
  0
LINE
  8
0
  6
CONTINUOUS
 62
     1
 10
569.133333
 20
641.133317
 30
0.0
 11
568.815790352
 21
641.683317
 31
0.0
  0
LINE
  8
0
  6
CONTINUOUS
 62
     1
 10
568.815790352
 20
639.658317
 30
0.0
 11
566.333333
 21
639.658317
 31
0.0
  0
ARC
  8
0
  6
CONTINUOUS
 62
     1
 10
567.360359212
 20
640.670817
 30
0.0
 40
1.772973788
 50
325.174816769
 51
34.825183231
  0
LINE
  8
0
  6
CONTINUOUS
 62
     1
 10
566.333333
 20
633.833317
 30
0.0
 11
565.333333
 21
633.833317
 31
0.0
  0
LINE
  8
0
  6
CONTINUOUS
 62
     1
 10
566.333333
 20
636.633317
 30
0.0
 11
565.333333
 21
637.633317
 31
0.0
  0
LINE
  8
0
  6
CONTINUOUS
 62
     1
 10
569.133333
 20
634.133317
 30
0.0
 11
568.815790352
 21
633.583317
 31
0.0
  0
LINE
  8
0
  6
CONTINUOUS
 62
     1
 10
568.815790352
 20
633.583317
 30
0.0
 11
566.333333
 21
633.583317
 31
0.0
  0
LINE
  8
0
  6
CONTINUOUS
 62
     1
 10
568.815790352
 20
635.608317
 30
0.0
 11
566.333333
 21
635.608317
 31
0.0
  0
ARC
  8
0
  6
CONTINUOUS
 62
     1
 10
567.360359212
 20
634.595817
 30
0.0
 40
1.772973788
 50
325.174816769
 51
34.825183231
  0
LINE
  8
0
  6
CONTINUOUS
 62
     1
 10
566.333333
 20
641.683317
 30
0.0
 11
566.333333
 21
633.583317
 31
0.0
  0
LINE
  8
0
  6
CONTINUOUS
 62
     1
 10
569.133333
 20
641.133317
 30
0.0
 11
569.133333
 21
634.133317
 31
0.0
  0
ARC
  8
0
  6
CONTINUOUS
 62
     1
 10
562.517751819
 20
637.633317
 30
0.0
 40
6.615581181
 50
342.175912681
 51
17.824087319
  0
LINE
  8
0
  6
CONTINUOUS
 62
     1
 10
536.333333
 20
594.562792845
 30
0.0
 11
536.333333
 21
582.133317
 31
0.0
  0
ARC
  8
0
  6
CONTINUOUS
 62
     1
 10
537.833333
 20
594.562792845
 30
0.0
 40
1.5
 50
108.970407808
 51
180.0
  0
LINE
  8
0
  6
CONTINUOUS
 62
     1
 10
551.320952653
 20
600.785311256
 30
0.0
 11
537.345713347
 21
595.981322744
 31
0.0
  0
LINE
  8
0
  6
CONTINUOUS
 62
     1
 10
536.333333
 20
637.633317
 30
0.0
 11
536.333333
 21
594.562792845
 31
0.0
  0
LINE
  8
0
  6
CONTINUOUS
 62
     1
 10
537.633333
 20
601.570871159
 30
0.0
 11
537.633333
 21
606.182751159
 31
0.0
  0
LINE
  8
0
  6
CONTINUOUS
 62
     1
 10
541.133533
 20
605.053311159
 30
0.0
 11
540.481450512
 21
606.182751159
 31
0.0
  0
LINE
  8
0
  6
CONTINUOUS
 62
     1
 10
541.133533
 20
601.570871159
 30
0.0
 11
541.133533
 21
605.053311159
 31
0.0
  0
ARC
  8
0
  6
CONTINUOUS
 62
     1
 10
539.788612868
 20
605.029781159
 30
0.0
 40
1.34512595
 50
301.002313915
 51
2.989498403
  0
LINE
  8
0
  6
CONTINUOUS
 62
     1
 10
537.633333
 20
606.182751159
 30
0.0
 11
540.481450512
 21
606.182751159
 31
0.0
  0
LINE
  8
0
  6
CONTINUOUS
 62
     1
 10
536.333333
 20
606.170871159
 30
0.0
 11
537.633333
 21
606.170871159
 31
0.0
  0
LINE
  8
0
  6
CONTINUOUS
 62
     1
 10
537.633333
 20
601.570871159
 30
0.0
 11
537.633333
 21
596.958991159
 31
0.0
  0
LINE
  8
0
  6
CONTINUOUS
 62
     1
 10
541.133533
 20
598.088431159
 30
0.0
 11
540.481450512
 21
596.958991159
 31
0.0
  0
LINE
  8
0
  6
CONTINUOUS
 62
     1
 10
541.133533
 20
601.570871159
 30
0.0
 11
541.133533
 21
598.088431159
 31
0.0
  0
ARC
  8
0
  6
CONTINUOUS
 62
     1
 10
536.730278074
 20
601.570871159
 30
0.0
 40
4.403254926
 50
328.419912243
 51
31.580087757
  0
LINE
  8
0
  6
CONTINUOUS
 62
     1
 10
541.133533
 20
598.088431159
 30
0.0
 11
540.481450512
 21
596.958991159
 31
0.0
  0
ARC
  8
0
  6
CONTINUOUS
 62
     1
 10
539.788612868
 20
598.111961159
 30
0.0
 40
1.34512595
 50
357.010501597
 51
58.997686085
  0
LINE
  8
0
  6
CONTINUOUS
 62
     1
 10
537.633333
 20
599.264931159
 30
0.0
 11
540.481450512
 21
599.264931159
 31
0.0
  0
LINE
  8
0
  6
CONTINUOUS
 62
     1
 10
537.633333
 20
596.958991159
 30
0.0
 11
540.481450512
 21
596.958991159
 31
0.0
  0
LINE
  8
0
  6
CONTINUOUS
 62
     1
 10
536.333333
 20
596.970871159
 30
0.0
 11
537.633333
 21
596.970871159
 31
0.0
  0
LINE
  8
0
  6
CONTINUOUS
 62
     1
 10
537.633333
 20
603.876811159
 30
0.0
 11
540.481450512
 21
603.876811159
 31
0.0
  0
LINE
  8
0
  6
CONTINUOUS
 62
     1
 10
536.333333
 20
601.570871159
 30
0.0
 11
537.633332554
 21
602.870870713
 31
0.0
  0
LINE
  8
0
  6
CONTINUOUS
 62
     1
 10
537.633332554
 20
601.570871159
 30
0.0
 11
536.333333
 21
600.270871606
 31
0.0
  0
CIRCLE
  8
0
  6
CONTINUOUS
 62
     1
 10
344.333333
 20
717.633317
 30
0.0
 40
12.5
  0
ARC
  8
0
  6
CONTINUOUS
 62
     1
 10
344.333333
 20
717.633317
 30
0.0
 40
20.5
 50
300.423432294
 51
0.0
  0
ARC
  8
0
  6
CONTINUOUS
 62
     1
 10
355.281317073
 20
698.906805336
 30
0.0
 40
1.2
 50
118.393405187
 51
188.554293104
  0
ARC
  8
0
  6
CONTINUOUS
 62
     1
 10
333.385348927
 20
698.906805336
 30
0.0
 40
1.2
 50
351.445706896
 51
61.606594813
  0
ARC
  8
0
  6
CONTINUOUS
 62
     1
 10
344.333333
 20
717.633317
 30
0.0
 40
20.5
 50
0.0
 51
239.707348078
  0
LINE
  8
0
  6
CONTINUOUS
 62
     1
 10
354.219047286
 20
697.633317
 30
0.0
 11
353.533333
 21
703.633317
 31
0.0
  0
LINE
  8
0
  6
CONTINUOUS
 62
     1
 10
344.333333
 20
705.133317
 30
0.0
 11
353.533333
 21
703.633317
 31
0.0
  0
LINE
  8
0
  6
CONTINUOUS
 62
     1
 10
344.333333
 20
705.133317
 30
0.0
 11
335.133333
 21
703.633317
 31
0.0
  0
LINE
  8
0
  6
CONTINUOUS
 62
     1
 10
334.447618714
 20
697.633317
 30
0.0
 11
335.133333
 21
703.633317
 31
0.0
  0
LINE
  8
0
  6
CONTINUOUS
 62
     1
 10
335.133333
 20
703.633317
 30
0.0
 11
353.533333
 21
703.633317
 31
0.0
  0
LINE
  8
0
  6
CONTINUOUS
 62
     1
 10
273.333333
 20
625.633317
 30
0.0
 11
273.333333
 21
649.633317
 31
0.0
  0
ARC
  8
0
  6
CONTINUOUS
 62
     1
 10
269.954308674
 20
639.833317
 30
0.0
 40
1.3
 50
90.0
 51
163.39844642
  0
ARC
  8
0
  6
CONTINUOUS
 62
     1
 10
277.333333
 20
637.633317
 30
0.0
 40
9.0
 50
163.398449826
 51
180.0
  0
LINE
  8
0
  6
CONTINUOUS
 62
     1
 10
270.933333
 20
641.133317
 30
0.0
 11
269.954308674
 21
641.133317
 31
0.0
  0
LINE
  8
0
  6
CONTINUOUS
 62
     1
 10
270.933333
 20
637.633317
 30
0.0
 11
270.933333
 21
641.433317
 31
0.0
  0
ARC
  8
0
  6
CONTINUOUS
 62
     1
 10
269.954308674
 20
635.433317
 30
0.0
 40
1.3
 50
196.60155358
 51
270.0
  0
ARC
  8
0
  6
CONTINUOUS
 62
     1
 10
277.333333
 20
637.633317
 30
0.0
 40
9.0
 50
180.0
 51
196.601550174
  0
LINE
  8
0
  6
CONTINUOUS
 62
     1
 10
270.933333
 20
634.133317
 30
0.0
 11
269.954308674
 21
634.133317
 31
0.0
  0
LINE
  8
0
  6
CONTINUOUS
 62
     1
 10
270.933333
 20
637.633317
 30
0.0
 11
270.933333
 21
633.833317
 31
0.0
  0
LINE
  8
0
  6
CONTINUOUS
 62
     1
 10
268.333333
 20
637.633317
 30
0.0
 11
269.833333
 21
636.033317
 31
0.0
  0
LINE
  8
0
  6
CONTINUOUS
 62
     1
 10
268.333333
 20
637.633317
 30
0.0
 11
269.833333
 21
639.233317
 31
0.0
  0
LINE
  8
0
  6
CONTINUOUS
 62
     1
 10
273.333333
 20
641.433317
 30
0.0
 11
270.933333
 21
641.433317
 31
0.0
  0
LINE
  8
0
  6
CONTINUOUS
 62
     1
 10
273.333333
 20
633.833317
 30
0.0
 11
270.933333
 21
633.833317
 31
0.0
  0
LINE
  8
0
  6
CONTINUOUS
 62
     1
 10
296.333333
 20
467.633317
 30
0.0
 11
296.333333
 21
619.633317
 31
0.0
  0
LINE
  8
0
  6
CONTINUOUS
 62
     1
 10
293.133333
 20
599.633317
 30
0.0
 11
296.333333
 21
599.633317
 31
0.0
  0
LINE
  8
0
  6
CONTINUOUS
 62
     1
 10
293.133333
 20
579.633317
 30
0.0
 11
296.333333
 21
579.633317
 31
0.0
  0
LINE
  8
0
  6
CONTINUOUS
 62
     1
 10
287.629451477
 20
585.280415
 30
0.0
 11
288.444526874
 21
583.868663
 31
0.0
  0
LINE
  8
0
  6
CONTINUOUS
 62
     1
 10
287.629451477
 20
589.633317
 30
0.0
 11
287.629451477
 21
585.280415
 31
0.0
  0
LINE
  8
0
  6
CONTINUOUS
 62
     1
 10
287.629451477
 20
593.986219
 30
0.0
 11
288.444526874
 21
595.397971
 31
0.0
  0
LINE
  8
0
  6
CONTINUOUS
 62
     1
 10
287.629451477
 20
589.633317
 30
0.0
 11
287.629451477
 21
593.986219
 31
0.0
  0
ARC
  8
0
  6
CONTINUOUS
 62
     1
 10
293.133333
 20
589.633317
 30
0.0
 40
5.503881523
 50
148.419912243
 51
211.580087757
  0
ARC
  8
0
  6
CONTINUOUS
 62
     1
 10
289.310544483
 20
585.3098265
 30
0.0
 40
1.681350271
 50
121.002313915
 51
182.989498403
  0
LINE
  8
0
  6
CONTINUOUS
 62
     1
 10
287.629451477
 20
593.986219
 30
0.0
 11
288.444526874
 21
595.397971
 31
0.0
  0
ARC
  8
0
  6
CONTINUOUS
 62
     1
 10
289.310544483
 20
593.9568075
 30
0.0
 40
1.681350271
 50
177.010501597
 51
238.997686085
  0
LINE
  8
0
  6
CONTINUOUS
 62
     1
 10
291.629061477
 20
586.75099
 30
0.0
 11
288.444526874
 21
586.75099
 31
0.0
  0
LINE
  8
0
  6
CONTINUOUS
 62
     1
 10
291.629061477
 20
583.868663
 30
0.0
 11
288.444526874
 21
583.868663
 31
0.0
  0
LINE
  8
0
  6
CONTINUOUS
 62
     1
 10
291.629061477
 20
592.515644
 30
0.0
 11
288.444526874
 21
592.515644
 31
0.0
  0
LINE
  8
0
  6
CONTINUOUS
 62
     1
 10
291.629061477
 20
595.397971
 30
0.0
 11
288.444526874
 21
595.397971
 31
0.0
  0
LINE
  8
0
  6
CONTINUOUS
 62
     1
 10
293.129061477
 20
589.633317
 30
0.0
 11
291.629061719
 21
588.133317243
 31
0.0
  0
LINE
  8
0
  6
CONTINUOUS
 62
     1
 10
291.629061719
 20
589.633317
 30
0.0
 11
293.129061477
 21
591.133316757
 31
0.0
  0
LINE
  8
0
  6
CONTINUOUS
 62
     1
 10
293.129061477
 20
583.533317
 30
0.0
 11
291.629061477
 21
583.533317
 31
0.0
  0
LINE
  8
0
  6
CONTINUOUS
 62
     1
 10
291.629061477
 20
589.633317
 30
0.0
 11
291.629061477
 21
583.533317
 31
0.0
  0
LINE
  8
0
  6
CONTINUOUS
 62
     1
 10
291.629061477
 20
589.633317
 30
0.0
 11
291.629061477
 21
595.733317
 31
0.0
  0
LINE
  8
0
  6
CONTINUOUS
 62
     1
 10
293.129061477
 20
595.733317
 30
0.0
 11
291.629061477
 21
595.733317
 31
0.0
  0
LINE
  8
0
  6
CONTINUOUS
 62
     1
 10
293.133333
 20
579.633317
 30
0.0
 11
293.133333
 21
599.633317
 31
0.0
  0
LINE
  8
0
  6
CONTINUOUS
 62
     1
 10
454.333333
 20
430.633317
 30
0.0
 11
454.333333
 21
478.133317
 31
0.0
  0
LINE
  8
0
  6
CONTINUOUS
 62
     1
 10
582.333333
 20
430.633317
 30
0.0
 11
582.333333
 21
480.133317
 31
0.0
  0
LINE
  8
0
  6
CONTINUOUS
 62
     1
 10
582.333333
 20
430.633317
 30
0.0
 11
454.333333
 21
430.633317
 31
0.0
  0
ARC
  8
0
  6
CONTINUOUS
 62
     1
 10
1184.333333
 20
473.633317
 30
0.0
 40
6.0
 50
270.0
 51
0.0
  0
ARC
  8
0
  6
CONTINUOUS
 62
     1
 10
1076.333333
 20
473.633317
 30
0.0
 40
6.0
 50
180.0
 51
270.0
  0
LINE
  8
0
  6
CONTINUOUS
 62
     1
 10
1085.333333
 20
504.633317
 30
0.0
 11
1085.333333
 21
482.633317
 31
0.0
  0
LINE
  8
0
  6
CONTINUOUS
 62
     1
 10
1085.333333
 20
504.845833539
 30
0.0
 11
1070.333333
 21
507.633317
 31
0.0
  0
LINE
  8
0
  6
CONTINUOUS
 62
     1
 10
1175.333333
 20
504.633317
 30
0.0
 11
1175.333333
 21
482.633317
 31
0.0
  0
LINE
  8
0
  6
CONTINUOUS
 62
     1
 10
1175.333333
 20
504.845833539
 30
0.0
 11
1190.333333
 21
507.633317
 31
0.0
  0
ARC
  8
0
  6
CONTINUOUS
 62
     1
 10
1089.212012656
 20
568.754637344
 30
0.0
 40
7.0
 50
172.721057981
 51
180.0
  0
ARC
  8
0
  6
CONTINUOUS
 62
     1
 10
1089.212012656
 20
568.754637344
 30
0.0
 40
7.0
 50
105.275864075
 51
172.721057981
  0
CIRCLE
  8
0
  6
CONTINUOUS
 62
     1
 10
1169.333333
 20
566.633317
 30
0.0
 40
5.0
  0
ARC
  8
0
  6
CONTINUOUS
 62
     1
 10
1171.454653344
 20
568.754637344
 30
0.0
 40
7.0
 50
0.0
 51
7.278942019
  0
ARC
  8
0
  6
CONTINUOUS
 62
     1
 10
1171.454653344
 20
568.754637344
 30
0.0
 40
7.0
 50
7.278942019
 51
74.724135925
  0
LINE
  8
0
  6
CONTINUOUS
 62
     1
 10
1178.398240874
 20
569.641537679
 30
0.0
 11
1181.010879324
 21
549.187059279
 31
0.0
  0
ARC
  8
0
  6
CONTINUOUS
 62
     1
 10
1089.212012656
 20
486.511996656
 30
0.0
 40
7.0
 50
180.0
 51
187.278942019
  0
LINE
  8
0
  6
CONTINUOUS
 62
     1
 10
1082.268425126
 20
485.625096321
 30
0.0
 11
1079.655786676
 21
506.079574721
 31
0.0
  0
ARC
  8
0
  6
CONTINUOUS
 62
     1
 10
1171.454653344
 20
486.511996656
 30
0.0
 40
7.0
 50
352.721057981
 51
0.0
  0
LINE
  8
0
  6
CONTINUOUS
 62
     1
 10
1178.398240874
 20
485.625096321
 30
0.0
 11
1181.010879324
 21
506.079574721
 31
0.0
  0
LINE
  8
0
  6
CONTINUOUS
 62
     1
 10
1110.333333
 20
547.633317
 30
0.0
 11
1150.333333
 21
547.633317
 31
0.0
  0
LINE
  8
0
  6
CONTINUOUS
 62
     1
 10
1150.333333
 20
507.633317
 30
0.0
 11
1150.333333
 21
547.633317
 31
0.0
  0
LINE
  8
0
  6
CONTINUOUS
 62
     1
 10
1110.333333
 20
507.633317
 30
0.0
 11
1150.333333
 21
507.633317
 31
0.0
  0
LINE
  8
0
  6
CONTINUOUS
 62
     1
 10
1110.333333
 20
507.633317
 30
0.0
 11
1110.333333
 21
547.633317
 31
0.0
  0
LINE
  8
0
  6
CONTINUOUS
 62
     1
 10
1122.333333
 20
507.633317
 30
0.0
 11
1122.333333
 21
547.633317
 31
0.0
  0
LINE
  8
0
  6
CONTINUOUS
 62
     1
 10
1138.333333
 20
507.633317
 30
0.0
 11
1138.333333
 21
547.633317
 31
0.0
  0
LINE
  8
0
  6
CONTINUOUS
 62
     1
 10
1122.333333
 20
519.633317
 30
0.0
 11
1138.333333
 21
519.633317
 31
0.0
  0
LINE
  8
0
  6
CONTINUOUS
 62
     1
 10
1110.333333
 20
517.633317
 30
0.0
 11
1122.333333
 21
517.633317
 31
0.0
  0
LINE
  8
0
  6
CONTINUOUS
 62
     1
 10
1122.333333
 20
535.633317
 30
0.0
 11
1138.333333
 21
535.633317
 31
0.0
  0
LINE
  8
0
  6
CONTINUOUS
 62
     1
 10
1110.333333
 20
537.633317
 30
0.0
 11
1122.333333
 21
537.633317
 31
0.0
  0
LINE
  8
0
  6
CONTINUOUS
 62
     1
 10
1150.333333
 20
517.633317
 30
0.0
 11
1138.333333
 21
517.633317
 31
0.0
  0
LINE
  8
0
  6
CONTINUOUS
 62
     1
 10
1150.333333
 20
537.633317
 30
0.0
 11
1138.333333
 21
537.633317
 31
0.0
  0
ARC
  8
0
  6
CONTINUOUS
 62
     1
 10
1180.333333
 20
478.133317
 30
0.0
 40
3.0
 50
0.0
 51
90.0
  0
LINE
  8
0
  6
CONTINUOUS
 62
     1
 10
1180.333333
 20
482.633317
 30
0.0
 11
1180.333333
 21
481.133317
 31
0.0
  0
LINE
  8
0
  6
CONTINUOUS
 62
     1
 10
1077.333333
 20
438.133317
 30
0.0
 11
1183.333333
 21
438.133317
 31
0.0
  0
LINE
  8
0
  6
CONTINUOUS
 62
     1
 10
1077.333333
 20
436.633317
 30
0.0
 11
1183.333333
 21
436.633317
 31
0.0
  0
LINE
  8
0
  6
CONTINUOUS
 62
     1
 10
1183.333333
 20
467.633317
 30
0.0
 11
1184.333333
 21
467.633317
 31
0.0
  0
LINE
  8
0
  6
CONTINUOUS
 62
     1
 10
1076.333333
 20
467.633317
 30
0.0
 11
1077.333333
 21
467.633317
 31
0.0
  0
ARC
  8
0
  6
CONTINUOUS
 62
     1
 10
1171.454653344
 20
486.511996656
 30
0.0
 40
7.0
 50
326.35145266
 51
352.721057981
  0
ARC
  8
0
  6
CONTINUOUS
 62
     1
 10
1089.212012656
 20
486.511996656
 30
0.0
 40
7.0
 50
187.278942019
 51
213.64854734
  0
LINE
  8
0
  6
CONTINUOUS
 62
     1
 10
1074.333333
 20
576.633317
 30
0.0
 11
1186.333333
 21
576.633317
 31
0.0
  0
CIRCLE
  8
0
  6
CONTINUOUS
 62
     1
 10
1130.333333
 20
637.633317
 30
0.0
 40
15.5
  0
LINE
  8
0
  6
CONTINUOUS
 62
     1
 10
1135.286163189
 20
654.417817979
 30
0.0
 11
1159.663521679
 21
647.224460417
 31
0.0
  0
LINE
  8
0
  6
CONTINUOUS
 62
     1
 10
1135.286163189
 20
620.848816021
 30
0.0
 11
1159.663521679
 21
628.042173583
 31
0.0
  0
LINE
  8
0
  6
CONTINUOUS
 62
     1
 10
1145.004733751
 20
632.633317
 30
0.0
 11
1148.173078962
 21
632.633317
 31
0.0
  0
LINE
  8
0
  6
CONTINUOUS
 62
     1
 10
1145.004733751
 20
642.633317
 30
0.0
 11
1148.173078962
 21
642.633317
 31
0.0
  0
ARC
  8
0
  6
LTYPE3
 62
     2
 10
1130.333333
 20
637.633317
 30
0.0
 40
26.5
 50
345.963756532
 51
14.715071651
  0
LINE
  8
0
  6
CONTINUOUS
 62
     1
 10
1125.380502811
 20
654.417817979
 30
0.0
 11
1101.003144321
 21
647.224460417
 31
0.0
  0
LINE
  8
0
  6
CONTINUOUS
 62
     1
 10
1125.380502811
 20
620.848816021
 30
0.0
 11
1101.003144321
 21
628.042173583
 31
0.0
  0
ARC
  8
0
  6
CONTINUOUS
 62
     1
 10
1103.833333
 20
637.633317
 30
0.0
 40
10.0
 50
30.0
 51
180.0
  0
ARC
  8
0
  6
CONTINUOUS
 62
     1
 10
1103.833333
 20
637.633317
 30
0.0
 40
10.0
 50
180.0
 51
330.0
  0
LINE
  8
0
  6
CONTINUOUS
 62
     1
 10
1115.661932249
 20
632.633317
 30
0.0
 11
1112.493587038
 21
632.633317
 31
0.0
  0
LINE
  8
0
  6
CONTINUOUS
 62
     1
 10
1115.661932249
 20
642.633317
 30
0.0
 11
1112.493587038
 21
642.633317
 31
0.0
  0
ARC
  8
0
  6
LTYPE3
 62
     2
 10
1130.333333
 20
637.633317
 30
0.0
 40
26.5
 50
165.284928349
 51
194.036243468
  0
ARC
  8
0
  6
CONTINUOUS
 62
     1
 10
1130.333333
 20
637.633317
 30
0.0
 40
17.5
 50
16.601549599
 51
163.398450401
  0
ARC
  8
0
  6
CONTINUOUS
 62
     1
 10
1130.333333
 20
637.633317
 30
0.0
 40
17.5
 50
196.601549599
 51
343.398450401
  0
ARC
  8
0
  6
LTYPE3
 62
     2
 10
1130.333333
 20
637.633317
 30
0.0
 40
51.0
 50
34.902495616
 51
52.696051722
  0
LINE
  8
0
  6
LTYPE3
 62
     2
 10
1162.333333
 20
669.633317
 30
0.0
 11
1171.333333
 21
678.633317
 31
0.0
  0
ARC
  8
0
  6
LTYPE3
 62
     2
 10
1130.333333
 20
637.633317
 30
0.0
 40
25.0
 50
63.434948823
 51
114.623564786
  0
ARC
  8
0
  6
LTYPE3
 62
     2
 10
1130.333333
 20
637.633317
 30
0.0
 40
25.0
 50
245.376435214
 51
296.565051177
  0
ARC
  8
0
  6
LTYPE3
 62
     2
 10
1130.333333
 20
637.633317
 30
0.0
 40
51.0
 50
124.902495616
 51
142.696051722
  0
LINE
  8
0
  6
LTYPE3
 62
     2
 10
1098.333333
 20
669.633317
 30
0.0
 11
1089.333333
 21
678.633317
 31
0.0
  0
ARC
  8
0
  6
LTYPE3
 62
     2
 10
1130.333333
 20
637.633317
 30
0.0
 40
51.0
 50
307.303948278
 51
325.097504384
  0
LINE
  8
0
  6
LTYPE3
 62
     2
 10
1162.333333
 20
605.633317
 30
0.0
 11
1171.333333
 21
596.633317
 31
0.0
  0
ARC
  8
0
  6
LTYPE3
 62
     2
 10
1130.333333
 20
637.633317
 30
0.0
 40
51.0
 50
217.303948278
 51
235.097504384
  0
LINE
  8
0
  6
LTYPE3
 62
     2
 10
1098.333333
 20
605.633317
 30
0.0
 11
1089.333333
 21
596.633317
 31
0.0
  0
LINE
  8
0
  6
LTYPE3
 62
     2
 10
1172.333333
 20
688.633317
 30
0.0
 11
1189.333333
 21
688.633317
 31
0.0
  0
LINE
  8
0
  6
LTYPE3
 62
     2
 10
1181.333333
 20
696.633317
 30
0.0
 11
1181.333333
 21
680.133317
 31
0.0
  0
LINE
  8
0
  6
LTYPE3
 62
     2
 10
1088.333333
 20
688.633317
 30
0.0
 11
1071.333333
 21
688.633317
 31
0.0
  0
LINE
  8
0
  6
LTYPE3
 62
     2
 10
1079.333333
 20
696.633317
 30
0.0
 11
1079.333333
 21
680.133317
 31
0.0
  0
LINE
  8
0
  6
LTYPE3
 62
     2
 10
1172.333333
 20
586.633317
 30
0.0
 11
1189.333333
 21
586.633317
 31
0.0
  0
LINE
  8
0
  6
LTYPE3
 62
     2
 10
1181.333333
 20
578.633317
 30
0.0
 11
1181.333333
 21
595.133317
 31
0.0
  0
LINE
  8
0
  6
LTYPE3
 62
     2
 10
1088.333333
 20
586.633317
 30
0.0
 11
1071.333333
 21
586.633317
 31
0.0
  0
LINE
  8
0
  6
LTYPE3
 62
     2
 10
1079.333333
 20
578.633317
 30
0.0
 11
1079.333333
 21
595.133317
 31
0.0
  0
LINE
  8
0
  6
CONTINUOUS
 62
     1
 10
1160.333333
 20
707.633317
 30
0.0
 11
1160.333333
 21
710.633317
 31
0.0
  0
ARC
  8
0
  6
CONTINUOUS
 62
     1
 10
1156.333333
 20
704.633317
 30
0.0
 40
3.0
 50
90.0
 51
180.0
  0
LINE
  8
0
  6
CONTINUOUS
 62
     1
 10
1153.333333
 20
693.786936242
 30
0.0
 11
1153.333333
 21
704.633317
 31
0.0
  0
ARC
  8
0
  6
CONTINUOUS
 62
     1
 10
1149.333333
 20
693.786936242
 30
0.0
 40
4.0
 50
304.936144888
 51
0.0
  0
ARC
  8
0
  6
CONTINUOUS
 62
     1
 10
1104.333333
 20
704.633317
 30
0.0
 40
3.0
 50
0.0
 51
90.0
  0
LINE
  8
0
  6
CONTINUOUS
 62
     1
 10
1107.333333
 20
693.786936242
 30
0.0
 11
1107.333333
 21
704.633317
 31
0.0
  0
ARC
  8
0
  6
CONTINUOUS
 62
     1
 10
1111.333333
 20
693.786936242
 30
0.0
 40
4.0
 50
180.0
 51
235.063855112
  0
CIRCLE
  8
0
  6
CONTINUOUS
 62
     1
 10
1130.333333
 20
732.633317
 30
0.0
 40
17.0
  0
LINE
  8
0
  6
LTYPE3
 62
     2
 10
1107.333333
 20
732.633317
 30
0.0
 11
1153.333333
 21
732.633317
 31
0.0
  0
ARC
  8
0
  6
CONTINUOUS
 62
     1
 10
1088.333333
 20
754.653362888
 30
0.0
 40
2.0
 50
90.0
 51
180.0
  0
ARC
  8
0
  6
CONTINUOUS
 62
     1
 10
1096.333333
 20
760.633317
 30
0.0
 40
2.0
 50
90.0
 51
180.0
  0
LINE
  8
0
  6
CONTINUOUS
 62
     1
 10
1096.333333
 20
762.633317
 30
0.0
 11
1164.333333
 21
762.633317
 31
0.0
  0
ARC
  8
0
  6
CONTINUOUS
 62
     1
 10
1164.333333
 20
760.633317
 30
0.0
 40
2.0
 50
0.0
 51
90.0
  0
LINE
  8
0
  6
CONTINUOUS
 62
     1
 10
1172.333333
 20
756.653362888
 30
0.0
 11
1088.333333
 21
756.653362888
 31
0.0
  0
ARC
  8
0
  6
CONTINUOUS
 62
     1
 10
1172.333333
 20
754.653362888
 30
0.0
 40
2.0
 50
0.0
 51
90.0
  0
ARC
  8
0
  6
CONTINUOUS
 62
     1
 10
1088.333333
 20
758.653362888
 30
0.0
 40
2.0
 50
90.0
 51
180.0
  0
ARC
  8
0
  6
CONTINUOUS
 62
     1
 10
1096.333333
 20
751.633317
 30
0.0
 40
2.0
 50
90.0
 51
180.0
  0
LINE
  8
0
  6
CONTINUOUS
 62
     1
 10
1096.333333
 20
753.633317
 30
0.0
 11
1164.333333
 21
753.633317
 31
0.0
  0
ARC
  8
0
  6
CONTINUOUS
 62
     1
 10
1164.333333
 20
751.633317
 30
0.0
 40
2.0
 50
0.0
 51
90.0
  0
LINE
  8
0
  6
CONTINUOUS
 62
     1
 10
1172.333333
 20
760.653362888
 30
0.0
 11
1088.333333
 21
760.653362888
 31
0.0
  0
ARC
  8
0
  6
CONTINUOUS
 62
     1
 10
1172.333333
 20
758.653362888
 30
0.0
 40
2.0
 50
0.0
 51
90.0
  0
LINE
  8
0
  6
CONTINUOUS
 62
     1
 10
1100.333333
 20
707.633317
 30
0.0
 11
1160.333333
 21
707.633317
 31
0.0
  0
LINE
  8
0
  6
CONTINUOUS
 62
     1
 10
1100.333333
 20
707.633317
 30
0.0
 11
1100.333333
 21
710.633317
 31
0.0
  0
LINE
  8
0
  6
CONTINUOUS
 62
     1
 10
1166.333333
 20
712.633317
 30
0.0
 11
1172.333333
 21
712.633317
 31
0.0
  0
LINE
  8
0
  6
CONTINUOUS
 62
     1
 10
1174.333333
 20
714.633317
 30
0.0
 11
1174.333333
 21
758.653362888
 31
0.0
  0
ARC
  8
0
  6
CONTINUOUS
 62
     1
 10
1172.333333
 20
714.633317
 30
0.0
 40
2.0
 50
270.0
 51
0.0
  0
LINE
  8
0
  6
CONTINUOUS
 62
     1
 10
1166.333333
 20
712.633317
 30
0.0
 11
1166.333333
 21
751.633317
 31
0.0
  0
ARC
  8
0
  6
CONTINUOUS
 62
     1
 10
1164.333333
 20
712.633317
 30
0.0
 40
2.0
 50
270.0
 51
0.0
  0
LINE
  8
0
  6
CONTINUOUS
 62
     1
 10
1094.333333
 20
712.633317
 30
0.0
 11
1094.333333
 21
751.633317
 31
0.0
  0
LINE
  8
0
  6
CONTINUOUS
 62
     1
 10
1096.333333
 20
710.633317
 30
0.0
 11
1164.333333
 21
710.633317
 31
0.0
  0
ARC
  8
0
  6
CONTINUOUS
 62
     1
 10
1096.333333
 20
712.633317
 30
0.0
 40
2.0
 50
180.0
 51
270.0
  0
LINE
  8
0
  6
CONTINUOUS
 62
     1
 10
1094.333333
 20
712.633317
 30
0.0
 11
1088.333333
 21
712.633317
 31
0.0
  0
LINE
  8
0
  6
CONTINUOUS
 62
     1
 10
1086.333333
 20
714.633317
 30
0.0
 11
1086.333333
 21
758.653362888
 31
0.0
  0
ARC
  8
0
  6
CONTINUOUS
 62
     1
 10
1088.333333
 20
714.633317
 30
0.0
 40
2.0
 50
180.0
 51
270.0
  0
CIRCLE
  8
0
  6
CONTINUOUS
 62
     2
 10
1130.333333
 20
732.633317
 30
0.0
 40
15.0
  0
LINE
  8
0
  6
CONTINUOUS
 62
     1
 10
1190.333333
 20
473.633317
 30
0.0
 11
1190.333333
 21
578.633317
 31
0.0
  0
LINE
  8
0
  6
CONTINUOUS
 62
     1
 10
1172.341553679
 20
575.698224874
 30
0.0
 11
1165.02067019
 21
576.633317
 31
0.0
  0
LINE
  8
0
  6
CONTINUOUS
 62
     1
 10
1088.325112321
 20
575.698224874
 30
0.0
 11
1095.64599581
 21
576.633317
 31
0.0
  0
LINE
  8
0
  6
LTYPE3
 62
     2
 10
1161.248435543
 20
566.633317
 30
0.0
 11
1177.748435543
 21
566.633317
 31
0.0
  0
LINE
  8
0
  6
LTYPE3
 62
     2
 10
1169.333333
 20
574.306194017
 30
0.0
 11
1169.333333
 21
558.006194017
 31
0.0
  0
LINE
  8
0
  6
LTYPE3
 62
     2
 10
1099.418230457
 20
566.633317
 30
0.0
 11
1082.918230457
 21
566.633317
 31
0.0
  0
LINE
  8
0
  6
LTYPE3
 62
     2
 10
1091.333333
 20
574.306194017
 30
0.0
 11
1091.333333
 21
558.006194017
 31
0.0
  0
LINE
  8
0
  6
LTYPE1
 62
     2
 10
1168.333333
 20
519.633317
 30
0.0
 11
1168.333333
 21
535.633317
 31
0.0
  0
LINE
  8
0
  6
LTYPE1
 62
     2
 10
1168.333333
 20
519.633317
 30
0.0
 11
1190.333333
 21
519.633317
 31
0.0
  0
LINE
  8
0
  6
LTYPE1
 62
     2
 10
1168.333333
 20
535.633317
 30
0.0
 11
1190.333333
 21
535.633317
 31
0.0
  0
LINE
  8
0
  6
LTYPE1
 62
     2
 10
1092.333333
 20
519.633317
 30
0.0
 11
1092.333333
 21
535.633317
 31
0.0
  0
LINE
  8
0
  6
LTYPE1
 62
     2
 10
1092.333333
 20
519.633317
 30
0.0
 11
1070.333333
 21
519.633317
 31
0.0
  0
LINE
  8
0
  6
LTYPE1
 62
     2
 10
1092.333333
 20
535.633317
 30
0.0
 11
1070.333333
 21
535.633317
 31
0.0
  0
LINE
  8
0
  6
LTYPE2
 62
     2
 10
1058.333333
 20
637.633317
 30
0.0
 11
1197.851190143
 21
637.633317
 31
0.0
  0
LINE
  8
0
  6
LTYPE3
 62
     2
 10
1130.333333
 20
426.586888429
 30
0.0
 11
1130.333333
 21
770.586888429
 31
0.0
  0
LINE
  8
7
  6
CONTINUOUS
 62
     2
 10
1196.333333
 20
535.633317
 30
0.0
 11
1250.333333
 21
535.633317
 31
0.0
  0
LINE
  8
7
  6
CONTINUOUS
 62
     2
 10
1244.333333
 20
535.633317
 30
0.0
 11
1246.921523451
 21
545.292575263
 31
0.0
  0
LINE
  8
7
  6
CONTINUOUS
 62
     2
 10
1244.333333
 20
535.633317
 30
0.0
 11
1241.745142549
 21
545.292575263
 31
0.0
  0
LINE
  8
7
  6
CONTINUOUS
 62
     2
 10
1244.333333
 20
519.633317
 30
0.0
 11
1241.745142549
 21
509.974058737
 31
0.0
  0
LINE
  8
7
  6
CONTINUOUS
 62
     2
 10
1244.333333
 20
519.633317
 30
0.0
 11
1246.921523451
 21
509.974058737
 31
0.0
  0
LINE
  8
7
  6
CONTINUOUS
 62
     2
 10
1196.333333
 20
519.633317
 30
0.0
 11
1250.333333
 21
519.633317
 31
0.0
  0
LINE
  8
7
  6
CONTINUOUS
 62
     2
 10
1207.333333
 20
527.633317
 30
0.0
 11
1282.333333
 21
527.633317
 31
0.0
  0
LINE
  8
7
  6
CONTINUOUS
 62
     2
 10
1276.333333
 20
527.633317
 30
0.0
 11
1278.921523451
 21
537.292575263
 31
0.0
  0
LINE
  8
7
  6
CONTINUOUS
 62
     2
 10
1276.333333
 20
527.633317
 30
0.0
 11
1273.745142549
 21
537.292575263
 31
0.0
  0
LINE
  8
7
  6
CONTINUOUS
 62
     2
 10
1276.333333
 20
527.633317
 30
0.0
 11
1276.333333
 21
637.633317
 31
0.0
  0
LINE
  8
7
  6
CONTINUOUS
 62
     2
 10
1276.333333
 20
637.633317
 30
0.0
 11
1273.745142549
 21
627.974058737
 31
0.0
  0
LINE
  8
7
  6
CONTINUOUS
 62
     2
 10
1276.333333
 20
637.633317
 30
0.0
 11
1278.921523451
 21
627.974058737
 31
0.0
  0
LINE
  8
7
  6
CONTINUOUS
 62
     2
 10
1170.333333
 20
762.633317
 30
0.0
 11
1314.333333
 21
762.633317
 31
0.0
  0
LINE
  8
7
  6
CONTINUOUS
 62
     2
 10
1308.333333
 20
762.633317
 30
0.0
 11
1305.745142549
 21
752.974058737
 31
0.0
  0
LINE
  8
7
  6
CONTINUOUS
 62
     2
 10
1308.333333
 20
762.633317
 30
0.0
 11
1310.921523451
 21
752.974058737
 31
0.0
  0
LINE
  8
7
  6
CONTINUOUS
 62
     2
 10
1308.333333
 20
762.633317
 30
0.0
 11
1308.333333
 21
425.133707
 31
0.0
  0
LINE
  8
7
  6
CONTINUOUS
 62
     2
 10
1308.333333
 20
425.133707
 30
0.0
 11
1310.921523451
 21
434.792965263
 31
0.0
  0
LINE
  8
7
  6
CONTINUOUS
 62
     2
 10
1308.333333
 20
425.133707
 30
0.0
 11
1305.745142549
 21
434.792965263
 31
0.0
  0
LINE
  8
7
  6
CONTINUOUS
 62
     2
 10
1187.686235
 20
425.133707
 30
0.0
 11
1314.333333
 21
425.133707
 31
0.0
  0
LINE
  8
7
  6
CONTINUOUS
 62
     2
 10
1276.333333
 20
527.633317
 30
0.0
 11
1273.745142549
 21
517.974058737
 31
0.0
  0
LINE
  8
7
  6
CONTINUOUS
 62
     2
 10
1276.333333
 20
527.633317
 30
0.0
 11
1278.921523451
 21
517.974058737
 31
0.0
  0
LINE
  8
7
  6
CONTINUOUS
 62
     2
 10
1276.333333
 20
527.633317
 30
0.0
 11
1276.333333
 21
425.133707
 31
0.0
  0
LINE
  8
7
  6
CONTINUOUS
 62
     2
 10
1276.333333
 20
425.133707
 30
0.0
 11
1278.921523451
 21
434.792965263
 31
0.0
  0
LINE
  8
7
  6
CONTINUOUS
 62
     2
 10
1276.333333
 20
425.133707
 30
0.0
 11
1273.745142549
 21
434.792965263
 31
0.0
  0
LINE
  8
7
  6
CONTINUOUS
 62
     2
 10
1279.333333
 20
425.133707
 30
0.0
 11
1282.333333
 21
425.133707
 31
0.0
  0
LINE
  8
7
  6
CONTINUOUS
 62
     2
 10
1276.333333
 20
637.633317
 30
0.0
 11
1278.921523451
 21
647.292575263
 31
0.0
  0
LINE
  8
7
  6
CONTINUOUS
 62
     2
 10
1276.333333
 20
637.633317
 30
0.0
 11
1273.745142549
 21
647.292575263
 31
0.0
  0
LINE
  8
7
  6
CONTINUOUS
 62
     2
 10
1276.333333
 20
637.633317
 30
0.0
 11
1276.333333
 21
762.633317
 31
0.0
  0
LINE
  8
7
  6
CONTINUOUS
 62
     2
 10
1276.333333
 20
762.633317
 30
0.0
 11
1273.745142549
 21
752.974058737
 31
0.0
  0
LINE
  8
7
  6
CONTINUOUS
 62
     2
 10
1276.333333
 20
762.633317
 30
0.0
 11
1278.921523451
 21
752.974058737
 31
0.0
  0
LINE
  8
7
  6
CONTINUOUS
 62
     2
 10
1271.333333
 20
762.633317
 30
0.0
 11
1270.333333
 21
762.633317
 31
0.0
  0
LINE
  8
7
  6
CONTINUOUS
 62
     2
 10
1244.333333
 20
650.633317
 30
0.0
 11
1244.333333
 21
504.633317
 31
0.0
  0
LINE
  8
7
  6
CONTINUOUS
 62
     2
 10
1247.333333
 20
637.633317
 30
0.0
 11
1282.333333
 21
637.633317
 31
0.0
  0
LINE
  8
0
  6
CONTINUOUS
 62
     1
 10
1150.333333
 20
438.133317
 30
0.0
 11
1150.333333
 21
481.133317
 31
0.0
  0
LINE
  8
0
  6
CONTINUOUS
 62
     1
 10
1110.333333
 20
438.133317
 30
0.0
 11
1110.333333
 21
481.133317
 31
0.0
  0
LINE
  8
0
  6
LTYPE3
 62
     2
 10
1114.333333
 20
455.133317
 30
0.0
 11
1145.333333
 21
455.133317
 31
0.0
  0
CIRCLE
  8
0
  6
CONTINUOUS
 62
     2
 10
1130.333333
 20
455.133317
 30
0.0
 40
11.0
  0
CIRCLE
  8
0
  6
CONTINUOUS
 62
     2
 10
1130.333333
 20
455.133317
 30
0.0
 40
9.5
  0
LINE
  8
7
  6
CONTINUOUS
 62
     2
 10
1069.333333
 20
699.633332259
 30
0.0
 11
1069.333333
 21
793.633317
 31
0.0
  0
LINE
  8
7
  6
CONTINUOUS
 62
     2
 10
1069.333333
 20
787.633317
 30
0.0
 11
1078.992591263
 21
785.045126549
 31
0.0
  0
LINE
  8
7
  6
CONTINUOUS
 62
     2
 10
1069.333333
 20
787.633317
 30
0.0
 11
1078.992591263
 21
790.221507451
 31
0.0
  0
LINE
  8
7
  6
CONTINUOUS
 62
     2
 10
1069.333333
 20
787.633317
 30
0.0
 11
1191.333333
 21
787.633317
 31
0.0
  0
LINE
  8
7
  6
CONTINUOUS
 62
     2
 10
1191.333333
 20
787.633317
 30
0.0
 11
1181.674074737
 21
790.221507451
 31
0.0
  0
LINE
  8
7
  6
CONTINUOUS
 62
     2
 10
1191.333333
 20
787.633317
 30
0.0
 11
1181.674074737
 21
785.045126549
 31
0.0
  0
LINE
  8
7
  6
CONTINUOUS
 62
     2
 10
1191.333333
 20
699.633332259
 30
0.0
 11
1191.333333
 21
793.633317
 31
0.0
  0
LINE
  8
0
  6
LTYPE2
 62
     2
 10
1044.00801509
 20
527.633317
 30
0.0
 11
1201.333333
 21
527.633317
 31
0.0
  0
LINE
  8
0
  6
CONTINUOUS
 62
     1
 10
1070.333333
 20
473.633317
 30
0.0
 11
1070.333333
 21
578.633317
 31
0.0
  0
LINE
  8
0
  6
CONTINUOUS
 62
     1
 10
1082.268425126
 20
569.641537679
 30
0.0
 11
1079.655786676
 21
549.187059279
 31
0.0
  0
LINE
  8
0
  6
CONTINUOUS
 62
     1
 10
1096.576768359
 20
677.695760841
 30
0.0
 11
1098.882649559
 21
673.695762841
 31
0.0
  0
LINE
  8
0
  6
CONTINUOUS
 62
     1
 10
1096.576768359
 20
669.695764841
 30
0.0
 11
1098.882649559
 21
673.695762841
 31
0.0
  0
LINE
  8
0
  6
CONTINUOUS
 62
     1
 10
1091.965005959
 20
669.695764841
 30
0.0
 11
1089.659124759
 21
673.695762841
 31
0.0
  0
LINE
  8
0
  6
CONTINUOUS
 62
     1
 10
1091.965005959
 20
669.695764841
 30
0.0
 11
1096.576768359
 21
669.695764841
 31
0.0
  0
CIRCLE
  8
0
  6
CONTINUOUS
 62
     1
 10
1130.333333
 20
662.633317
 30
0.0
 40
3.999998
  0
LINE
  8
0
  6
CONTINUOUS
 62
     1
 10
1134.333331
 20
664.9391982
 30
0.0
 11
1134.333331
 21
660.3274358
 31
0.0
  0
LINE
  8
0
  6
CONTINUOUS
 62
     1
 10
1134.333331
 20
660.3274358
 30
0.0
 11
1130.333333
 21
658.0215546
 31
0.0
  0
LINE
  8
0
  6
CONTINUOUS
 62
     1
 10
1126.333335
 20
664.9391982
 30
0.0
 11
1126.333335
 21
660.3274358
 31
0.0
  0
LINE
  8
0
  6
CONTINUOUS
 62
     1
 10
1126.333335
 20
660.3274358
 30
0.0
 11
1130.333333
 21
658.0215546
 31
0.0
  0
LINE
  8
0
  6
CONTINUOUS
 62
     1
 10
1134.333331
 20
664.9391982
 30
0.0
 11
1130.333333
 21
667.2450794
 31
0.0
  0
LINE
  8
0
  6
CONTINUOUS
 62
     1
 10
1126.333335
 20
664.9391982
 30
0.0
 11
1130.333333
 21
667.2450794
 31
0.0
  0
LINE
  8
0
  6
CONTINUOUS
 62
     1
 10
1107.340735885
 20
635.608317
 30
0.0
 11
1103.833333
 21
633.583317
 31
0.0
  0
LINE
  8
0
  6
CONTINUOUS
 62
     1
 10
1103.833333
 20
633.583317
 30
0.0
 11
1100.325930115
 21
635.608317
 31
0.0
  0
LINE
  8
0
  6
CONTINUOUS
 62
     1
 10
1107.340735885
 20
639.658317
 30
0.0
 11
1107.340735885
 21
635.608317
 31
0.0
  0
LINE
  8
0
  6
CONTINUOUS
 62
     1
 10
1100.325930115
 20
635.608317
 30
0.0
 11
1100.325930115
 21
639.658317
 31
0.0
  0
CIRCLE
  8
0
  6
CONTINUOUS
 62
     1
 10
1103.833333
 20
637.633317
 30
0.0
 40
3.5
  0
LINE
  8
0
  6
CONTINUOUS
 62
     1
 10
1100.325930115
 20
639.658317
 30
0.0
 11
1103.833333
 21
641.683317
 31
0.0
  0
LINE
  8
0
  6
CONTINUOUS
 62
     1
 10
1103.833333
 20
641.683317
 30
0.0
 11
1107.340735885
 21
639.658317
 31
0.0
  0
LINE
  8
0
  6
CONTINUOUS
 62
     1
 10
1091.965005959
 20
597.570873159
 30
0.0
 11
1096.576768359
 21
597.570873159
 31
0.0
  0
LINE
  8
0
  6
CONTINUOUS
 62
     1
 10
1096.576768359
 20
597.570873159
 30
0.0
 11
1098.882649559
 21
601.570871159
 31
0.0
  0
LINE
  8
0
  6
CONTINUOUS
 62
     1
 10
1096.576768359
 20
605.570869159
 30
0.0
 11
1098.882649559
 21
601.570871159
 31
0.0
  0
LINE
  8
0
  6
CONTINUOUS
 62
     1
 10
1091.965005959
 20
605.570869159
 30
0.0
 11
1096.576768359
 21
605.570869159
 31
0.0
  0
LINE
  8
0
  6
CONTINUOUS
 62
     1
 10
1091.965005959
 20
597.570873159
 30
0.0
 11
1089.659124759
 21
601.570871159
 31
0.0
  0
LINE
  8
0
  6
CONTINUOUS
 62
     1
 10
1091.965005959
 20
605.570869159
 30
0.0
 11
1089.659124759
 21
601.570871159
 31
0.0
  0
CIRCLE
  8
0
  6
CONTINUOUS
 62
     1
 10
1094.270887159
 20
601.570871159
 30
0.0
 40
3.999998
  0
ARC
  8
0
  6
CONTINUOUS
 62
     1
 10
1074.333333
 20
581.633317
 30
0.0
 40
5.0
 50
180.0
 51
270.0
  0
LINE
  8
0
  6
CONTINUOUS
 62
     1
 10
1085.833283
 20
582.886287
 30
0.0
 11
1085.833283
 21
590.380347
 31
0.0
  0
LINE
  8
0
  6
CONTINUOUS
 62
     1
 10
1085.833283
 20
590.380347
 30
0.0
 11
1079.333333
 21
594.127377
 31
0.0
  0
LINE
  8
0
  6
CONTINUOUS
 62
     1
 10
1072.833383
 20
582.886287
 30
0.0
 11
1079.333333
 21
579.139257
 31
0.0
  0
LINE
  8
0
  6
CONTINUOUS
 62
     1
 10
1085.833283
 20
582.886287
 30
0.0
 11
1079.333333
 21
579.139257
 31
0.0
  0
LINE
  8
0
  6
CONTINUOUS
 62
     1
 10
1072.833383
 20
590.380347
 30
0.0
 11
1079.333333
 21
594.127377
 31
0.0
  0
LINE
  8
0
  6
CONTINUOUS
 62
     1
 10
1072.833383
 20
582.886287
 30
0.0
 11
1072.833383
 21
590.380347
 31
0.0
  0
CIRCLE
  8
0
  6
CONTINUOUS
 62
     1
 10
1079.333333
 20
586.633317
 30
0.0
 40
6.49995
  0
ARC
  8
0
  6
CONTINUOUS
 62
     1
 10
1186.333333
 20
581.633317
 30
0.0
 40
5.0
 50
270.0
 51
0.0
  0
LINE
  8
0
  6
CONTINUOUS
 62
     1
 10
1162.395780841
 20
599.264989959
 30
0.0
 11
1162.395780841
 21
603.876752359
 31
0.0
  0
LINE
  8
0
  6
CONTINUOUS
 62
     1
 10
1170.395776841
 20
603.876752359
 30
0.0
 11
1166.395778841
 21
606.182633559
 31
0.0
  0
LINE
  8
0
  6
CONTINUOUS
 62
     1
 10
1162.395780841
 20
603.876752359
 30
0.0
 11
1166.395778841
 21
606.182633559
 31
0.0
  0
LINE
  8
0
  6
CONTINUOUS
 62
     1
 10
1170.395776841
 20
599.264989959
 30
0.0
 11
1166.395778841
 21
596.959108759
 31
0.0
  0
LINE
  8
0
  6
CONTINUOUS
 62
     1
 10
1162.395780841
 20
599.264989959
 30
0.0
 11
1166.395778841
 21
596.959108759
 31
0.0
  0
LINE
  8
0
  6
CONTINUOUS
 62
     1
 10
1170.395776841
 20
599.264989959
 30
0.0
 11
1170.395776841
 21
603.876752359
 31
0.0
  0
CIRCLE
  8
0
  6
CONTINUOUS
 62
     1
 10
1166.395778841
 20
601.570871159
 30
0.0
 40
3.999998
  0
LINE
  8
0
  6
CONTINUOUS
 62
     1
 10
1174.833383
 20
582.886287
 30
0.0
 11
1174.833383
 21
590.380347
 31
0.0
  0
LINE
  8
0
  6
CONTINUOUS
 62
     1
 10
1174.833383
 20
582.886287
 30
0.0
 11
1181.333333
 21
579.139257
 31
0.0
  0
LINE
  8
0
  6
CONTINUOUS
 62
     1
 10
1187.833283
 20
582.886287
 30
0.0
 11
1187.833283
 21
590.380347
 31
0.0
  0
LINE
  8
0
  6
CONTINUOUS
 62
     1
 10
1187.833283
 20
582.886287
 30
0.0
 11
1181.333333
 21
579.139257
 31
0.0
  0
LINE
  8
0
  6
CONTINUOUS
 62
     1
 10
1187.833283
 20
590.380347
 30
0.0
 11
1181.333333
 21
594.127377
 31
0.0
  0
LINE
  8
0
  6
CONTINUOUS
 62
     1
 10
1174.833383
 20
590.380347
 30
0.0
 11
1181.333333
 21
594.127377
 31
0.0
  0
CIRCLE
  8
0
  6
CONTINUOUS
 62
     1
 10
1181.333333
 20
586.633317
 30
0.0
 40
6.49995
  0
LINE
  8
0
  6
CONTINUOUS
 62
     1
 10
1170.395776841
 20
676.001644041
 30
0.0
 11
1166.395778841
 21
678.307525241
 31
0.0
  0
LINE
  8
0
  6
CONTINUOUS
 62
     1
 10
1162.395780841
 20
676.001644041
 30
0.0
 11
1166.395778841
 21
678.307525241
 31
0.0
  0
LINE
  8
0
  6
CONTINUOUS
 62
     1
 10
1170.395776841
 20
676.001644041
 30
0.0
 11
1170.395776841
 21
671.389881641
 31
0.0
  0
LINE
  8
0
  6
CONTINUOUS
 62
     1
 10
1170.395776841
 20
671.389881641
 30
0.0
 11
1166.395778841
 21
669.084000441
 31
0.0
  0
LINE
  8
0
  6
CONTINUOUS
 62
     1
 10
1162.395780841
 20
671.389881641
 30
0.0
 11
1166.395778841
 21
669.084000441
 31
0.0
  0
LINE
  8
0
  6
CONTINUOUS
 62
     1
 10
1162.395780841
 20
676.001644041
 30
0.0
 11
1162.395780841
 21
671.389881641
 31
0.0
  0
CIRCLE
  8
0
  6
CONTINUOUS
 62
     1
 10
1166.395778841
 20
673.695762841
 30
0.0
 40
3.999998
  0
CIRCLE
  8
0
  6
CONTINUOUS
 62
     1
 10
1130.333333
 20
637.633317
 30
0.0
 40
42.0
  0
ARC
  8
0
  6
CONTINUOUS
 62
     1
 10
1156.833333
 20
637.633317
 30
0.0
 40
10.0
 50
0.0
 51
150.0
  0
ARC
  8
0
  6
CONTINUOUS
 62
     1
 10
1156.833333
 20
637.633317
 30
0.0
 40
10.0
 50
210.0
 51
0.0
  0
CIRCLE
  8
0
  6
CONTINUOUS
 62
     1
 10
1156.833333
 20
637.633317
 30
0.0
 40
3.5
  0
LINE
  8
0
  6
CONTINUOUS
 62
     1
 10
1160.340735885
 20
639.658317
 30
0.0
 11
1156.833333
 21
641.683317
 31
0.0
  0
LINE
  8
0
  6
CONTINUOUS
 62
     1
 10
1156.833333
 20
641.683317
 30
0.0
 11
1153.325930115
 21
639.658317
 31
0.0
  0
LINE
  8
0
  6
CONTINUOUS
 62
     1
 10
1153.325930115
 20
639.658317
 30
0.0
 11
1153.325930115
 21
635.608317
 31
0.0
  0
LINE
  8
0
  6
CONTINUOUS
 62
     1
 10
1153.325930115
 20
635.608317
 30
0.0
 11
1156.833333
 21
633.583317
 31
0.0
  0
LINE
  8
0
  6
CONTINUOUS
 62
     1
 10
1156.833333
 20
633.583317
 30
0.0
 11
1160.340735885
 21
635.608317
 31
0.0
  0
LINE
  8
0
  6
CONTINUOUS
 62
     1
 10
1160.340735885
 20
635.608317
 30
0.0
 11
1160.340735885
 21
639.658317
 31
0.0
  0
CIRCLE
  8
0
  6
CONTINUOUS
 62
     1
 10
1130.333333
 20
637.633317
 30
0.0
 40
36.5
  0
CIRCLE
  8
0
  6
CONTINUOUS
 62
     1
 10
1130.333333
 20
612.633317
 30
0.0
 40
3.999998
  0
LINE
  8
0
  6
CONTINUOUS
 62
     1
 10
1134.333331
 20
610.3274358
 30
0.0
 11
1134.333331
 21
614.9391982
 31
0.0
  0
LINE
  8
0
  6
CONTINUOUS
 62
     1
 10
1134.333331
 20
614.9391982
 30
0.0
 11
1130.333333
 21
617.2450794
 31
0.0
  0
LINE
  8
0
  6
CONTINUOUS
 62
     1
 10
1126.333335
 20
610.3274358
 30
0.0
 11
1126.333335
 21
614.9391982
 31
0.0
  0
LINE
  8
0
  6
CONTINUOUS
 62
     1
 10
1126.333335
 20
614.9391982
 30
0.0
 11
1130.333333
 21
617.2450794
 31
0.0
  0
LINE
  8
0
  6
CONTINUOUS
 62
     1
 10
1134.333331
 20
610.3274358
 30
0.0
 11
1130.333333
 21
608.0215546
 31
0.0
  0
LINE
  8
0
  6
CONTINUOUS
 62
     1
 10
1126.333335
 20
610.3274358
 30
0.0
 11
1130.333333
 21
608.0215546
 31
0.0
  0
ARC
  8
0
  6
CONTINUOUS
 62
     1
 10
1186.333333
 20
693.633317
 30
0.0
 40
5.0
 50
0.0
 51
90.0
  0
LINE
  8
0
  6
CONTINUOUS
 62
     1
 10
1153.333333
 20
698.633317
 30
0.0
 11
1186.333333
 21
698.633317
 31
0.0
  0
LINE
  8
0
  6
CONTINUOUS
 62
     1
 10
1174.833383
 20
692.380347
 30
0.0
 11
1174.833383
 21
684.886287
 31
0.0
  0
LINE
  8
0
  6
CONTINUOUS
 62
     1
 10
1174.833383
 20
684.886287
 30
0.0
 11
1181.333333
 21
681.139257
 31
0.0
  0
LINE
  8
0
  6
CONTINUOUS
 62
     1
 10
1187.833283
 20
692.380347
 30
0.0
 11
1187.833283
 21
684.886287
 31
0.0
  0
LINE
  8
0
  6
CONTINUOUS
 62
     1
 10
1187.833283
 20
692.380347
 30
0.0
 11
1181.333333
 21
696.127377
 31
0.0
  0
LINE
  8
0
  6
CONTINUOUS
 62
     1
 10
1174.833383
 20
692.380347
 30
0.0
 11
1181.333333
 21
696.127377
 31
0.0
  0
LINE
  8
0
  6
CONTINUOUS
 62
     1
 10
1187.833283
 20
684.886287
 30
0.0
 11
1181.333333
 21
681.139257
 31
0.0
  0
CIRCLE
  8
0
  6
CONTINUOUS
 62
     1
 10
1181.333333
 20
688.633317
 30
0.0
 40
6.49995
  0
LINE
  8
0
  6
CONTINUOUS
 62
     1
 10
1191.333333
 20
581.633317
 30
0.0
 11
1191.333333
 21
693.633317
 31
0.0
  0
ARC
  8
0
  6
CONTINUOUS
 62
     1
 10
1074.333333
 20
693.633317
 30
0.0
 40
5.0
 50
90.0
 51
180.0
  0
LINE
  8
0
  6
CONTINUOUS
 62
     1
 10
1069.333333
 20
581.633317
 30
0.0
 11
1069.333333
 21
693.633317
 31
0.0
  0
LINE
  8
0
  6
CONTINUOUS
 62
     1
 10
1074.333333
 20
698.633317
 30
0.0
 11
1107.333333
 21
698.633317
 31
0.0
  0
LINE
  8
0
  6
CONTINUOUS
 62
     1
 10
1072.833383
 20
692.380347
 30
0.0
 11
1072.833383
 21
684.886287
 31
0.0
  0
LINE
  8
0
  6
CONTINUOUS
 62
     1
 10
1085.833283
 20
692.380347
 30
0.0
 11
1085.833283
 21
684.886287
 31
0.0
  0
LINE
  8
0
  6
CONTINUOUS
 62
     1
 10
1072.833383
 20
692.380347
 30
0.0
 11
1079.333333
 21
696.127377
 31
0.0
  0
LINE
  8
0
  6
CONTINUOUS
 62
     1
 10
1085.833283
 20
692.380347
 30
0.0
 11
1079.333333
 21
696.127377
 31
0.0
  0
LINE
  8
0
  6
CONTINUOUS
 62
     1
 10
1072.833383
 20
684.886287
 30
0.0
 11
1079.333333
 21
681.139257
 31
0.0
  0
CIRCLE
  8
0
  6
CONTINUOUS
 62
     1
 10
1079.333333
 20
688.633317
 30
0.0
 40
6.49995
  0
LINE
  8
0
  6
CONTINUOUS
 62
     1
 10
1085.833283
 20
684.886287
 30
0.0
 11
1079.333333
 21
681.139257
 31
0.0
  0
LINE
  8
0
  6
CONTINUOUS
 62
     1
 10
1091.965005959
 20
677.695760841
 30
0.0
 11
1096.576768359
 21
677.695760841
 31
0.0
  0
LINE
  8
0
  6
CONTINUOUS
 62
     1
 10
1091.965005959
 20
677.695760841
 30
0.0
 11
1089.659124759
 21
673.695762841
 31
0.0
  0
CIRCLE
  8
0
  6
CONTINUOUS
 62
     1
 10
1094.270887159
 20
673.695762841
 30
0.0
 40
3.999998
  0
CIRCLE
  8
0
  6
CONTINUOUS
 62
     1
 10
1130.333333
 20
637.633317
 30
0.0
 40
57.0
  0
LINE
  8
0
  6
CONTINUOUS
 62
     1
 10
1183.333333
 20
430.633317
 30
0.0
 11
1183.333333
 21
478.133317
 31
0.0
  0
LINE
  8
0
  6
CONTINUOUS
 62
     1
 10
1077.333333
 20
430.633317
 30
0.0
 11
1077.333333
 21
478.133317
 31
0.0
  0
LINE
  8
0
  6
CONTINUOUS
 62
     1
 10
1077.333333
 20
430.633317
 30
0.0
 11
1183.333333
 21
430.633317
 31
0.0
  0
LINE
  8
7
  6
CONTINUOUS
 62
     2
 10
1190.333333
 20
370.48382445
 30
0.0
 11
1180.674074737
 21
373.072014901
 31
0.0
  0
LINE
  8
7
  6
CONTINUOUS
 62
     2
 10
1190.333333
 20
370.48382445
 30
0.0
 11
1180.674074737
 21
367.895633999
 31
0.0
  0
LINE
  8
7
  6
CONTINUOUS
 62
     2
 10
1190.333333
 20
370.48382445
 30
0.0
 11
1070.333333
 21
370.48382445
 31
0.0
  0
LINE
  8
7
  6
CONTINUOUS
 62
     2
 10
1070.333333
 20
370.48382445
 30
0.0
 11
1079.992591263
 21
367.895633999
 31
0.0
  0
LINE
  8
7
  6
CONTINUOUS
 62
     2
 10
1070.333333
 20
370.48382445
 30
0.0
 11
1079.992591263
 21
373.072014901
 31
0.0
  0
LINE
  8
7
  6
CONTINUOUS
 62
     2
 10
945.833333
 20
719.633317
 30
0.0
 11
943.245142549
 21
709.974058737
 31
0.0
  0
LINE
  8
7
  6
CONTINUOUS
 62
     2
 10
945.833333
 20
719.633317
 30
0.0
 11
948.421523451
 21
709.974058737
 31
0.0
  0
LINE
  8
7
  6
CONTINUOUS
 62
     2
 10
945.833333
 20
719.633317
 30
0.0
 11
945.833333
 21
679.633317
 31
0.0
  0
LINE
  8
7
  6
CONTINUOUS
 62
     2
 10
945.833333
 20
679.633317
 30
0.0
 11
948.421523451
 21
689.292575263
 31
0.0
  0
LINE
  8
7
  6
CONTINUOUS
 62
     2
 10
945.833333
 20
679.633317
 30
0.0
 11
943.245142549
 21
689.292575263
 31
0.0
  0
LINE
  8
7
  6
CONTINUOUS
 62
     2
 10
438.333333
 20
397.633317
 30
0.0
 11
447.992591263
 21
395.045126549
 31
0.0
  0
LINE
  8
7
  6
CONTINUOUS
 62
     2
 10
438.333333
 20
397.633317
 30
0.0
 11
447.992591263
 21
400.221507451
 31
0.0
  0
LINE
  8
7
  6
CONTINUOUS
 62
     2
 10
438.333333
 20
369.633317
 30
0.0
 11
447.992591263
 21
367.045126549
 31
0.0
  0
LINE
  8
7
  6
CONTINUOUS
 62
     2
 10
438.333333
 20
369.633317
 30
0.0
 11
447.992591263
 21
372.221507451
 31
0.0
  0
LINE
  8
7
  6
CONTINUOUS
 62
     2
 10
438.333333
 20
363.633317
 30
0.0
 11
438.333333
 21
363.633317
 31
0.0
  0
LINE
  8
7
  6
CONTINUOUS
 62
     2
 10
438.333333
 20
363.633317
 30
0.0
 11
438.333333
 21
363.633317
 31
0.0
  0
LINE
  8
7
  6
CONTINUOUS
 62
     2
 10
438.333333
 20
369.633317
 30
0.0
 11
428.674074737
 21
372.221507451
 31
0.0
  0
LINE
  8
7
  6
CONTINUOUS
 62
     2
 10
438.333333
 20
369.633317
 30
0.0
 11
428.674074737
 21
367.045126549
 31
0.0
  0
LINE
  8
7
  6
CONTINUOUS
 62
     2
 10
438.333333
 20
369.633317
 30
0.0
 11
368.333333
 21
369.633317
 31
0.0
  0
LINE
  8
7
  6
CONTINUOUS
 62
     2
 10
368.333333
 20
369.633317
 30
0.0
 11
377.992591263
 21
367.045126549
 31
0.0
  0
LINE
  8
7
  6
CONTINUOUS
 62
     2
 10
368.333333
 20
369.633317
 30
0.0
 11
377.992591263
 21
372.221507451
 31
0.0
  0
LINE
  8
7
  6
CONTINUOUS
 62
     2
 10
368.333333
 20
363.633317
 30
0.0
 11
368.333333
 21
363.633317
 31
0.0
  0
LINE
  8
7
  6
CONTINUOUS
 62
     2
 10
368.333333
 20
369.633317
 30
0.0
 11
358.674074737
 21
372.221507451
 31
0.0
  0
LINE
  8
7
  6
CONTINUOUS
 62
     2
 10
368.333333
 20
369.633317
 30
0.0
 11
358.674074737
 21
367.045126549
 31
0.0
  0
LINE
  8
7
  6
CONTINUOUS
 62
     2
 10
368.333333
 20
369.633317
 30
0.0
 11
296.333333
 21
369.633317
 31
0.0
  0
LINE
  8
7
  6
CONTINUOUS
 62
     2
 10
296.333333
 20
369.633317
 30
0.0
 11
305.992591263
 21
367.045126549
 31
0.0
  0
LINE
  8
7
  6
CONTINUOUS
 62
     2
 10
296.333333
 20
369.633317
 30
0.0
 11
305.992591263
 21
372.221507451
 31
0.0
  0
LINE
  8
7
  6
CONTINUOUS
 62
     2
 10
296.333333
 20
341.633317
 30
0.0
 11
305.992591263
 21
339.045126549
 31
0.0
  0
LINE
  8
7
  6
CONTINUOUS
 62
     2
 10
296.333333
 20
341.633317
 30
0.0
 11
305.992591263
 21
344.221507451
 31
0.0
  0
LINE
  8
7
  6
CONTINUOUS
 62
     2
 10
296.333333
 20
341.633317
 30
0.0
 11
286.674074737
 21
344.221507451
 31
0.0
  0
LINE
  8
7
  6
CONTINUOUS
 62
     2
 10
296.333333
 20
341.633317
 30
0.0
 11
286.674074737
 21
339.045126549
 31
0.0
  0
LINE
  8
7
  6
CONTINUOUS
 62
     2
 10
296.333333
 20
341.633317
 30
0.0
 11
268.333333
 21
341.633317
 31
0.0
  0
LINE
  8
7
  6
CONTINUOUS
 62
     2
 10
268.333333
 20
341.633317
 30
0.0
 11
277.992591263
 21
339.045126549
 31
0.0
  0
LINE
  8
7
  6
CONTINUOUS
 62
     2
 10
268.333333
 20
341.633317
 30
0.0
 11
277.992591263
 21
344.221507451
 31
0.0
  0
LINE
  8
7
  6
CONTINUOUS
 62
     2
 10
776.333333
 20
397.633317
 30
0.0
 11
766.674074737
 21
400.221507451
 31
0.0
  0
LINE
  8
7
  6
CONTINUOUS
 62
     2
 10
776.333333
 20
397.633317
 30
0.0
 11
766.674074737
 21
395.045126549
 31
0.0
  0
LINE
  8
7
  6
CONTINUOUS
 62
     2
 10
846.333333
 20
369.633317
 30
0.0
 11
836.674074737
 21
372.221507451
 31
0.0
  0
LINE
  8
7
  6
CONTINUOUS
 62
     2
 10
846.333333
 20
369.633317
 30
0.0
 11
836.674074737
 21
367.045126549
 31
0.0
  0
LINE
  8
7
  6
CONTINUOUS
 62
     2
 10
776.333333
 20
397.633317
 30
0.0
 11
785.992591263
 21
395.045126549
 31
0.0
  0
LINE
  8
7
  6
CONTINUOUS
 62
     2
 10
776.333333
 20
397.633317
 30
0.0
 11
785.992591263
 21
400.221507451
 31
0.0
  0
LINE
  8
7
  6
CONTINUOUS
 62
     2
 10
776.333333
 20
397.633317
 30
0.0
 11
811.333333
 21
397.633317
 31
0.0
  0
LINE
  8
7
  6
CONTINUOUS
 62
     2
 10
811.333333
 20
397.633317
 30
0.0
 11
801.674074737
 21
400.221507451
 31
0.0
  0
LINE
  8
7
  6
CONTINUOUS
 62
     2
 10
811.333333
 20
397.633317
 30
0.0
 11
801.674074737
 21
395.045126549
 31
0.0
  0
LINE
  8
7
  6
CONTINUOUS
 62
     2
 10
811.333333
 20
391.633317
 30
0.0
 11
811.333333
 21
391.633317
 31
0.0
  0
LINE
  8
7
  6
CONTINUOUS
 62
     2
 10
811.333333
 20
397.633317
 30
0.0
 11
820.992591263
 21
395.045126549
 31
0.0
  0
LINE
  8
7
  6
CONTINUOUS
 62
     2
 10
811.333333
 20
397.633317
 30
0.0
 11
820.992591263
 21
400.221507451
 31
0.0
  0
LINE
  8
7
  6
CONTINUOUS
 62
     2
 10
811.333333
 20
397.633317
 30
0.0
 11
846.333333
 21
397.633317
 31
0.0
  0
LINE
  8
7
  6
CONTINUOUS
 62
     2
 10
846.333333
 20
397.633317
 30
0.0
 11
836.674074737
 21
400.221507451
 31
0.0
  0
LINE
  8
7
  6
CONTINUOUS
 62
     2
 10
846.333333
 20
397.633317
 30
0.0
 11
836.674074737
 21
395.045126549
 31
0.0
  0
LINE
  8
7
  6
CONTINUOUS
 62
     2
 10
846.333333
 20
392.633317
 30
0.0
 11
846.333333
 21
391.633317
 31
0.0
  0
LINE
  8
7
  6
CONTINUOUS
 62
     2
 10
864.333333
 20
341.633317
 30
0.0
 11
873.992591263
 21
339.045126549
 31
0.0
  0
LINE
  8
7
  6
CONTINUOUS
 62
     2
 10
864.333333
 20
341.633317
 30
0.0
 11
873.992591263
 21
344.221507451
 31
0.0
  0
LINE
  8
7
  6
CONTINUOUS
 62
     2
 10
846.333333
 20
341.633317
 30
0.0
 11
902.133333
 21
341.633317
 31
0.0
  0
POINT
  8
7
  6
CONTINUOUS
 62
     2
 10
846.333333
 20
347.633317
 30
0.0
  0
LINE
  8
7
  6
CONTINUOUS
 62
     2
 10
846.333333
 20
341.633317
 30
0.0
 11
836.674074737
 21
344.221507451
 31
0.0
  0
LINE
  8
7
  6
CONTINUOUS
 62
     2
 10
846.333333
 20
341.633317
 30
0.0
 11
836.674074737
 21
339.045126549
 31
0.0
  0
LINE
  8
7
  6
CONTINUOUS
 62
     2
 10
438.333333
 20
397.633317
 30
0.0
 11
776.333333
 21
397.633317
 31
0.0
  0
LINE
  8
7
  6
CONTINUOUS
 62
     2
 10
438.333333
 20
369.633317
 30
0.0
 11
846.333333
 21
369.633317
 31
0.0
  0
LINE
  8
7
  6
CONTINUOUS
 62
     2
 10
846.333333
 20
341.633317
 30
0.0
 11
296.333333
 21
341.633317
 31
0.0
  0
LINE
  8
7
  6
CONTINUOUS
 62
     2
 10
438.333333
 20
490.633317
 30
0.0
 11
438.333333
 21
363.633317
 31
0.0
  0
LINE
  8
7
  6
CONTINUOUS
 62
     2
 10
846.333333
 20
507.633317
 30
0.0
 11
846.333333
 21
335.633317
 31
0.0
  0
LINE
  8
0
  6
CONTINUOUS
 62
     1
 10
776.333333
 20
495.883317
 30
0.0
 11
776.333333
 21
559.383317
 31
0.0
  0
LINE
  8
0
  6
CONTINUOUS
 62
     1
 10
588.683147745
 20
559.383317
 30
0.0
 11
776.333333
 21
559.383317
 31
0.0
  0
LINE
  8
0
  6
CONTINUOUS
 62
     1
 10
757.333333
 20
495.883317
 30
0.0
 11
757.333333
 21
559.383317
 31
0.0
  0
LINE
  8
0
  6
CONTINUOUS
 62
     1
 10
776.333333
 20
546.633317
 30
0.0
 11
811.333333
 21
546.633317
 31
0.0
  0
LINE
  8
0
  6
CONTINUOUS
 62
     1
 10
811.333333
 20
547.633317
 30
0.0
 11
854.333333
 21
547.633317
 31
0.0
  0
LINE
  8
0
  6
CONTINUOUS
 62
     1
 10
811.333333
 20
507.633317
 30
0.0
 11
854.333333
 21
507.633317
 31
0.0
  0
LINE
  8
0
  6
CONTINUOUS
 62
     1
 10
811.333333
 20
547.633317
 30
0.0
 11
811.333333
 21
507.633317
 31
0.0
  0
POLYLINE
  8
0
  6
CONTINUOUS
 62
     1
 66
     1
  0
VERTEX
  8
0
  6
CONTINUOUS
 62
     1
 10
811.333333
 20
719.633317
 30
0.0
  0
VERTEX
  8
0
  6
CONTINUOUS
 62
     1
 10
811.333333
 20
679.633317
 30
0.0
  0
VERTEX
  8
0
  6
CONTINUOUS
 62
     1
 10
864.333333
 20
679.633317
 30
0.0
  0
SEQEND
  0
LINE
  8
0
  6
CONTINUOUS
 62
     1
 10
776.333333
 20
680.633317
 30
0.0
 11
811.333333
 21
680.633317
 31
0.0
  0
LINE
  8
0
  6
CONTINUOUS
 62
     1
 10
776.333333
 20
718.633317
 30
0.0
 11
811.333333
 21
718.633317
 31
0.0
  0
LINE
  8
0
  6
LTYPE3
 62
     2
 10
766.1
 20
699.633317
 30
0.0
 11
864.333333
 21
699.633317
 31
0.0
  0
LINE
  8
0
  6
CONTINUOUS
 62
     1
 10
1080.333333
 20
482.633317
 30
0.0
 11
1180.333333
 21
482.633317
 31
0.0
  0
LINE
  8
0
  6
CONTINUOUS
 62
     1
 10
1080.333333
 20
482.633317
 30
0.0
 11
1080.333333
 21
481.133317
 31
0.0
  0
ARC
  8
0
  6
CONTINUOUS
 62
     1
 10
1080.333333
 20
478.133317
 30
0.0
 40
3.0
 50
90.0
 51
180.0
  0
LINE
  8
0
  6
CONTINUOUS
 62
     1
 10
1080.333333
 20
481.133317
 30
0.0
 11
1180.333333
 21
481.133317
 31
0.0
  0
TEXT
  8
0
  6
CONTINUOUS
 62
     2
 10
866.6
 20
1185.1
 30
0.8
 40
12.0
  1
ＭＣＬＢ０１－　　１
 50
0.0
 41
0.833333333
 51
0.0
  7
KANJI24
  0
TEXT
  8
0
  6
CONTINUOUS
 62
     2
 10
866.6
 20
1157.1
 30
0.8
 40
12.0
  1
ＭＣＬＢ０１－　　２
 50
0.0
 41
0.833333333
 51
0.0
  7
KANJI24
  0
TEXT
  8
0
  6
CONTINUOUS
 62
     2
 10
866.6
 20
1129.1
 30
0.8
 40
12.0
  1
ＭＣＬＢ０１－　　３
 50
0.0
 41
0.833333333
 51
0.0
  7
KANJI24
  0
TEXT
  8
0
  6
CONTINUOUS
 62
     2
 10
866.6
 20
1101.1
 30
0.8
 40
12.0
  1
ＭＣＬＢ０１－　　４
 50
0.0
 41
0.833333333
 51
0.0
  7
KANJI24
  0
TEXT
  8
0
  6
CONTINUOUS
 62
     2
 10
866.6
 20
1073.1
 30
0.8
 40
12.0
  1
ＭＣＬＢ０１－　　５
 50
0.0
 41
0.833333333
 51
0.0
  7
KANJI24
  0
TEXT
  8
0
  6
CONTINUOUS
 62
     2
 10
866.6
 20
1045.1
 30
0.8
 40
12.0
  1
ＭＣＬＢ０１－　　６
 50
0.0
 41
0.833333333
 51
0.0
  7
KANJI24
  0
TEXT
  8
0
  6
CONTINUOUS
 62
     2
 10
866.6
 20
1017.1
 30
0.8
 40
12.0
  1
ＭＣＬＢ０１－　　７
 50
0.0
 41
0.833333333
 51
0.0
  7
KANJI24
  0
TEXT
  8
0
  6
CONTINUOUS
 62
     2
 10
1560.1
 20
201.75
 30
0.0
 40
17.5
  1
ＭＣＬＢ０１－
 50
0.0
 41
0.793650794
 51
0.0
  7
KANJI25
  0
TEXT
  8
0
  6
CONTINUOUS
 62
     2
 10
1655.7666945
 20
121.749995
 30
10.833333333
 40
25.0
  1
３００２３６３
 50
0.0
 41
0.8
 51
0.0
  7
KANJI26
  0
TEXT
  8
0
  6
CONTINUOUS
 62
     2
 10
1119.6
 20
1101.4
 30
1.2
 40
12.0
  1
　７５０
 50
0.0
 41
0.9
 51
0.0
  7
KANJI1
  0
TEXT
  8
0
  6
CONTINUOUS
 62
     2
 10
1119.6
 20
1073.4
 30
1.2
 40
12.0
  1
　８５０
 50
0.0
 41
0.9
 51
0.0
  7
KANJI1
  0
TEXT
  8
0
  6
CONTINUOUS
 62
     2
 10
1119.6
 20
1045.4
 30
1.2
 40
12.0
  1
　９９０
 50
0.0
 41
0.9
 51
0.0
  7
KANJI1
  0
TEXT
  8
0
  6
CONTINUOUS
 62
     2
 10
1119.6
 20
1017.4
 30
1.2
 40
12.0
  1
１０９０
 50
0.0
 41
0.9
 51
0.0
  7
KANJI1
  0
TEXT
  8
0
  6
CONTINUOUS
 62
     2
 10
1199.6
 20
1017.4
 30
1.2
 40
12.0
  1
　９４８
 50
0.0
 41
0.9
 51
0.0
  7
KANJI1
  0
TEXT
  8
0
  6
CONTINUOUS
 62
     2
 10
1199.6
 20
1045.4
 30
1.2
 40
12.0
  1
　８４８
 50
0.0
 41
0.9
 51
0.0
  7
KANJI1
  0
TEXT
  8
0
  6
CONTINUOUS
 62
     2
 10
1199.6
 20
1073.4
 30
1.2
 40
12.0
  1
　７０８
 50
0.0
 41
0.9
 51
0.0
  7
KANJI1
  0
TEXT
  8
0
  6
CONTINUOUS
 62
     2
 10
1199.6
 20
1101.4
 30
1.2
 40
12.0
  1
　６０８
 50
0.0
 41
0.9
 51
0.0
  7
KANJI1
  0
TEXT
  8
0
  6
CONTINUOUS
 62
     2
 10
155.5
 20
14.0
 30
0.0
 40
15.0
  1
ＦＤ　Ｎｏ．ＭＣ１８４
 50
0.0
 41
0.9
 51
0.0
  7
KANJI27
  0
LINE
  8
0
  6
CONTINUOUS
 62
     6
 10
351.309425053
 20
1342.497759827
 30
0.0
 11
119.264646507
 21
1342.497759827
 31
0.0
  0
LINE
  8
0
  6
CONTINUOUS
 62
     3
 10
351.309425053
 20
1315.035259827
 30
0.0
 11
119.264646507
 21
1315.035259827
 31
0.0
  0
LINE
  8
0
  6
CONTINUOUS
 62
     6
 10
351.309425053
 20
1315.035259827
 30
0.0
 11
119.264646507
 21
1315.035259827
 31
0.0
  0
TEXT
  8
0
  6
CONTINUOUS
 62
     6
 10
376.892228
 20
1339.950410728
 30
1.232517
 40
13.182
  1
電気定格　　　
 50
0.0
 41
0.85
 51
0.0
  7
KANJI28
  0
TEXT
  8
0
  6
CONTINUOUS
 62
     6
 10
123.173517202
 20
1345.69592676
 30
1.0647
 40
11.661
  1
ＬＳ０１　　　：推力リミッタ（前進時過負荷用）
 50
0.0
 41
0.822608696
 51
0.0
  7
KANJI29
  0
TEXT
  8
0
  6
CONTINUOUS
 62
     6
 10
123.173517202
 20
1318.23342676
 30
1.0647
 40
11.661
  1
ＬＳ０２　　　：推力リミッタ（後進時過負荷用）
 50
0.0
 41
0.822608696
 51
0.0
  7
KANJI29
  0
TEXT
  8
0
  6
CONTINUOUS
 62
     6
 10
389.693715102
 20
1309.376958599
 30
0.0
 40
11.8638
  1
ＤＣ１２５Ｖ　０．６Ａ　，ＤＣ２５０Ｖ　０．３Ａ　
 50
0.0
 41
0.726495726
 51
0.0
  7
KANJI30
  0
LINE
  8
0
  6
LTYPE3
 62
     6
 10
649.7
 20
1369.95
 30
0.0
 11
101.3
 21
1369.95
 31
0.0
  0
TEXT
  8
0
  6
CONTINUOUS
 62
     6
 10
384.437132178
 20
1357.711726126
 30
0.0
 40
45.0
  1
｝
 50
0.0
 41
0.538166667
 51
0.0
  7
KANJI31
  0
LINE
  8
0
  6
LTYPE3
 62
     6
 10
649.7
 20
1110.95
 30
0.0
 11
649.7
 21
1369.95
 31
0.0
  0
LINE
  8
0
  6
LTYPE3
 62
     6
 10
101.3
 20
1369.95
 30
0.0
 11
101.3
 21
1110.95
 31
0.0
  0
LINE
  8
0
  6
CONTINUOUS
 62
     1
 10
1277.975
 20
1387.75
 30
0.0
 11
1277.975
 21
1287.65
 31
0.0
  0
LINE
  8
0
  6
CONTINUOUS
 62
     2
 10
1220.225
 20
1387.75
 30
0.0
 11
1220.225
 21
1287.65
 31
0.0
  0
LINE
  8
0
  6
CONTINUOUS
 62
     2
 10
1162.475
 20
1387.75
 30
0.0
 11
1162.475
 21
1287.65
 31
0.0
  0
LINE
  8
0
  6
CONTINUOUS
 62
     1
 10
1085.475
 20
1387.75
 30
0.0
 11
1085.475
 21
1287.65
 31
0.0
  0
LINE
  8
0
  6
CONTINUOUS
 62
     1
 10
1085.475
 20
1387.75
 30
0.0
 11
1277.975
 21
1387.75
 31
0.0
  0
LINE
  8
0
  6
CONTINUOUS
 62
     1
 10
1085.475
 20
1356.95
 30
0.0
 11
1277.975
 21
1356.95
 31
0.0
  0
LINE
  8
0
  6
CONTINUOUS
 62
     2
 10
1085.475
 20
1333.85
 30
0.0
 11
1277.975
 21
1333.85
 31
0.0
  0
LINE
  8
0
  6
CONTINUOUS
 62
     2
 10
1085.475
 20
1310.75
 30
0.0
 11
1277.975
 21
1310.75
 31
0.0
  0
LINE
  8
0
  6
CONTINUOUS
 62
     1
 10
1085.475
 20
1287.65
 30
0.0
 11
1277.975
 21
1287.65
 31
0.0
  0
TEXT
  8
0
  6
CONTINUOUS
 62
     2
 10
1227.925
 20
1374.275
 30
1.155
 40
11.55
  1
起動電流
 50
0.0
 41
0.9
 51
0.0
  7
KANJI32
  0
TEXT
  8
0
  6
CONTINUOUS
 62
     2
 10
1227.925
 20
1360.8
 30
1.155
 40
11.55
  1
　　　Ａ
 50
0.0
 41
0.9
 51
0.0
  7
KANJI32
  0
TEXT
  8
0
  6
CONTINUOUS
 62
     2
 10
1170.175
 20
1374.275
 30
1.155
 40
11.55
  1
定格電流
 50
0.0
 41
0.9
 51
0.0
  7
KANJI32
  0
TEXT
  8
0
  6
CONTINUOUS
 62
     2
 10
1170.175
 20
1360.8
 30
1.155
 40
11.55
  1
　　　Ａ
 50
0.0
 41
0.9
 51
0.0
  7
KANJI32
  0
TEXT
  8
0
  6
CONTINUOUS
 62
     2
 10
1092.02
 20
1316.525
 30
1.155
 40
11.55
  1
２００／６０
 50
0.0
 41
0.9
 51
0.0
  7
KANJI32
  0
TEXT
  8
0
  6
CONTINUOUS
 62
     2
 10
1092.02
 20
1374.275
 30
1.155
 40
11.55
  1
電圧／周波数
 50
0.0
 41
0.9
 51
0.0
  7
KANJI32
  0
TEXT
  8
0
  6
CONTINUOUS
 62
     2
 10
1092.02
 20
1360.8
 30
1.155
 40
11.55
  1
　Ｖ／Ｈｚ
 50
0.0
 41
0.9
 51
0.0
  7
KANJI32
  0
TEXT
  8
0
  6
CONTINUOUS
 62
     2
 10
1092.02
 20
1339.625
 30
1.155
 40
11.55
  1
２００／５０
 50
0.0
 41
0.9
 51
0.0
  7
KANJI32
  0
TEXT
  8
0
  6
CONTINUOUS
 62
     2
 10
1092.02
 20
1293.425
 30
1.155
 40
11.55
  1
２２０／６０
 50
0.0
 41
0.9
 51
0.0
  7
KANJI32
  0
LINE
  8
0
  6
CONTINUOUS
 62
     1
 10
1046.975
 20
1387.75
 30
0.0
 11
1046.975
 21
1287.65
 31
0.0
  0
LINE
  8
0
  6
CONTINUOUS
 62
     2
 10
989.225
 20
1387.75
 30
0.0
 11
989.225
 21
1287.65
 31
0.0
  0
LINE
  8
0
  6
CONTINUOUS
 62
     2
 10
931.475
 20
1387.75
 30
0.0
 11
931.475
 21
1287.65
 31
0.0
  0
LINE
  8
0
  6
CONTINUOUS
 62
     1
 10
854.475
 20
1387.75
 30
0.0
 11
854.475
 21
1287.65
 31
0.0
  0
LINE
  8
0
  6
CONTINUOUS
 62
     1
 10
854.475
 20
1387.75
 30
0.0
 11
1046.975
 21
1387.75
 31
0.0
  0
LINE
  8
0
  6
CONTINUOUS
 62
     1
 10
854.475
 20
1356.95
 30
0.0
 11
1046.975
 21
1356.95
 31
0.0
  0
LINE
  8
0
  6
CONTINUOUS
 62
     2
 10
854.475
 20
1333.85
 30
0.0
 11
1046.975
 21
1333.85
 31
0.0
  0
LINE
  8
0
  6
CONTINUOUS
 62
     2
 10
854.475
 20
1310.75
 30
0.0
 11
1046.975
 21
1310.75
 31
0.0
  0
LINE
  8
0
  6
CONTINUOUS
 62
     1
 10
854.475
 20
1287.65
 30
0.0
 11
1046.975
 21
1287.65
 31
0.0
  0
TEXT
  8
0
  6
CONTINUOUS
 62
     2
 10
996.925
 20
1374.275
 30
1.155
 40
11.55
  1
起動電流
 50
0.0
 41
0.9
 51
0.0
  7
KANJI32
  0
TEXT
  8
0
  6
CONTINUOUS
 62
     2
 10
996.925
 20
1360.8
 30
1.155
 40
11.55
  1
　　　Ａ
 50
0.0
 41
0.9
 51
0.0
  7
KANJI32
  0
TEXT
  8
0
  6
CONTINUOUS
 62
     2
 10
939.175
 20
1374.275
 30
1.155
 40
11.55
  1
定格電流
 50
0.0
 41
0.9
 51
0.0
  7
KANJI32
  0
TEXT
  8
0
  6
CONTINUOUS
 62
     2
 10
939.175
 20
1360.8
 30
1.155
 40
11.55
  1
　　　Ａ
 50
0.0
 41
0.9
 51
0.0
  7
KANJI32
  0
TEXT
  8
0
  6
CONTINUOUS
 62
     2
 10
861.02
 20
1374.275
 30
1.155
 40
11.55
  1
電圧／周波数
 50
0.0
 41
0.9
 51
0.0
  7
KANJI32
  0
TEXT
  8
0
  6
CONTINUOUS
 62
     2
 10
861.02
 20
1360.8
 30
1.155
 40
11.55
  1
　Ｖ／Ｈｚ
 50
0.0
 41
0.9
 51
0.0
  7
KANJI32
  0
TEXT
  8
0
  6
CONTINUOUS
 62
     2
 10
861.02
 20
1339.625
 30
1.155
 40
11.55
  1
４００／５０
 50
0.0
 41
0.9
 51
0.0
  7
KANJI32
  0
TEXT
  8
0
  6
CONTINUOUS
 62
     2
 10
861.02
 20
1316.525
 30
1.155
 40
11.55
  1
４００／６０
 50
0.0
 41
0.9
 51
0.0
  7
KANJI32
  0
TEXT
  8
0
  6
CONTINUOUS
 62
     2
 10
861.02
 20
1293.425
 30
1.155
 40
11.55
  1
４４０／６０
 50
0.0
 41
0.9
 51
0.0
  7
KANJI32
  0
TEXT
  8
0
  6
CONTINUOUS
 62
     2
 10
939.175
 20
1339.625
 30
1.155
 40
11.55
  1
　２．０
 50
0.0
 41
0.9
 51
0.0
  7
KANJI32
  0
TEXT
  8
0
  6
CONTINUOUS
 62
     2
 10
939.175
 20
1316.525
 30
1.155
 40
11.55
  1
　１．４
 50
0.0
 41
0.9
 51
0.0
  7
KANJI32
  0
TEXT
  8
0
  6
CONTINUOUS
 62
     2
 10
939.175
 20
1293.425
 30
1.155
 40
11.55
  1
　１．７
 50
0.0
 41
0.9
 51
0.0
  7
KANJI32
  0
TEXT
  8
0
  6
CONTINUOUS
 62
     2
 10
1170.175
 20
1339.625
 30
1.155
 40
11.55
  1
　４．０
 50
0.0
 41
0.9
 51
0.0
  7
KANJI32
  0
TEXT
  8
0
  6
CONTINUOUS
 62
     2
 10
1170.175
 20
1316.525
 30
1.155
 40
11.55
  1
　２．８
 50
0.0
 41
0.9
 51
0.0
  7
KANJI32
  0
TEXT
  8
0
  6
CONTINUOUS
 62
     2
 10
1170.175
 20
1293.425
 30
1.155
 40
11.55
  1
　３．３
 50
0.0
 41
0.9
 51
0.0
  7
KANJI32
  0
TEXT
  8
0
  6
CONTINUOUS
 62
     2
 10
1227.925
 20
1339.625
 30
1.155
 40
11.55
  1
　９．２
 50
0.0
 41
0.9
 51
0.0
  7
KANJI32
  0
TEXT
  8
0
  6
CONTINUOUS
 62
     2
 10
1227.925
 20
1316.525
 30
1.155
 40
11.55
  1
　８
 50
0.0
 41
0.9
 51
0.0
  7
KANJI32
  0
TEXT
  8
0
  6
CONTINUOUS
 62
     2
 10
1227.925
 20
1293.425
 30
1.155
 40
11.55
  1
　８．８
 50
0.0
 41
0.9
 51
0.0
  7
KANJI32
  0
TEXT
  8
0
  6
CONTINUOUS
 62
     2
 10
996.925
 20
1339.625
 30
1.155
 40
11.55
  1
　４．６
 50
0.0
 41
0.9
 51
0.0
  7
KANJI32
  0
TEXT
  8
0
  6
CONTINUOUS
 62
     2
 10
996.925
 20
1316.525
 30
1.155
 40
11.55
  1
　４
 50
0.0
 41
0.9
 51
0.0
  7
KANJI32
  0
TEXT
  8
0
  6
CONTINUOUS
 62
     2
 10
996.925
 20
1293.425
 30
1.155
 40
11.55
  1
　４．４
 50
0.0
 41
0.9
 51
0.0
  7
KANJI32
  0
LINE
  8
7
  6
CONTINUOUS
 62
     2
 10
268.333333
 20
635.061888342
 30
0.0
 11
268.333333
 21
335.633317
 31
0.0
  0
LINE
  8
7
  6
CONTINUOUS
 62
     2
 10
296.333333
 20
465.541888342
 30
0.0
 11
296.333333
 21
335.633317
 31
0.0
  0
LINE
  8
7
  6
CONTINUOUS
 62
     2
 10
368.333333
 20
465.711888342
 30
0.0
 11
368.333333
 21
363.633317
 31
0.0
  0
LINE
  8
7
  6
CONTINUOUS
 62
     2
 10
776.333333
 20
493.251888342
 30
0.0
 11
776.333333
 21
391.633317
 31
0.0
  0
LINE
  8
7
  6
CONTINUOUS
 62
     2
 10
811.333333
 20
504.811888342
 30
0.0
 11
811.333333
 21
391.633317
 31
0.0
  0
LINE
  8
7
  6
CONTINUOUS
 62
     2
 10
864.333333
 20
512.971888342
 30
0.0
 11
864.333333
 21
335.633317
 31
0.0
  0
LINE
  8
7
  6
CONTINUOUS
 62
     2
 10
1070.333333
 20
467.3
 30
0.0
 11
1070.333333
 21
364.48382445
 31
0.0
  0
LINE
  8
7
  6
CONTINUOUS
 62
     2
 10
1190.333333
 20
468.53
 30
0.0
 11
1190.333333
 21
364.48382445
 31
0.0
  0
LINE
  8
0
  6
CONTINUOUS
 62
     1
 10
1095.378209464
 20
551.807463077
 30
0.0
 11
1070.333333
 21
547.633317
 31
0.0
  0
LINE
  8
0
  6
CONTINUOUS
 62
     1
 10
1085.333333
 20
504.633317
 30
0.0
 11
1089.120762097
 21
519.633317
 31
0.0
  0
LINE
  8
0
  6
CONTINUOUS
 62
     1
 10
1175.333333
 20
504.633317
 30
0.0
 11
1171.545903903
 21
519.633317
 31
0.0
  0
LINE
  8
0
  6
CONTINUOUS
 62
     1
 10
1165.288456536
 20
551.807463077
 30
0.0
 11
1190.333333
 21
547.633317
 31
0.0
  0
TEXT
  8
0
  6
CONTINUOUS
 62
     2
 10
887.7775
 20
1270.325
 30
1.3475
 40
13.475
  1
注意：サーマルリレー等の選定は、上記の値で選定して下さい。
 50
0.0
 41
0.9
 51
0.0
  7
KANJI33
  0
LINE
  8
0
  6
CONTINUOUS
 62
     2
 10
880.0775
 20
1266.475
 30
0.0
 11
1268.0
 21
1266.475
 31
0.0
  0
LINE
  8
0
  6
LTYPE3
 62
     6
 10
101.3
 20
1110.95
 30
0.0
 11
649.7
 21
1110.95
 31
0.0
  0
TEXT
  8
0
  6
CONTINUOUS
 62
     6
 10
314.312791539
 20
1128.97382165
 30
0.0
 40
17.740702234
  1
端子台　接続図
 50
0.0
 41
0.880962996
 51
0.0
  7
KANJI34
  0
LINE
  8
0
  6
CONTINUOUS
 62
     2
 10
349.277373465
 20
1179.978121884
 30
0.0
 11
349.277373465
 21
1157.199155128
 31
0.0
  0
LINE
  8
0
  6
CONTINUOUS
 62
     2
 10
375.85283468
 20
1179.978121884
 30
0.0
 11
375.85283468
 21
1157.199155128
 31
0.0
  0
LINE
  8
0
  6
CONTINUOUS
 62
     2
 10
402.428295894
 20
1179.978121884
 30
0.0
 11
402.428295894
 21
1157.199155128
 31
0.0
  0
LINE
  8
0
  6
CONTINUOUS
 62
     2
 10
429.003757109
 20
1179.978121884
 30
0.0
 11
429.003757109
 21
1157.199155128
 31
0.0
  0
CIRCLE
  8
0
  6
CONTINUOUS
 62
     6
 10
421.084269667
 20
1203.457921517
 30
0.0
 40
4.100214016
  0
LINE
  8
0
  6
CONTINUOUS
 62
     6
 10
416.984055651
 20
1203.457921517
 30
0.0
 11
415.716026502
 21
1203.457921517
 31
0.0
  0
LINE
  8
0
  6
CONTINUOUS
 62
     6
 10
442.038027433
 20
1217.144562742
 30
0.0
 11
438.123558096
 21
1194.809507138
 31
0.0
  0
LINE
  8
0
  6
CONTINUOUS
 62
     6
 10
437.311699663
 20
1217.932284037
 30
0.0
 11
433.396922494
 21
1195.597279739
 31
0.0
  0
LINE
  8
0
  6
CONTINUOUS
 62
     6
 10
438.123558096
 20
1194.809507138
 30
0.0
 11
433.396922494
 21
1195.597279739
 31
0.0
  0
CIRCLE
  8
0
  6
CONTINUOUS
 62
     6
 10
442.291487717
 20
1193.989464335
 30
0.0
 40
4.100214016
  0
LINE
  8
0
  6
CONTINUOUS
 62
     6
 10
442.291487717
 20
1189.889250319
 30
0.0
 11
442.291487717
 21
1179.978121884
 31
0.0
  0
LINE
  8
0
  6
CONTINUOUS
 62
     6
 10
415.716026502
 20
1203.457921517
 30
0.0
 11
415.716026502
 21
1179.978121884
 31
0.0
  0
LINE
  8
0
  6
CONTINUOUS
 62
     6
 10
389.140565287
 20
1179.978121884
 30
0.0
 11
389.140565287
 21
1233.683332504
 31
0.0
  0
LINE
  8
0
  6
CONTINUOUS
 62
     6
 10
309.667641926
 20
1217.144562742
 30
0.0
 11
313.582111263
 21
1194.809507138
 31
0.0
  0
LINE
  8
0
  6
CONTINUOUS
 62
     6
 10
314.393969696
 20
1217.932284037
 30
0.0
 11
318.308746865
 21
1195.597279739
 31
0.0
  0
LINE
  8
0
  6
CONTINUOUS
 62
     6
 10
313.582111263
 20
1194.809507138
 30
0.0
 11
318.308746865
 21
1195.597279739
 31
0.0
  0
CIRCLE
  8
0
  6
CONTINUOUS
 62
     6
 10
309.414181642
 20
1193.989464335
 30
0.0
 40
4.100214016
  0
CIRCLE
  8
0
  6
CONTINUOUS
 62
     6
 10
330.621399692
 20
1203.457921517
 30
0.0
 40
4.100214016
  0
LINE
  8
0
  6
CONTINUOUS
 62
     6
 10
334.721613708
 20
1203.457921517
 30
0.0
 11
335.989642857
 21
1203.457921517
 31
0.0
  0
LINE
  8
0
  6
CONTINUOUS
 62
     6
 10
309.414181642
 20
1189.889250319
 30
0.0
 11
309.414181642
 21
1179.978121884
 31
0.0
  0
LINE
  8
0
  6
CONTINUOUS
 62
     6
 10
335.989642857
 20
1203.457921517
 30
0.0
 11
335.989642857
 21
1179.978121884
 31
0.0
  0
LINE
  8
0
  6
CONTINUOUS
 62
     6
 10
362.565104072
 20
1179.978121884
 30
0.0
 11
362.565104072
 21
1233.683332504
 31
0.0
  0
LINE
  8
0
  6
CONTINUOUS
 62
     2
 10
455.579218324
 20
1179.978121884
 30
0.0
 11
455.579218324
 21
1157.199155128
 31
0.0
  0
LINE
  8
0
  6
CONTINUOUS
 62
     2
 10
296.126451035
 20
1179.978121884
 30
0.0
 11
296.126451035
 21
1157.199155128
 31
0.0
  0
LINE
  8
0
  6
CONTINUOUS
 62
     2
 10
322.70191225
 20
1179.978121884
 30
0.0
 11
322.70191225
 21
1157.199155128
 31
0.0
  0
LINE
  8
0
  6
CONTINUOUS
 62
     6
 10
442.291487717
 20
1233.683332504
 30
0.0
 11
389.140565287
 21
1233.683332504
 31
0.0
  0
CIRCLE
  8
0
  6
CONTINUOUS
 62
     6
 10
442.291487717
 20
1221.33941042
 30
0.0
 40
4.100214016
  0
LINE
  8
0
  6
CONTINUOUS
 62
     6
 10
442.038027433
 20
1217.144562742
 30
0.0
 11
437.311699663
 21
1217.932284037
 31
0.0
  0
LINE
  8
0
  6
CONTINUOUS
 62
     6
 10
442.291487717
 20
1225.439624436
 30
0.0
 11
442.291487717
 21
1233.683332504
 31
0.0
  0
CIRCLE
  8
0
  6
CONTINUOUS
 62
     6
 10
309.414181642
 20
1221.33941042
 30
0.0
 40
4.100214016
  0
LINE
  8
0
  6
CONTINUOUS
 62
     6
 10
309.667641926
 20
1217.144562742
 30
0.0
 11
314.393969696
 21
1217.932284037
 31
0.0
  0
LINE
  8
0
  6
CONTINUOUS
 62
     6
 10
309.414181642
 20
1225.439624436
 30
0.0
 11
309.414181642
 21
1233.683332504
 31
0.0
  0
LINE
  8
0
  6
CONTINUOUS
 62
     6
 10
362.565104072
 20
1233.683332504
 30
0.0
 11
309.414181642
 21
1233.683332504
 31
0.0
  0
TEXT
  8
0
  6
CONTINUOUS
 62
     6
 10
314.1772152
 20
1238.202473273
 30
0.819
 40
11.7
  1
ＬＳ０１
 50
0.0
 41
0.8
 51
0.0
  7
KANJI35
  0
TEXT
  8
0
  6
CONTINUOUS
 62
     6
 10
396.797398844
 20
1238.202473273
 30
0.819
 40
11.7
  1
ＬＳ０２
 50
0.0
 41
0.8
 51
0.0
  7
KANJI35
  0
TEXT
  8
0
  6
CONTINUOUS
 62
     3
 10
141.988775989
 20
1160.995649587
 30
0.0
 40
15.0
  1
　　　　　　　　　　　　　　　　　　１　　２　　　３　　　４　　　５　　　６
 50
0.0
 41
0.911
 51
0.0
  7
KANJI36
  0
LINE
  8
0
  6
CONTINUOUS
 62
     2
 10
296.126451035
 20
1179.978121884
 30
0.0
 11
455.579218324
 21
1179.978121884
 31
0.0
  0
LINE
  8
0
  6
CONTINUOUS
 62
     2
 10
296.126451035
 20
1157.199155128
 30
0.0
 11
455.579218324
 21
1157.199155128
 31
0.0
  0
TEXT
  8
0
  6
CONTINUOUS
 62
     6
 10
287.812791539
 20
1267.97382165
 30
0.0
 40
17.740702234
  1
推力リミッタ端子台配列
 50
0.0
 41
0.880962996
 51
0.0
  7
KANJI34
  0
TEXT
  8
7
  6
CONTINUOUS
 62
     2
 10
457.433333
 20
788.633317
 30
0.0
 40
15.0
  1
２１３
 50
0.0
 41
0.9
 51
0.0
  7
KANJI27
  0
TEXT
  8
7
  6
CONTINUOUS
 62
     2
 10
326.933333
 20
788.633317
 30
0.0
 40
15.0
  1
６０
 50
0.0
 41
0.9
 51
0.0
  7
KANJI27
  0
TEXT
  8
7
  6
CONTINUOUS
 62
     2
 10
507.333333
 20
763.633317
 30
0.0
 40
15.0
  1
ＰＦ３／４
 50
0.0
 41
0.9
 51
0.0
  7
KANJI27
  0
TEXT
  8
7
  6
CONTINUOUS
 62
     2
 10
623.333333
 20
423.133317
 30
0.0
 40
15.0
  1
ＰＦ１／２
 50
0.0
 41
0.9
 51
0.0
  7
KANJI27
  0
TEXT
  8
7
  6
CONTINUOUS
 62
     2
 10
551.933333
 20
401.633317
 30
0.0
 40
15.0
  1
Ｃ
 50
0.0
 41
0.9
 51
0.0
  7
KANJI27
  0
TEXT
  8
7
  6
CONTINUOUS
 62
     2
 10
562.933333
 20
373.633317
 30
0.0
 40
15.0
  1
ｍｉｎ．Ｌ
 50
0.0
 41
0.9
 51
0.0
  7
KANJI27
  0
TEXT
  8
7
  6
CONTINUOUS
 62
     2
 10
391.933333
 20
373.633317
 30
0.0
 40
15.0
  1
７０
 50
0.0
 41
0.9
 51
0.0
  7
KANJI27
  0
TEXT
  8
7
  6
CONTINUOUS
 62
     2
 10
320.933333
 20
373.633317
 30
0.0
 40
15.0
  1
７２
 50
0.0
 41
0.9
 51
0.0
  7
KANJI27
  0
TEXT
  8
7
  6
CONTINUOUS
 62
     2
 10
485.933333
 20
345.633317
 30
0.0
 40
15.0
  1
ｍｉｎ．ＡＬ
 50
0.0
 41
0.9
 51
0.0
  7
KANJI27
  0
TEXT
  8
7
  6
CONTINUOUS
 62
     2
 10
270.933333
 20
345.633317
 30
0.0
 40
15.0
  1
２８
 50
0.0
 41
0.9
 51
0.0
  7
KANJI27
  0
TEXT
  8
7
  6
CONTINUOUS
 62
     2
 10
788.433333
 20
401.633317
 30
0.0
 40
15.0
  1
Ｐ
 50
0.0
 41
0.9
 51
0.0
  7
KANJI27
  0
TEXT
  8
7
  6
CONTINUOUS
 62
     2
 10
817.433333
 20
401.633317
 30
0.0
 40
15.0
  1
３５
 50
0.0
 41
0.9
 51
0.0
  7
KANJI27
  0
TEXT
  8
7
  6
CONTINUOUS
 62
     2
 10
879.333333
 20
345.633317
 30
0.0
 40
15.0
  1
１８
 50
0.0
 41
0.9
 51
0.0
  7
KANJI27
  0
TEXT
  8
7
  6
CONTINUOUS
 62
     2
 10
564.333333
 20
510.233317
 30
0.0
 40
15.0
  1
φ６４
 50
90.0
 41
0.9
 51
0.0
  7
KANJI27
  0
TEXT
  8
7
  6
CONTINUOUS
 62
     2
 10
481.802757461
 20
449.633317
 30
0.0
 40
15.0
  1
推力リミッタ
 50
0.0
 41
0.9
 51
0.0
  7
KANJI27
  0
TEXT
  8
7
  6
CONTINUOUS
 62
     2
 10
636.802757461
 20
599.133317
 30
0.0
 40
15.0
  1
給脂口
 50
0.0
 41
0.9
 51
0.0
  7
KANJI27
  0
TEXT
  8
7
  6
CONTINUOUS
 62
     2
 10
497.333333
 20
614.233317
 30
0.0
 40
15.0
  1
φ１１４
 50
90.0
 41
0.9
 51
0.0
  7
KANJI27
  0
TEXT
  8
7
  6
CONTINUOUS
 62
     2
 10
941.833333
 20
688.233317
 30
0.0
 40
15.0
  1
４０
 50
90.0
 41
0.9
 51
0.0
  7
KANJI27
  0
TEXT
  8
7
  6
CONTINUOUS
 62
     2
 10
920.833333
 20
688.233317
 30
0.0
 40
15.0
  1
１６
 50
90.0
 41
0.9
 51
0.0
  7
KANJI27
  0
TEXT
  8
7
  6
CONTINUOUS
 62
     2
 10
893.333333
 20
734.633317
 30
0.0
 40
15.0
  1
１２
 50
90.0
 41
0.9
 51
0.0
  7
KANJI27
  0
TEXT
  8
7
  6
CONTINUOUS
 62
     2
 10
893.333333
 20
641.833317
 30
0.0
 40
15.0
  1
１２
 50
90.0
 41
0.9
 51
0.0
  7
KANJI27
  0
TEXT
  8
7
  6
CONTINUOUS
 62
     2
 10
1112.933333
 20
374.48382445
 30
0.0
 40
15.0
  1
１２０
 50
0.0
 41
0.9
 51
0.0
  7
KANJI27
  0
TEXT
  8
7
  6
CONTINUOUS
 62
     2
 10
1272.333333
 20
565.233317
 30
0.0
 40
15.0
  1
１１０
 50
90.0
 41
0.9
 51
0.0
  7
KANJI27
  0
TEXT
  8
7
  6
CONTINUOUS
 62
     2
 10
1304.333333
 20
576.483512
 30
0.0
 40
15.0
  1
３３８
 50
90.0
 41
0.9
 51
0.0
  7
KANJI27
  0
TEXT
  8
7
  6
CONTINUOUS
 62
     2
 10
1272.333333
 20
458.983512
 30
0.0
 40
15.0
  1
１０３
 50
90.0
 41
0.9
 51
0.0
  7
KANJI27
  0
TEXT
  8
7
  6
CONTINUOUS
 62
     2
 10
1272.333333
 20
682.733317
 30
0.0
 40
15.0
  1
１２５
 50
90.0
 41
0.9
 51
0.0
  7
KANJI27
  0
TEXT
  8
7
  6
CONTINUOUS
 62
     2
 10
1240.333333
 20
545.633317
 30
0.0
 40
15.0
  1
φ１６Ｈ１０深２２
 50
90.0
 41
0.9
 51
0.0
  7
KANJI27
  0
TEXT
  8
7
  6
CONTINUOUS
 62
     2
 10
1112.933333
 20
791.633317
 30
0.0
 40
15.0
  1
１２２
 50
0.0
 41
0.9
 51
0.0
  7
KANJI27
  0
TEXT
  8
7
  6
CONTINUOUS
 62
     2
 10
777.433333
 20
416.633317
 30
-1.5
 40
15.0
  1
ｍｉｎ
 50
0.0
 41
0.833333333
 51
0.0
  7
KANJI37
  0
LINE
  8
0
  6
CONTINUOUS
 62
     2
 10
838.333333
 20
663.633317
 30
0.0
 11
838.333333
 21
611.633317
 31
0.0
  0
LINE
  8
0
  6
CONTINUOUS
 62
     2
 10
838.333333
 20
616.633317
 30
0.0
 11
828.674074737
 21
619.221507451
 31
0.0
  0
LINE
  8
0
  6
CONTINUOUS
 62
     2
 10
838.333333
 20
616.633317
 30
0.0
 11
828.674074737
 21
614.045126549
 31
0.0
  0
LINE
  8
0
  6
CONTINUOUS
 62
     2
 10
823.333333
 20
616.633317
 30
0.0
 11
838.333333
 21
616.633317
 31
0.0
  0
LINE
  8
0
  6
CONTINUOUS
 62
     2
 10
838.333333
 20
616.633317
 30
0.0
 11
854.333333
 21
616.633317
 31
0.0
  0
LINE
  8
0
  6
CONTINUOUS
 62
     2
 10
854.333333
 20
616.633317
 30
0.0
 11
934.133333
 21
616.633317
 31
0.0
  0
LINE
  8
0
  6
CONTINUOUS
 62
     2
 10
854.333333
 20
616.633317
 30
0.0
 11
863.992591263
 21
614.045126549
 31
0.0
  0
LINE
  8
0
  6
CONTINUOUS
 62
     2
 10
854.333333
 20
616.633317
 30
0.0
 11
863.992591263
 21
619.221507451
 31
0.0
  0
LINE
  8
0
  6
CONTINUOUS
 62
     2
 10
854.333333
 20
663.633317
 30
0.0
 11
854.333333
 21
611.633317
 31
0.0
  0
TEXT
  8
7
  6
CONTINUOUS
 62
     2
 10
820.433333
 20
585.633317
 30
0.0
 40
15.0
  1
２５
 50
0.0
 41
0.9
 51
0.0
  7
KANJI27
  0
LINE
  8
0
  6
CONTINUOUS
 62
     1
 10
811.333333
 20
719.633317
 30
0.0
 11
864.333333
 21
719.633317
 31
0.0
  0
TEXT
  8
0
  6
CONTINUOUS
 62
     2
 10
1497.6
 20
555.25
 30
10.0
 40
20.0
  1
特記事項
 50
0.0
 41
0.9
 51
0.0
  7
KANJI38
  0
TEXT
  8
0
  6
CONTINUOUS
 62
     2
 10
1427.6
 20
515.25
 30
5.142857143
 40
18.0
  1
１。運転時は必ずピストンロッドの回転防止を行って下さい。
 50
0.0
 41
0.857142857
 51
0.0
  7
KANJI39
  0
TEXT
  8
0
  6
CONTINUOUS
 62
     2
 10
1427.6
 20
481.25
 30
5.13
 40
18.0
  1
２。モートル：全閉自冷かご形３０分定格
 50
0.0
 41
0.857222222
 51
0.0
  7
KANJI40
  0
TEXT
  8
0
  6
CONTINUOUS
 62
     2
 10
1427.2665915
 20
447.250003
 30
5.13
 40
18.0
  1
３。呼称ストロークは、機械的ストロークです。
 50
0.0
 41
0.857222222
 51
0.0
  7
KANJI40
  0
TEXT
  8
0
  6
CONTINUOUS
 62
     2
 10
1427.2665915
 20
418.500003
 30
5.13
 40
18.0
  1
　　必ず、常用はストローク両端に余裕を取って下さい。
 50
0.0
 41
0.857222222
 51
0.0
  7
KANJI40
  0
TEXT
  8
0
  6
CONTINUOUS
 62
     2
 10
1428.0265915
 20
385.460003
 30
5.13
 40
18.0
  1
　　前後の推奨余裕寸法は、各々１５ｍｍです。
 50
0.0
 41
0.857222222
 51
0.0
  7
KANJI40
  0
LINE
  8
0
  6
CONTINUOUS
 62
     2
 10
1483.6
 20
549.75
 30
0.0
 11
1605.6
 21
549.75
 31
0.0
  0
LINE
  8
7
  6
CONTINUOUS
 62
     2
 10
501.333333
 20
590.133317
 30
0.0
 11
501.333333
 21
580.633317
 31
0.0
  0
LINE
  8
7
  6
CONTINUOUS
 62
     2
 10
501.333333
 20
694.633317
 30
0.0
 11
501.333333
 21
612.133317
 31
0.0
  0
LINE
  8
0
  6
CONTINUOUS
 62
     1
 10
465.633333
 20
430.633317
 30
0.0
 11
455.033333
 21
430.633317
 31
0.0
  0
LINE
  8
0
  6
CONTINUOUS
 62
     1
 10
581.633333
 20
430.633317
 30
0.0
 11
571.033333
 21
430.633317
 31
0.0
  0
LINE
  8
0
  6
CONTINUOUS
 62
     1
 10
1088.633333
 20
430.633317
 30
0.0
 11
1078.033333
 21
430.633317
 31
0.0
  0
LINE
  8
0
  6
CONTINUOUS
 62
     1
 10
1182.633333
 20
430.633317
 30
0.0
 11
1172.033333
 21
430.633317
 31
0.0
  0
LINE
  8
0
  6
CONTINUOUS
 62
     2
 10
964.333333
 20
566.833317
 30
0.0
 11
952.259260171
 21
570.068555064
 31
0.0
  0
LINE
  8
0
  6
CONTINUOUS
 62
     2
 10
964.333333
 20
566.833317
 30
0.0
 11
952.259260171
 21
563.598078936
 31
0.0
  0
LINE
  8
0
  6
CONTINUOUS
 62
     2
 10
964.333333
 20
566.833317
 30
0.0
 11
923.333333
 21
566.833317
 31
0.0
  0
TEXT
  8
0
  6
CONTINUOUS
 62
     3
 10
930.333333
 20
576.833317
 30
0.0
 40
20.0
  1
前進
 50
0.0
 41
0.925
 51
0.0
  7
KANJI41
  0
LINE
  8
0
  6
LTYPE3
 62
     6
 10
134.741666
 20
920.766634
 30
0.0
 11
134.741666
 21
904.365777936
 31
0.0
  0
LINE
  8
0
  6
LTYPE3
 62
     6
 10
265.138595694
 20
920.766634
 30
0.0
 11
134.741666
 21
920.766634
 31
0.0
  0
TEXT
  8
0
  6
CONTINUOUS
 62
     6
 10
117.206923591
 20
907.281485681
 30
1.093390404
 40
10.933904043
  1
Ｕ
 50
0.0
 41
0.9
 51
0.0
  7
KANJI42
  0
CIRCLE
  8
0
  6
CONTINUOUS
 62
     6
 10
134.741666
 20
901.085606723
 30
0.0
 40
4.373561617
  0
LINE
  8
0
  6
CONTINUOUS
 62
     6
 10
129.71688231
 20
896.060823033
 30
0.0
 11
139.921859417
 21
906.26580014
 31
0.0
  0
TEXT
  8
0
  6
CONTINUOUS
 62
     6
 10
144.987139047
 20
929.432765352
 30
1.518597784
 40
15.185977837
  1
エコノストップモータ
 50
0.0
 41
0.66671875
 51
0.0
  7
KANJI43
  0
CIRCLE
  8
0
  6
CONTINUOUS
 62
     6
 10
179.570672575
 20
875.573163957
 30
0.0
 40
18.223173404
  0
TEXT
  8
0
  6
CONTINUOUS
 62
     6
 10
171.916939745
 20
866.826040723
 30
1.82231734
 40
18.223173404
  1
Ｍ
 50
0.0
 41
0.9
 51
0.0
  7
KANJI44
  0
LINE
  8
0
  6
CONTINUOUS
 62
     6
 10
155.516083681
 20
850.060721191
 30
0.0
 11
166.814451192
 21
863.181406042
 31
0.0
  0
LINE
  8
0
  6
CONTINUOUS
 62
     6
 10
155.516083681
 20
901.085606723
 30
0.0
 11
166.814451192
 21
887.964921872
 31
0.0
  0
LINE
  8
0
  6
CONTINUOUS
 62
     6
 10
155.516083681
 20
901.085606723
 30
0.0
 11
139.115227617
 21
901.085606723
 31
0.0
  0
LINE
  8
0
  6
CONTINUOUS
 62
     6
 10
161.711962639
 20
875.573163957
 30
0.0
 11
139.115227617
 21
875.573163957
 31
0.0
  0
LINE
  8
0
  6
CONTINUOUS
 62
     6
 10
155.516083681
 20
850.060721191
 30
0.0
 11
139.115227617
 21
850.060721191
 31
0.0
  0
TEXT
  8
0
  6
CONTINUOUS
 62
     6
 10
118.300313995
 20
881.404579446
 30
1.093390404
 40
10.933904043
  1
Ｖ
 50
0.0
 41
0.9
 51
0.0
  7
KANJI42
  0
TEXT
  8
0
  6
CONTINUOUS
 62
     6
 10
119.393704399
 20
855.527673212
 30
1.093390404
 40
10.933904043
  1
Ｗ
 50
0.0
 41
0.9
 51
0.0
  7
KANJI42
  0
CIRCLE
  8
0
  6
CONTINUOUS
 62
     6
 10
134.741666
 20
875.573163957
 30
0.0
 40
4.373561617
  0
LINE
  8
0
  6
CONTINUOUS
 62
     6
 10
129.71688231
 20
870.548380267
 30
0.0
 11
139.921859417
 21
880.753357374
 31
0.0
  0
LINE
  8
0
  6
LTYPE3
 62
     6
 10
134.741666
 20
897.076508574
 30
0.0
 11
134.741666
 21
878.85333517
 31
0.0
  0
CIRCLE
  8
0
  6
CONTINUOUS
 62
     6
 10
134.741666
 20
850.060721191
 30
0.0
 40
4.373561617
  0
LINE
  8
0
  6
CONTINUOUS
 62
     6
 10
129.71688231
 20
845.035937501
 30
0.0
 11
139.921859417
 21
855.240914607
 31
0.0
  0
LINE
  8
0
  6
LTYPE3
 62
     6
 10
134.741666
 20
871.564065808
 30
0.0
 11
134.741666
 21
854.434282808
 31
0.0
  0
LINE
  8
0
  6
LTYPE3
 62
     6
 10
265.138595694
 20
825.354901891
 30
0.0
 11
134.741666
 21
825.354901891
 31
0.0
  0
LINE
  8
0
  6
LTYPE3
 62
     6
 10
134.741666
 20
845.687159574
 30
0.0
 11
134.741666
 21
825.354901891
 31
0.0
  0
TEXT
  8
0
  6
CONTINUOUS
 62
     2
 10
139.837059364
 20
800.145538811
 30
0.0
 40
15.6
  1
モーター結線図
 50
0.0
 41
0.925
 51
0.0
  7
KANJI45
  0
TEXT
  8
0
  6
CONTINUOUS
 62
     6
 10
205.812042277
 20
867.318066405
 30
1.457853872
 40
14.578538724
  1
Ｂ
 50
0.0
 41
0.9
 51
0.0
  7
KANJI46
  0
CIRCLE
  8
0
  6
CONTINUOUS
 62
     6
 10
212.372384703
 20
875.573163957
 30
0.0
 40
14.578538724
  0
LINE
  8
0
  6
LTYPE3
 62
     6
 10
265.138595694
 20
825.354901891
 30
0.0
 11
265.138595694
 21
920.766634
 31
0.0
  0
LINE
  8
0
  6
CONTINUOUS
 62
     2
 10
286.0
 20
651.0
 30
0.0
 11
238.0
 21
742.0
 31
0.0
  0
LINE
  8
0
  6
CONTINUOUS
 62
     2
 10
238.0
 20
742.0
 30
0.0
 11
127.0
 21
742.0
 31
0.0
  0
TEXT
  8
0
  6
CONTINUOUS
 62
     3
 10
127.0
 20
747.0
 30
1.5
 40
15.0
  1
手動軸カバー
 50
0.0
 41
0.9
 51
0.0
  7
KANJI47
  0
TEXT
  8
0
  6
CONTINUOUS
 62
     3
 10
127.0
 20
717.0
 30
1.5
 40
15.0
  1
手動軸□８
 50
0.0
 41
0.9
 51
0.0
  7
KANJI47
  0
LINE
  8
0
  6
CONTINUOUS
 62
     2
 10
286.0
 20
651.0
 30
0.0
 11
283.782742397
 21
660.751090643
 31
0.0
  0
LINE
  8
0
  6
CONTINUOUS
 62
     2
 10
286.0
 20
651.0
 30
0.0
 11
279.204253268
 21
658.33606341
 31
0.0
  0
ARC
  8
0
  6
CONTINUOUS
 62
     2
 10
210.333333
 20
640.133317
 30
0.0
 40
20.0
 50
231.952957468
 51
156.801409486
  0
TEXT
  8
0
  6
CONTINUOUS
 62
     2
 10
129.9504324
 20
631.011702972
 30
0.0
 40
15.0
  1
前進方向
 50
0.0
 41
0.9
 51
0.0
  7
KANJI27
  0
LINE
  8
0
  6
CONTINUOUS
 62
     2
 10
191.9504324
 20
648.011702972
 30
0.0
 11
194.24512511
 21
657.849141749
 31
0.0
  0
LINE
  8
0
  6
CONTINUOUS
 62
     2
 10
191.9504324
 20
648.011702972
 30
0.0
 11
200.218593778
 21
652.919039507
 31
0.0
  0
LINE
  8
0
  6
CONTINUOUS
 62
     1
 10
360.833333
 20
602.633317
 30
0.0
 11
317.833333
 21
602.633317
 31
0.0
  0
TEXT
  8
0
  6
CONTINUOUS
 62
     2
 10
322.833333
 20
591.633317
 30
5.0
 40
20.0
  1
銘板
 50
270.0
 41
0.925
 51
0.0
  7
KANJI48
  0
LINE
  8
0
  6
CONTINUOUS
 62
     1
 10
317.833333
 20
602.633317
 30
0.0
 11
317.833333
 21
532.633317
 31
0.0
  0
LINE
  8
0
  6
CONTINUOUS
 62
     1
 10
360.833333
 20
602.633317
 30
0.0
 11
360.833333
 21
532.633317
 31
0.0
  0
LINE
  8
0
  6
CONTINUOUS
 62
     1
 10
360.833333
 20
532.633317
 30
0.0
 11
317.833333
 21
532.633317
 31
0.0
  0
LINE
  8
0
  6
CONTINUOUS
 62
     2
 10
453.992591263
 20
281.221507451
 30
0.0
 11
867.992591263
 21
281.221507451
 31
0.0
  0
TEXT
  8
0
  6
CONTINUOUS
 62
     2
 10
455.992591263
 20
289.221507451
 30
0.0
 40
20.0
  1
推力リミッタの作動値は、約１１０ｋｇ（設計値）
 50
0.0
 41
0.925
 51
0.0
  7
KANJI41
  0
TEXT
  8
0
  6
CONTINUOUS
 62
     2
 10
460.059258263
 20
856.288190451
 30
0.0
 40
20.0
  1
ブレーキ解放装置はありません。
 50
0.0
 41
0.925
 51
0.0
  7
KANJI41
  0
TEXT
  8
0
  6
CONTINUOUS
 62
     2
 10
461.059258263
 20
831.288190451
 30
0.0
 40
20.0
  1
そのまま手動操作をして下さい．
 50
0.0
 41
0.925
 51
0.0
  7
KANJI41
  0
TEXT
  8
0
  6
CONTINUOUS
 62
     2
 10
387.233333
 20
592.633317
 30
0.0
 40
15.0
  1
エコノストップモータ
 50
0.0
 41
0.9
 51
0.0
  7
KANJI27
  0
TEXT
  8
0
  6
CONTINUOUS
 62
     2
 10
390.133333
 20
609.633317
 30
0.0
 40
15.0
  1
日本電産
 50
0.0
 41
0.9
 51
0.0
  7
KANJI27
  0
TEXT
  8
0
  6
CONTINUOUS
 62
     3
 10
869.333333
 20
621.633317
 30
0.0
 40
15.0
  1
φ１６
 50
0.0
 41
0.9
 51
0.0
  7
KANJI27
  0
TEXT
  8
0
  6
CONTINUOUS
 62
     3
 10
909.833333
 20
621.633317
 30
0.0
 40
9.0
  1
ｄ９
 50
0.0
 41
0.9
 51
0.0
  7
KANJI49
  0
TEXT
  8
0
  6
CONTINUOUS
 62
     3
 10
909.833333
 20
630.633317
 30
0.0
 40
9.0
  1
Ｈ１０
 50
0.0
 41
0.9
 51
0.0
  7
KANJI49
  0
CIRCLE
  8
0
  6
CONTINUOUS
 62
     1
 10
846.333333
 20
527.633317
 30
0.0
 40
15.0
  0
CIRCLE
  8
0
  6
CONTINUOUS
 62
     1
 10
846.333317741
 20
538.633317
 30
0.0
 40
3.0
  0
LINE
  8
0
  6
CONTINUOUS
 62
     1
 10
842.133333
 20
515.333317
 30
0.0
 11
844.133333
 21
515.033317
 31
0.0
  0
LINE
  8
0
  6
CONTINUOUS
 62
     1
 10
844.397948385
 20
518.164086231
 30
0.0
 11
842.133333
 21
515.333317
 31
0.0
  0
LINE
  8
0
  6
CONTINUOUS
 62
     1
 10
846.333333
 20
517.733317
 30
0.0
 11
844.133333
 21
515.033317
 31
0.0
  0
LINE
  8
0
  6
CONTINUOUS
 62
     1
 10
844.633333
 20
519.733317
 30
0.0
 11
844.397948385
 21
518.164086231
 31
0.0
  0
LINE
  8
0
  6
CONTINUOUS
 62
     1
 10
850.533333
 20
515.333317
 30
0.0
 11
848.533333
 21
515.033317
 31
0.0
  0
LINE
  8
0
  6
CONTINUOUS
 62
     1
 10
848.268717615
 20
518.164086231
 30
0.0
 11
850.533333
 21
515.333317
 31
0.0
  0
LINE
  8
0
  6
CONTINUOUS
 62
     1
 10
846.333333
 20
517.733317
 30
0.0
 11
848.533333
 21
515.033317
 31
0.0
  0
LINE
  8
0
  6
CONTINUOUS
 62
     1
 10
848.033333
 20
519.733317
 30
0.0
 11
848.268717615
 21
518.164086231
 31
0.0
  0
LINE
  8
0
  6
CONTINUOUS
 62
     1
 10
854.333333
 20
730.633317
 30
0.0
 11
838.333333
 21
730.633317
 31
0.0
  0
LINE
  8
0
  6
CONTINUOUS
 62
     1
 10
831.333333
 20
722.633317
 30
0.0
 11
861.333333
 21
722.633317
 31
0.0
  0
LINE
  8
0
  6
LTYPE3
 62
     2
 10
841.933333
 20
725.283317
 30
0.0
 11
850.333333
 21
725.283317
 31
0.0
  0
CIRCLE
  8
0
  6
CONTINUOUS
 62
     1
 10
846.333333
 20
725.283317
 30
0.0
 40
2.0
  0
LINE
  8
0
  6
CONTINUOUS
 62
     1
 10
831.333333
 20
719.633317
 30
0.0
 11
831.333333
 21
722.633317
 31
0.0
  0
LINE
  8
0
  6
LTYPE1
 62
     2
 10
838.333333
 20
722.633317
 30
0.0
 11
838.333333
 21
707.633317
 31
0.0
  0
LINE
  8
0
  6
CONTINUOUS
 62
     1
 10
838.333333
 20
722.633317
 30
0.0
 11
838.333333
 21
730.633317
 31
0.0
  0
LINE
  8
0
  6
CONTINUOUS
 62
     1
 10
861.333333
 20
719.633317
 30
0.0
 11
861.333333
 21
722.633317
 31
0.0
  0
LINE
  8
0
  6
CONTINUOUS
 62
     1
 10
854.333333
 20
722.633317
 30
0.0
 11
854.333333
 21
730.633317
 31
0.0
  0
LINE
  8
0
  6
LTYPE1
 62
     2
 10
854.333333
 20
707.633317
 30
0.0
 11
854.333333
 21
722.633317
 31
0.0
  0
LINE
  8
0
  6
CONTINUOUS
 62
     1
 10
831.333333
 20
676.633317
 30
0.0
 11
861.333333
 21
676.633317
 31
0.0
  0
LINE
  8
0
  6
CONTINUOUS
 62
     1
 10
831.333333
 20
679.633317
 30
0.0
 11
831.333333
 21
676.633317
 31
0.0
  0
LINE
  8
0
  6
CONTINUOUS
 62
     1
 10
838.333333
 20
668.633317
 30
0.0
 11
838.333333
 21
676.633317
 31
0.0
  0
LINE
  8
0
  6
CONTINUOUS
 62
     1
 10
838.333333
 20
668.633317
 30
0.0
 11
838.333333
 21
676.633317
 31
0.0
  0
LINE
  8
0
  6
LTYPE1
 62
     2
 10
838.333333
 20
676.633317
 30
0.0
 11
838.333333
 21
691.633317
 31
0.0
  0
LINE
  8
0
  6
CONTINUOUS
 62
     1
 10
854.333333
 20
668.633317
 30
0.0
 11
838.333333
 21
668.633317
 31
0.0
  0
LINE
  8
0
  6
CONTINUOUS
 62
     1
 10
854.333333
 20
668.633317
 30
0.0
 11
838.333333
 21
668.633317
 31
0.0
  0
LINE
  8
0
  6
LTYPE3
 62
     2
 10
841.933333
 20
673.983317
 30
0.0
 11
850.333333
 21
673.983317
 31
0.0
  0
CIRCLE
  8
0
  6
CONTINUOUS
 62
     1
 10
846.333333
 20
673.983317
 30
0.0
 40
2.0
  0
LINE
  8
0
  6
CONTINUOUS
 62
     1
 10
861.333333
 20
679.633317
 30
0.0
 11
861.333333
 21
676.633317
 31
0.0
  0
LINE
  8
0
  6
CONTINUOUS
 62
     1
 10
854.333333
 20
676.633317
 30
0.0
 11
854.333333
 21
668.633317
 31
0.0
  0
LINE
  8
0
  6
CONTINUOUS
 62
     1
 10
854.333333
 20
676.633317
 30
0.0
 11
854.333333
 21
668.633317
 31
0.0
  0
LINE
  8
0
  6
LTYPE1
 62
     2
 10
854.333333
 20
691.633317
 30
0.0
 11
854.333333
 21
676.633317
 31
0.0
  0
CIRCLE
  8
0
  6
CONTINUOUS
 62
     1
 10
1091.333333
 20
566.633317
 30
0.0
 40
5.0
  0
CIRCLE
  8
0
  6
CONTINUOUS
 62
     1
 10
1130.333333
 20
527.633317
 30
0.0
 40
31.75
  0
LINE
  8
0
  6
CONTINUOUS
 62
     1
 10
1161.333333
 20
535.633317
 30
0.0
 11
1161.333333
 21
519.633317
 31
0.0
  0
LINE
  8
0
  6
CONTINUOUS
 62
     1
 10
1161.333333
 20
535.633317
 30
0.0
 11
1161.333333
 21
519.633317
 31
0.0
  0
LINE
  8
0
  6
CONTINUOUS
 62
     1
 10
1153.333333
 20
535.633317
 30
0.0
 11
1161.333333
 21
535.633317
 31
0.0
  0
LINE
  8
0
  6
CONTINUOUS
 62
     1
 10
1153.333333
 20
535.633317
 30
0.0
 11
1161.333333
 21
535.633317
 31
0.0
  0
LINE
  8
0
  6
LTYPE3
 62
     2
 10
1155.983333
 20
523.233317
 30
0.0
 11
1155.983333
 21
531.633317
 31
0.0
  0
CIRCLE
  8
0
  6
CONTINUOUS
 62
     1
 10
1155.983333
 20
527.633317
 30
0.0
 40
2.0
  0
LINE
  8
0
  6
CONTINUOUS
 62
     1
 10
1161.333333
 20
519.633317
 30
0.0
 11
1153.333333
 21
519.633317
 31
0.0
  0
LINE
  8
0
  6
CONTINUOUS
 62
     1
 10
1161.333333
 20
519.633317
 30
0.0
 11
1153.333333
 21
519.633317
 31
0.0
  0
LINE
  8
0
  6
CONTINUOUS
 62
     1
 10
1153.333333
 20
512.633317
 30
0.0
 11
1153.333333
 21
542.633317
 31
0.0
  0
LINE
  8
0
  6
LTYPE1
 62
     2
 10
1138.333333
 20
535.633317
 30
0.0
 11
1153.333333
 21
535.633317
 31
0.0
  0
LINE
  8
0
  6
LTYPE1
 62
     2
 10
1153.333333
 20
519.633317
 30
0.0
 11
1138.333333
 21
519.633317
 31
0.0
  0
ARC
  8
0
  6
CONTINUOUS
 62
     1
 10
1130.333333
 20
527.633317
 30
0.0
 40
42.5
 50
334.723825759
 51
85.276174241
  0
LINE
  8
0
  6
CONTINUOUS
 62
     1
 10
1150.333333
 20
542.633317
 30
0.0
 11
1153.333333
 21
542.633317
 31
0.0
  0
LINE
  8
0
  6
CONTINUOUS
 62
     1
 10
1150.333333
 20
512.633317
 30
0.0
 11
1153.333333
 21
512.633317
 31
0.0
  0
ARC
  8
0
  6
CONTINUOUS
 62
     1
 10
1130.333333
 20
527.633317
 30
0.0
 40
42.5
 50
214.723825759
 51
325.276174241
  0
LINE
  8
0
  6
CONTINUOUS
 62
     1
 10
1166.291336449
 20
510.914405913
 30
0.0
 11
1162.791336449
 21
504.852228087
 31
0.0
  0
LINE
  8
0
  6
CONTINUOUS
 62
     1
 10
1162.791336449
 20
504.852228087
 30
0.0
 11
1165.264390782
 21
503.424409502
 31
0.0
  0
LINE
  8
0
  6
CONTINUOUS
 62
     1
 10
1166.291336449
 20
510.914405913
 30
0.0
 11
1168.764390782
 21
509.486587329
 31
0.0
  0
ARC
  8
0
  6
CONTINUOUS
 62
     1
 10
1130.333333
 20
527.633317
 30
0.0
 40
42.5
 50
94.723825759
 51
205.276174241
  0
LINE
  8
0
  6
CONTINUOUS
 62
     1
 10
1094.375329551
 20
510.914405913
 30
0.0
 11
1091.902275218
 21
509.486587329
 31
0.0
  0
LINE
  8
0
  6
CONTINUOUS
 62
     1
 10
1097.875329551
 20
504.852228087
 30
0.0
 11
1094.375329551
 21
510.914405913
 31
0.0
  0
LINE
  8
0
  6
CONTINUOUS
 62
     1
 10
1097.875329551
 20
504.852228087
 30
0.0
 11
1095.402275218
 21
503.424409502
 31
0.0
  0
LINE
  8
0
  6
CONTINUOUS
 62
     1
 10
1107.333333
 20
512.633317
 30
0.0
 11
1107.333333
 21
542.633317
 31
0.0
  0
LINE
  8
0
  6
CONTINUOUS
 62
     1
 10
1110.333333
 20
512.633317
 30
0.0
 11
1107.333333
 21
512.633317
 31
0.0
  0
LINE
  8
0
  6
LTYPE1
 62
     2
 10
1107.333333
 20
519.633317
 30
0.0
 11
1122.333333
 21
519.633317
 31
0.0
  0
LINE
  8
0
  6
CONTINUOUS
 62
     1
 10
1107.333333
 20
519.633317
 30
0.0
 11
1099.333333
 21
519.633317
 31
0.0
  0
CIRCLE
  8
0
  6
CONTINUOUS
 62
     1
 10
1104.683333
 20
527.633317
 30
0.0
 40
2.0
  0
LINE
  8
0
  6
LTYPE3
 62
     2
 10
1104.683333
 20
523.233317
 30
0.0
 11
1104.683333
 21
531.633317
 31
0.0
  0
LINE
  8
0
  6
CONTINUOUS
 62
     1
 10
1099.333333
 20
535.633317
 30
0.0
 11
1099.333333
 21
519.633317
 31
0.0
  0
LINE
  8
0
  6
CONTINUOUS
 62
     1
 10
1107.333333
 20
535.633317
 30
0.0
 11
1099.333333
 21
535.633317
 31
0.0
  0
LINE
  8
0
  6
LTYPE1
 62
     2
 10
1122.333333
 20
535.633317
 30
0.0
 11
1107.333333
 21
535.633317
 31
0.0
  0
LINE
  8
0
  6
CONTINUOUS
 62
     1
 10
1110.333333
 20
542.633317
 30
0.0
 11
1107.333333
 21
542.633317
 31
0.0
  0
LINE
  8
0
  6
CONTINUOUS
 62
     1
 10
1126.833333
 20
567.133317
 30
0.0
 11
1133.833333
 21
567.133317
 31
0.0
  0
LINE
  8
0
  6
CONTINUOUS
 62
     1
 10
1133.833333
 20
567.133317
 30
0.0
 11
1133.833333
 21
569.988954169
 31
0.0
  0
LINE
  8
0
  6
CONTINUOUS
 62
     1
 10
1126.833333
 20
567.133317
 30
0.0
 11
1126.833333
 21
569.988954169
 31
0.0
  0
ARC
  8
0
  6
CONTINUOUS
 62
     1
 10
1083.733333
 20
431.633317
 30
0.0
 40
5.0
 50
272.3
 51
348.5
  0
ARC
  8
0
  6
CONTINUOUS
 62
     1
 10
1082.933333
 20
431.633317
 30
0.0
 40
5.0
 50
191.5
 51
267.7
  0
LINE
  8
0
  6
CONTINUOUS
 62
     1
 10
1083.933333
 20
426.633317
 30
0.0
 11
1082.733333
 21
426.633317
 31
0.0
  0
LINE
  8
0
  6
LTYPE5
 62
     2
 10
1083.333333
 20
423.233317
 30
0.0
 11
1083.333333
 21
436.633317
 31
0.0
  0
ARC
  8
0
  6
CONTINUOUS
 62
     1
 10
1177.733333
 20
431.633317
 30
0.0
 40
5.0
 50
272.3
 51
348.5
  0
ARC
  8
0
  6
CONTINUOUS
 62
     1
 10
1176.933333
 20
431.633317
 30
0.0
 40
5.0
 50
191.5
 51
267.7
  0
LINE
  8
0
  6
CONTINUOUS
 62
     1
 10
1177.933333
 20
426.633317
 30
0.0
 11
1176.733333
 21
426.633317
 31
0.0
  0
LINE
  8
0
  6
LTYPE5
 62
     2
 10
1177.333333
 20
423.233317
 30
0.0
 11
1177.333333
 21
436.633317
 31
0.0
  0
ARC
  8
0
  6
CONTINUOUS
 62
     1
 10
460.733333
 20
431.633317
 30
0.0
 40
5.0
 50
272.3
 51
348.5
  0
ARC
  8
0
  6
CONTINUOUS
 62
     1
 10
459.933333
 20
431.633317
 30
0.0
 40
5.0
 50
191.5
 51
267.7
  0
LINE
  8
0
  6
CONTINUOUS
 62
     1
 10
460.933333
 20
426.633317
 30
0.0
 11
459.733333
 21
426.633317
 31
0.0
  0
LINE
  8
0
  6
LTYPE5
 62
     2
 10
460.333333
 20
423.233317
 30
0.0
 11
460.333333
 21
436.633317
 31
0.0
  0
ARC
  8
0
  6
CONTINUOUS
 62
     1
 10
576.733333
 20
431.633317
 30
0.0
 40
5.0
 50
272.3
 51
348.5
  0
ARC
  8
0
  6
CONTINUOUS
 62
     1
 10
575.933333
 20
431.633317
 30
0.0
 40
5.0
 50
191.5
 51
267.7
  0
LINE
  8
0
  6
CONTINUOUS
 62
     1
 10
576.933333
 20
426.633317
 30
0.0
 11
575.733333
 21
426.633317
 31
0.0
  0
LINE
  8
0
  6
LTYPE5
 62
     2
 10
576.333333
 20
423.233317
 30
0.0
 11
576.333333
 21
436.633317
 31
0.0
  0
TEXT
  8
0
  6
CONTINUOUS
 62
     6
 10
389.693715102
 20
1325.121931782
 30
0.0
 40
11.8638
  1
ＡＣ１００Ｖ　１２５Ｖ　２５０Ｖ　－１０Ａ
 50
0.0
 41
0.726495726
 51
0.0
  7
KANJI30
  0
LINE
  8
0
  6
CONTINUOUS
 62
     2
 10
486.35
 20
202.75
 30
0.0
 11
494.07740661
 21
200.679447639
 31
0.0
  0
LINE
  8
0
  6
CONTINUOUS
 62
     2
 10
486.35
 20
202.75
 30
0.0
 11
494.07740661
 21
204.820552361
 31
0.0
  0
LINE
  8
0
  6
CONTINUOUS
 62
     2
 10
486.35
 20
202.75
 30
0.0
 11
623.95
 21
202.75
 31
0.0
  0
LINE
  8
0
  6
CONTINUOUS
 62
     2
 10
623.95
 20
202.75
 30
0.0
 11
616.22259339
 21
204.820552361
 31
0.0
  0
LINE
  8
0
  6
CONTINUOUS
 62
     2
 10
623.95
 20
202.75
 30
0.0
 11
616.22259339
 21
200.679447639
 31
0.0
  0
LINE
  8
0
  6
CONTINUOUS
 62
     2
 10
623.95
 20
201.55
 30
0.0
 11
623.95
 21
198.75
 31
0.0
  0
LINE
  8
0
  6
CONTINUOUS
 62
     2
 10
623.95
 20
202.75
 30
0.0
 11
631.67740661
 21
200.679447639
 31
0.0
  0
LINE
  8
0
  6
CONTINUOUS
 62
     2
 10
623.95
 20
202.75
 30
0.0
 11
631.67740661
 21
204.820552361
 31
0.0
  0
LINE
  8
0
  6
CONTINUOUS
 62
     2
 10
623.95
 20
202.75
 30
0.0
 11
826.35
 21
202.75
 31
0.0
  0
LINE
  8
0
  6
CONTINUOUS
 62
     2
 10
826.35
 20
202.75
 30
0.0
 11
818.62259339
 21
204.820552361
 31
0.0
  0
LINE
  8
0
  6
CONTINUOUS
 62
     2
 10
826.35
 20
202.75
 30
0.0
 11
818.62259339
 21
200.679447639
 31
0.0
  0
LINE
  8
0
  6
CONTINUOUS
 62
     2
 10
623.95
 20
176.420552361
 30
0.0
 11
616.22259339
 21
178.491104722
 31
0.0
  0
LINE
  8
0
  6
CONTINUOUS
 62
     2
 10
623.95
 20
176.420552361
 30
0.0
 11
616.22259339
 21
174.35
 31
0.0
  0
LINE
  8
0
  6
CONTINUOUS
 62
     2
 10
611.95
 20
176.420552361
 30
0.0
 11
623.95
 21
176.420552361
 31
0.0
  0
LINE
  8
0
  6
CONTINUOUS
 62
     2
 10
623.95
 20
176.420552361
 30
0.0
 11
644.75
 21
176.420552361
 31
0.0
  0
LINE
  8
0
  6
CONTINUOUS
 62
     2
 10
644.75
 20
176.420552361
 30
0.0
 11
652.47740661
 21
174.35
 31
0.0
  0
LINE
  8
0
  6
CONTINUOUS
 62
     2
 10
644.75
 20
176.420552361
 30
0.0
 11
652.47740661
 21
178.491104722
 31
0.0
  0
LINE
  8
0
  6
CONTINUOUS
 62
     2
 10
486.35
 20
151.15
 30
0.0
 11
486.35
 21
145.15
 31
0.0
  0
LINE
  8
0
  6
CONTINUOUS
 62
     2
 10
486.35
 20
149.15
 30
0.0
 11
494.07740661
 21
147.079447639
 31
0.0
  0
LINE
  8
0
  6
CONTINUOUS
 62
     2
 10
486.35
 20
149.15
 30
0.0
 11
494.07740661
 21
151.220552361
 31
0.0
  0
LINE
  8
0
  6
CONTINUOUS
 62
     2
 10
486.35
 20
149.15
 30
0.0
 11
644.75
 21
149.15
 31
0.0
  0
LINE
  8
0
  6
CONTINUOUS
 62
     2
 10
644.75
 20
149.15
 30
0.0
 11
637.02259339
 21
151.220552361
 31
0.0
  0
LINE
  8
0
  6
CONTINUOUS
 62
     2
 10
644.75
 20
149.15
 30
0.0
 11
637.02259339
 21
147.079447639
 31
0.0
  0
LINE
  8
0
  6
CONTINUOUS
 62
     2
 10
644.75
 20
150.35
 30
0.0
 11
644.75
 21
145.15
 31
0.0
  0
LINE
  8
0
  6
CONTINUOUS
 62
     2
 10
644.75
 20
149.15
 30
0.0
 11
652.47740661
 21
147.079447639
 31
0.0
  0
LINE
  8
0
  6
CONTINUOUS
 62
     2
 10
644.75
 20
149.15
 30
0.0
 11
652.47740661
 21
151.220552361
 31
0.0
  0
LINE
  8
0
  6
CONTINUOUS
 62
     2
 10
826.35
 20
145.55
 30
0.0
 11
826.35
 21
145.15
 31
0.0
  0
LINE
  8
0
  6
CONTINUOUS
 62
     2
 10
486.35
 20
119.95
 30
0.0
 11
494.07740661
 21
117.879447639
 31
0.0
  0
LINE
  8
0
  6
CONTINUOUS
 62
     2
 10
486.35
 20
119.95
 30
0.0
 11
494.07740661
 21
122.020552361
 31
0.0
  0
LINE
  8
0
  6
CONTINUOUS
 62
     2
 10
486.35
 20
119.95
 30
0.0
 11
803.95
 21
119.95
 31
0.0
  0
LINE
  8
0
  6
CONTINUOUS
 62
     2
 10
803.95
 20
119.95
 30
0.0
 11
796.22259339
 21
122.020552361
 31
0.0
  0
LINE
  8
0
  6
CONTINUOUS
 62
     2
 10
803.95
 20
119.95
 30
0.0
 11
796.22259339
 21
117.879447639
 31
0.0
  0
LINE
  8
0
  6
CONTINUOUS
 62
     2
 10
803.95
 20
120.75
 30
0.0
 11
803.95
 21
115.95
 31
0.0
  0
LINE
  8
0
  6
CONTINUOUS
 62
     2
 10
803.95
 20
119.95
 30
0.0
 11
796.22259339
 21
122.020552361
 31
0.0
  0
LINE
  8
0
  6
CONTINUOUS
 62
     2
 10
803.95
 20
119.95
 30
0.0
 11
796.22259339
 21
117.879447639
 31
0.0
  0
LINE
  8
0
  6
CONTINUOUS
 62
     2
 10
791.95
 20
119.95
 30
0.0
 11
803.95
 21
119.95
 31
0.0
  0
LINE
  8
0
  6
CONTINUOUS
 62
     2
 10
803.95
 20
119.95
 30
0.0
 11
826.35
 21
119.95
 31
0.0
  0
LINE
  8
0
  6
CONTINUOUS
 62
     2
 10
826.35
 20
119.95
 30
0.0
 11
834.07740661
 21
117.879447639
 31
0.0
  0
LINE
  8
0
  6
CONTINUOUS
 62
     2
 10
826.35
 20
119.95
 30
0.0
 11
834.07740661
 21
122.020552361
 31
0.0
  0
LINE
  8
0
  6
CONTINUOUS
 62
     2
 10
486.35
 20
213.55
 30
0.0
 11
486.35
 21
198.75
 31
0.0
  0
LINE
  8
0
  6
CONTINUOUS
 62
     2
 10
826.35
 20
213.55
 30
0.0
 11
826.35
 21
198.75
 31
0.0
  0
LINE
  8
0
  6
CONTINUOUS
 62
     2
 10
623.95
 20
202.35
 30
0.0
 11
623.95
 21
213.55
 31
0.0
  0
LINE
  8
0
  6
CONTINUOUS
 62
     2
 10
644.75
 20
189.220552361
 30
0.0
 11
644.75
 21
172.420552361
 31
0.0
  0
LINE
  8
0
  6
CONTINUOUS
 62
     2
 10
486.35
 20
198.75
 30
0.0
 11
486.35
 21
106.75
 31
0.0
  0
LINE
  8
0
  6
CONTINUOUS
 62
     2
 10
826.35
 20
202.75
 30
0.0
 11
826.35
 21
107.95
 31
0.0
  0
LINE
  8
0
  6
CONTINUOUS
 62
     2
 10
644.75
 20
176.420552361
 30
0.0
 11
644.75
 21
139.95
 31
0.0
  0
LINE
  8
0
  6
CONTINUOUS
 62
     2
 10
623.95
 20
202.75
 30
0.0
 11
623.95
 21
167.15
 31
0.0
  0
TEXT
  8
0
  6
CONTINUOUS
 62
     3
 10
528.15
 20
204.75
 30
0.0
 40
15.0
  1
ｍｉｎ．Ｌ
 50
0.0
 41
0.9
 51
0.0
  7
KANJI27
  0
TEXT
  8
0
  6
CONTINUOUS
 62
     3
 10
681.95
 20
204.75
 30
0.0
 40
15.0
  1
機械的ストローク
 50
0.0
 41
0.9
 51
0.0
  7
KANJI27
  0
TEXT
  8
0
  6
CONTINUOUS
 62
     3
 10
656.75
 20
178.420552361
 30
0.0
 40
15.0
  1
余裕
 50
0.0
 41
0.9
 51
0.0
  7
KANJI27
  0
TEXT
  8
0
  6
CONTINUOUS
 62
     3
 10
538.55
 20
151.15
 30
0.0
 40
15.0
  1
常用ｍｉｎ
 50
0.0
 41
0.9
 51
0.0
  7
KANJI27
  0
TEXT
  8
0
  6
CONTINUOUS
 62
     3
 10
697.75
 20
151.15
 30
0.0
 40
15.0
  1
常用ストローク
 50
0.0
 41
0.9
 51
0.0
  7
KANJI27
  0
TEXT
  8
0
  6
CONTINUOUS
 62
     3
 10
618.15
 20
121.95
 30
0.0
 40
15.0
  1
常用ｍａｘ
 50
0.0
 41
0.9
 51
0.0
  7
KANJI27
  0
TEXT
  8
0
  6
CONTINUOUS
 62
     3
 10
838.35
 20
121.95
 30
0.0
 40
15.0
  1
余裕
 50
0.0
 41
0.9
 51
0.0
  7
KANJI27
  0
LINE
  8
0
  6
CONTINUOUS
 62
     2
 10
644.75
 20
176.420552361
 30
0.0
 11
684.85
 21
176.420552361
 31
0.0
  0
LINE
  8
0
  6
CONTINUOUS
 62
     2
 10
826.35
 20
119.95
 30
0.0
 11
868.85
 21
119.95
 31
0.0
  0
LINE
  8
0
  6
CONTINUOUS
 62
     1
 10
853.6
 20
982.7
 30
0.0
 11
1501.6
 21
982.7
 31
0.0
  0
LINE
  8
0
  6
CONTINUOUS
 62
     1
 10
853.6
 20
1234.7
 30
0.0
 11
853.6
 21
982.7
 31
0.0
  0
LINE
  8
0
  6
CONTINUOUS
 62
     1
 10
1021.6
 20
1234.7
 30
0.0
 11
1021.6
 21
982.7
 31
0.0
  0
LINE
  8
0
  6
CONTINUOUS
 62
     2
 10
1101.6
 20
1234.7
 30
0.0
 11
1101.6
 21
982.7
 31
0.0
  0
LINE
  8
0
  6
CONTINUOUS
 62
     2
 10
1181.6
 20
1234.7
 30
0.0
 11
1181.6
 21
982.7
 31
0.0
  0
LINE
  8
0
  6
CONTINUOUS
 62
     2
 10
1261.6
 20
1234.7
 30
0.0
 11
1261.6
 21
982.7
 31
0.0
  0
LINE
  8
0
  6
CONTINUOUS
 62
     2
 10
1341.6
 20
1234.7
 30
0.0
 11
1341.6
 21
982.7
 31
0.0
  0
LINE
  8
0
  6
CONTINUOUS
 62
     2
 10
1421.6
 20
1234.7
 30
0.0
 11
1421.6
 21
982.7
 31
0.0
  0
LINE
  8
0
  6
CONTINUOUS
 62
     1
 10
1501.6
 20
1234.7
 30
0.0
 11
1501.6
 21
982.7
 31
0.0
  0
TEXT
  8
0
  6
CONTINUOUS
 62
     2
 10
866.6
 20
989.1
 30
0.8
 40
12.0
  1
ＭＣＬＢ０１－　　
 50
0.0
 41
0.833333333
 51
0.0
  7
KANJI24
  0
LINE
  8
0
  6
CONTINUOUS
 62
     2
 10
803.95
 20
162.0
 30
0.0
 11
803.95
 21
107.15
 31
0.0
  0
LINE
  8
0
  6
CONTINUOUS
 62
     2
 10
644.75
 20
149.15
 30
0.0
 11
803.95
 21
149.15
 31
0.0
  0
LINE
  8
0
  6
CONTINUOUS
 62
     2
 10
803.95
 20
149.15
 30
0.0
 11
796.22259339
 21
151.220552361
 31
0.0
  0
LINE
  8
0
  6
CONTINUOUS
 62
     2
 10
803.95
 20
149.15
 30
0.0
 11
796.22259339
 21
147.079447639
 31
0.0
  0
LINE
  8
7
  6
CONTINUOUS
 62
     2
 10
1203.851190143
 20
637.633317
 30
0.0
 11
1221.0
 21
637.633317
 31
0.0
  0
LINE
  8
0
  6
CONTINUOUS
 62
     1
 10
1570.1
 20
1349.25
 30
0.0
 11
2007.6
 21
1349.25
 31
0.0
  0
TEXT
  8
0
  6
CONTINUOUS
 62
     2
 10
1632.6
 20
1312.75
 30
14.2497
 40
22.5
  1
マイティシリンダ仕様
 50
0.0
 41
0.9
 51
0.0
  7
KANJI50
  0
LINE
  8
0
  6
CONTINUOUS
 62
     2
 10
1570.1
 20
739.25
 30
0.0
 11
2007.6
 21
739.25
 31
0.0
  0
LINE
  8
0
  6
CONTINUOUS
 62
     2
 10
1570.1
 20
704.25
 30
0.0
 11
2007.6
 21
704.25
 31
0.0
  0
LINE
  8
0
  6
CONTINUOUS
 62
     2
 10
1610.1
 20
774.25
 30
0.0
 11
2007.6
 21
774.25
 31
0.0
  0
LINE
  8
0
  6
CONTINUOUS
 62
     2
 10
1610.1
 20
1019.25
 30
0.0
 11
1610.1
 21
739.25
 31
0.0
  0
LINE
  8
0
  6
CONTINUOUS
 62
     2
 10
1610.1
 20
879.25
 30
0.0
 11
2007.6
 21
879.25
 31
0.0
  0
LINE
  8
0
  6
CONTINUOUS
 62
     2
 10
1610.1
 20
914.25
 30
0.0
 11
2007.6
 21
914.25
 31
0.0
  0
LINE
  8
0
  6
CONTINUOUS
 62
     2
 10
1570.1
 20
1089.25
 30
0.0
 11
2007.6
 21
1089.25
 31
0.0
  0
LINE
  8
0
  6
CONTINUOUS
 62
     2
 10
1570.1
 20
1054.25
 30
0.0
 11
2007.6
 21
1054.25
 31
0.0
  0
LINE
  8
0
  6
CONTINUOUS
 62
     2
 10
1570.1
 20
1019.25
 30
0.0
 11
2007.6
 21
1019.25
 31
0.0
  0
LINE
  8
0
  6
CONTINUOUS
 62
     2
 10
1610.1
 20
949.25
 30
0.0
 11
2007.6
 21
949.25
 31
0.0
  0
LINE
  8
0
  6
CONTINUOUS
 62
     2
 10
1610.1
 20
984.25
 30
0.0
 11
2007.6
 21
984.25
 31
0.0
  0
LINE
  8
0
  6
CONTINUOUS
 62
     2
 10
1570.1
 20
1264.25
 30
0.0
 11
2007.6
 21
1264.25
 31
0.0
  0
LINE
  8
0
  6
CONTINUOUS
 62
     2
 10
1570.1
 20
1229.25
 30
0.0
 11
2007.6
 21
1229.25
 31
0.0
  0
LINE
  8
0
  6
CONTINUOUS
 62
     2
 10
1570.1
 20
1194.25
 30
0.0
 11
2007.6
 21
1194.25
 31
0.0
  0
LINE
  8
0
  6
CONTINUOUS
 62
     2
 10
1570.1
 20
1159.25
 30
0.0
 11
2007.6
 21
1159.25
 31
0.0
  0
LINE
  8
0
  6
CONTINUOUS
 62
     2
 10
1570.1
 20
1124.25
 30
0.0
 11
2007.6
 21
1124.25
 31
0.0
  0
LINE
  8
0
  6
CONTINUOUS
 62
     2
 10
1570.1
 20
1299.25
 30
0.0
 11
2007.6
 21
1299.25
 31
0.0
  0
TEXT
  8
0
  6
CONTINUOUS
 62
     2
 10
1632.6
 20
958.25
 30
27.866485714
 40
19.0
  1
電源電圧
 50
0.0
 41
0.9
 51
0.0
  7
KANJI51
  0
TEXT
  8
0
  6
CONTINUOUS
 62
     2
 10
1632.6
 20
923.25
 30
50.35
 40
19.0
  1
周波数
 50
0.0
 41
0.9
 51
0.0
  7
KANJI52
  0
TEXT
  8
0
  6
CONTINUOUS
 62
     2
 10
1632.6
 20
888.25
 30
117.8
 40
19.0
  1
電流
 50
0.0
 41
0.9
 51
0.0
  7
KANJI53
  0
TEXT
  8
0
  6
CONTINUOUS
 62
     2
 10
1632.6
 20
853.25
 30
50.35
 40
19.0
  1
絶縁級
 50
0.0
 41
0.9
 51
0.0
  7
KANJI52
  0
TEXT
  8
0
  6
CONTINUOUS
 62
     2
 10
1597.6
 20
1273.25
 30
150.371428571
 40
19.0
  1
形式
 50
0.0
 41
0.9
 51
0.0
  7
KANJI54
  0
TEXT
  8
0
  6
CONTINUOUS
 62
     2
 10
1597.6
 20
1238.25
 30
150.371428571
 40
19.0
  1
推力
 50
0.0
 41
0.9
 51
0.0
  7
KANJI54
  0
TEXT
  8
0
  6
CONTINUOUS
 62
     2
 10
1597.6
 20
1203.25
 30
24.767857143
 40
19.0
  1
ストローク
 50
0.0
 41
0.9
 51
0.0
  7
KANJI55
  0
TEXT
  8
0
  6
CONTINUOUS
 62
     2
 10
1597.6
 20
1098.25
 30
150.371428571
 40
19.0
  1
構造
 50
0.0
 41
0.9
 51
0.0
  7
KANJI54
  0
TEXT
  8
0
  6
CONTINUOUS
 62
     2
 10
1597.6
 20
1063.25
 30
10.811542857
 40
19.0
  1
過負荷安全装置
 50
0.0
 41
0.9
 51
0.0
  7
KANJI56
  0
TEXT
  8
0
  6
CONTINUOUS
 62
     2
 10
1597.6
 20
1028.25
 30
66.635714286
 40
19.0
  1
塗装色
 50
0.0
 41
0.9
 51
0.0
  7
KANJI57
  0
TEXT
  8
0
  6
CONTINUOUS
 62
     2
 10
1577.6
 20
1133.25
 30
1.628571429
 40
19.0
  1
ピストンロッド回転トルク
 50
0.0
 41
0.9
 51
0.0
  7
KANJI58
  0
TEXT
  8
0
  6
CONTINUOUS
 62
     2
 10
1597.6
 20
713.25
 30
66.635714286
 40
19.0
  1
付属品
 50
0.0
 41
0.9
 51
0.0
  7
KANJI57
  0
LINE
  8
0
  6
CONTINUOUS
 62
     2
 10
1570.1
 20
844.25
 30
0.0
 11
2007.6
 21
844.25
 31
0.0
  0
LINE
  8
0
  6
CONTINUOUS
 62
     2
 10
1610.1
 20
809.25
 30
0.0
 11
2007.6
 21
809.25
 31
0.0
  0
TEXT
  8
0
  6
CONTINUOUS
 62
     2
 10
1590.475
 20
1014.25
 30
11.0
 40
17.5
  1
モ　トル仕様
 50
0.0
 41
0.9
 51
0.0
  7
KANJI59
  0
TEXT
  8
0
  6
CONTINUOUS
 62
     2
 10
1590.475
 20
829.25
 30
1.0
 40
17.5
  1
ブレ　キ
 50
0.0
 41
0.9
 51
0.0
  7
KANJI60
  0
LINE
  8
0
  6
CONTINUOUS
 62
     2
 10
1589.1
 20
787.75
 30
0.0
 11
1589.1
 21
777.25
 31
0.0
  0
TEXT
  8
0
  6
CONTINUOUS
 62
     2
 10
1848.85
 20
1064.25
 30
7.5
 40
17.5
  1
推力リミッタ
 50
0.0
 41
0.9
 51
0.0
  7
KANJI61
  0
TEXT
  8
0
  6
CONTINUOUS
 62
     2
 10
1896.35
 20
854.25
 30
1.5
 40
15.0
  1
Ｅ
 50
0.0
 41
0.9
 51
0.0
  7
KANJI62
  0
TEXT
  8
0
  6
CONTINUOUS
 62
     2
 10
1860.1
 20
783.25
 30
10.0
 40
17.5
  1
同時切り
 50
0.0
 41
0.9
 51
0.0
  7
KANJI63
  0
TEXT
  8
0
  6
CONTINUOUS
 62
     2
 10
1632.6
 20
818.25
 30
117.8
 40
19.0
  1
形式
 50
0.0
 41
0.9
 51
0.0
  7
KANJI53
  0
TEXT
  8
0
  6
CONTINUOUS
 62
     2
 10
1632.6
 20
783.25
 30
27.866485714
 40
19.0
  1
操作方式
 50
0.0
 41
0.9
 51
0.0
  7
KANJI51
  0
LINE
  8
0
  6
CONTINUOUS
 62
     2
 10
1589.1
 20
983.75
 30
0.0
 11
1589.1
 21
972.25
 31
0.0
  0
TEXT
  8
0
  6
CONTINUOUS
 62
     2
 10
1632.6
 20
993.25
 30
2.5
 40
19.0
  1
出力　相数　極数
 50
0.0
 41
0.9
 51
0.0
  7
KANJI64
  0
TEXT
  8
0
  6
CONTINUOUS
 62
     2
 10
1597.6
 20
1168.25
 30
10.0
 40
19.0
  1
公称速度
 50
0.0
 41
0.9
 51
0.0
  7
KANJI65
  0
TEXT
  8
0
  6
CONTINUOUS
 62
     2
 10
1700.85
 20
1167.25
 30
0.0
 40
17.5
  1
（５０／６０Ｈｚ）
 50
0.0
 41
0.628571429
 51
0.0
  7
KANJI66
  0
TEXT
  8
0
  6
CONTINUOUS
 62
     2
 10
1801.35
 20
818.625
 30
2.75
 40
17.0
  1
スプリング制動式電磁ブレーキ
 50
0.0
 41
0.705882353
 51
0.0
  7
KANJI67
  0
TEXT
  8
0
  6
CONTINUOUS
 62
     2
 10
1983.85
 20
958.25
 30
0.18
 40
15.0
  1
Ｖ
 50
0.0
 41
0.8
 51
0.0
  7
KANJI68
  0
TEXT
  8
0
  6
CONTINUOUS
 62
     2
 10
1974.85
 20
923.25
 30
0.18
 40
15.0
  1
Ｈｚ
 50
0.0
 41
0.8
 51
0.0
  7
KANJI68
  0
TEXT
  8
0
  6
CONTINUOUS
 62
     2
 10
1983.85
 20
888.25
 30
0.18
 40
15.0
  1
Ａ
 50
0.0
 41
0.8
 51
0.0
  7
KANJI68
  0
TEXT
  8
0
  6
CONTINUOUS
 62
     2
 10
1918.1
 20
994.25
 30
1.5
 40
15.0
  1
３φ
 50
0.0
 41
0.9
 51
0.0
  7
KANJI62
  0
TEXT
  8
0
  6
CONTINUOUS
 62
     2
 10
1968.1
 20
994.25
 30
1.5
 40
15.0
  1
４Ｐ
 50
0.0
 41
0.9
 51
0.0
  7
KANJI62
  0
TEXT
  8
0
  6
CONTINUOUS
 62
     2
 10
1800.1
 20
1029.25
 30
1.0
 40
16.0
  1
マンセル　７．５ＧＹ　５／４．５
 50
0.0
 41
0.71875
 51
0.0
  7
KANJI69
  0
TEXT
  8
0
  6
CONTINUOUS
 62
     2
 10
1800.1
 20
959.25
 30
1.5
 40
15.0
  1
　　　　　　　／　　　
 50
0.0
 41
0.9
 51
0.0
  7
KANJI62
  0
TEXT
  8
0
  6
CONTINUOUS
 62
     2
 10
1800.1
 20
924.25
 30
1.5
 40
15.0
  1
　　　　５０／　６０
 50
0.0
 41
0.9
 51
0.0
  7
KANJI62
  0
TEXT
  8
0
  6
CONTINUOUS
 62
     2
 10
1800.1
 20
889.25
 30
1.5
 40
15.0
  1
　　　　　　　／　　　
 50
0.0
 41
0.9
 51
0.0
  7
KANJI62
  0
TEXT
  8
0
  6
CONTINUOUS
 62
     2
 10
1970.6
 20
1205.25
 30
0.128
 40
16.0
  1
ｍｍ
 50
0.0
 41
0.8
 51
0.0
  7
KANJI70
  0
TEXT
  8
0
  6
CONTINUOUS
 62
     2
 10
1938.1
 20
1169.25
 30
0.0
 40
17.5
  1
ｍｍ／ｓｅｃ
 50
0.0
 41
0.571428571
 51
0.0
  7
KANJI71
  0
TEXT
  8
0
  6
CONTINUOUS
 62
     2
 10
1805.1
 20
994.25
 30
1.5
 40
15.0
  1
　０．３ＫＷ
 50
0.0
 41
0.9
 51
0.0
  7
KANJI62
  0
TEXT
  8
0
  6
CONTINUOUS
 62
     2
 10
1848.85
 20
1099.25
 30
7.5
 40
17.5
  1
全閉屋内形
 50
0.0
 41
0.9
 51
0.0
  7
KANJI61
  0
TEXT
  8
0
  6
CONTINUOUS
 62
     2
 10
1811.35
 20
1272.5
 30
1.0
 40
15.0
  1
ＭＣＬＢ０１－　
 50
0.0
 41
0.833333333
 51
0.0
  7
KANJI72
  0
TEXT
  8
0
  6
CONTINUOUS
 62
     2
 10
1797.6
 20
1169.25
 30
1.5
 40
15.0
  1
　　２５／３０
 50
0.0
 41
0.9
 51
0.0
  7
KANJI62
  0
TEXT
  8
0
  6
CONTINUOUS
 62
     2
 10
1836.6
 20
1239.25
 30
1.5
 40
15.0
  1
９８０Ｎ（１００ｋｇ）
 50
0.0
 41
0.9
 51
0.0
  7
KANJI62
  0
TEXT
  8
0
  6
CONTINUOUS
 62
     2
 10
1808.225
 20
1133.125
 30
0.0
 40
15.0
  1
２．９Ｎ・ｍ（０．３ｋｇ・ｍ）
 50
0.0
 41
0.833333333
 51
0.0
  7
KANJI73
  0
LINE
  8
0
  6
CONTINUOUS
 62
     1
 10
1570.1
 20
634.25
 30
0.0
 11
2007.6
 21
634.25
 31
0.0
  0
TEXT
  8
0
  6
CONTINUOUS
 62
     2
 10
1607.6
 20
643.25
 30
5.0
 40
17.5
  1
概算重量（１台当り）
 50
0.0
 41
0.857142857
 51
0.0
  7
KANJI22
  0
LINE
  8
0
  6
CONTINUOUS
 62
     2
 10
1570.1
 20
669.25
 30
0.0
 11
2007.6
 21
669.25
 31
0.0
  0
TEXT
  8
0
  6
CONTINUOUS
 62
     2
 10
1961.6
 20
644.4
 30
0.0
 40
17.5
  1
ｋｇ
 50
0.0
 41
0.9
 51
0.0
  7
KANJI74
  0
TEXT
  8
0
  6
CONTINUOUS
 62
     2
 10
1597.6
 20
678.25
 30
150.371428571
 40
19.0
  1
台数
 50
0.0
 41
0.9
 51
0.0
  7
KANJI54
  0
LINE
  8
0
  6
CONTINUOUS
 62
     1
 10
1570.1
 20
1349.25
 30
0.0
 11
1570.1
 21
634.25
 31
0.0
  0
LINE
  8
0
  6
CONTINUOUS
 62
     2
 10
1800.1
 20
1299.25
 30
0.0
 11
1800.1
 21
634.25
 31
0.0
  0
LINE
  8
0
  6
CONTINUOUS
 62
     1
 10
2007.6
 20
1349.25
 30
0.0
 11
2007.6
 21
634.25
 31
0.0
  0
TEXT
  8
0
  6
CONTINUOUS
 62
     2
 10
1382.2666945
 20
97.749995
 30
1.5
 40
17.5
  1
０７．０９．２６
 50
0.0
 41
0.571428571
 51
0.0
  7
KANJI75
  0
ENDSEC
  0
EOF
