  0
SECTION
  2
HEADER
  9
$ACADVER
  1
AC1009
  9
$DWGCODEPAGE
  3
dos932
  9
$EXTMIN
 10
0.0
 20
0.0
 30
0.0
  9
$EXTMAX
 10
2100.0
 20
1485.0
 30
0.0
  9
$LIMMIN
 10
0.0
 20
0.0
  9
$LIMMAX
 10
2100.0
 20
1485.0
  9
$LTSCALE
 40
1.0
  9
$PDMODE
 70
     0
  0
ENDSEC
  0
SECTION
  2
TABLES
  0
TABLE
  2
VPORT
 70
     1
  0
VPORT
  2
*ACTIVE
 70
     0
 10
0.0
 20
0.0
 11
1.0
 21
1.0
 12
1050.0
 22
742.5
 13
0.0
 23
0.0
 14
10.0
 24
10.0
 15
10.0
 25
10.0
 16
0.0
 26
0.0
 36
1.0
 17
0.0
 27
0.0
 37
0.0
 40
2100.0
 41
1.414141414
 42
50.0
 43
0.0
 44
0.0
 50
0.0
 51
0.0
 71
     0
 72
  1000
 73
     1
 74
     3
 75
     0
 76
     0
 77
     0
 78
     0
  0
ENDTAB
  0
TABLE
  2
LTYPE
 70
     7
  0
LTYPE
  2
CONTINUOUS
 70
    64
  3
Solid line
 72
    65
 73
     0
 40
0.0
  0
LTYPE
  2
LTYPE1
 70
    64
  3
HIDDEN
 72
    65
 73
     2
 40
15.0
 49
9.0
 49
-6.0
  0
LTYPE
  2
LTYPE2
 70
    64
  3
CENTER
 72
    65
 73
     4
 40
75.0
 49
52.5
 49
-7.5
 49
7.5
 49
-7.5
  0
LTYPE
  2
LTYPE3
 70
    64
  3
CENTER
 72
    65
 73
     4
 40
50.0
 49
35.0
 49
-5.0
 49
5.0
 49
-5.0
  0
LTYPE
  2
LTYPE4
 70
    64
  3
CENTER
 72
    65
 73
     4
 40
100.0
 49
70.0
 49
-10.0
 49
10.0
 49
-10.0
  0
LTYPE
  2
LTYPE5
 70
    64
  3
PHANTOM
 72
    65
 73
     6
 40
50.0
 49
37.5
 49
-2.5
 49
2.5
 49
-2.5
 49
2.5
 49
-2.5
  0
LTYPE
  2
LTYPE6
 70
    64
  3
CENTER
 72
    65
 73
     4
 40
45.0
 49
31.5
 49
-4.5
 49
4.5
 49
-4.5
  0
ENDTAB
  0
TABLE
  2
LAYER
 70
   128
  0
LAYER
  2
0
 70
     0
 62
     7
  6
CONTINUOUS
  0
LAYER
  2
2
 70
     0
 62
     7
  6
CONTINUOUS
  0
LAYER
  2
3
 70
     0
 62
     7
  6
CONTINUOUS
  0
LAYER
  2
4
 70
     0
 62
     7
  6
CONTINUOUS
  0
LAYER
  2
5
 70
     0
 62
     7
  6
CONTINUOUS
  0
LAYER
  2
6
 70
     0
 62
     7
  6
CONTINUOUS
  0
LAYER
  2
7
 70
     0
 62
     7
  6
CONTINUOUS
  0
LAYER
  2
8
 70
     0
 62
     7
  6
CONTINUOUS
  0
LAYER
  2
9
 70
     0
 62
     7
  6
CONTINUOUS
  0
LAYER
  2
10
 70
     0
 62
     7
  6
CONTINUOUS
  0
LAYER
  2
11
 70
     0
 62
     7
  6
CONTINUOUS
  0
LAYER
  2
12
 70
     0
 62
     7
  6
CONTINUOUS
  0
LAYER
  2
13
 70
     0
 62
     7
  6
CONTINUOUS
  0
LAYER
  2
14
 70
     0
 62
     7
  6
CONTINUOUS
  0
LAYER
  2
15
 70
     0
 62
     7
  6
CONTINUOUS
  0
LAYER
  2
16
 70
     0
 62
     7
  6
CONTINUOUS
  0
LAYER
  2
17
 70
     0
 62
     7
  6
CONTINUOUS
  0
LAYER
  2
18
 70
     0
 62
     7
  6
CONTINUOUS
  0
LAYER
  2
19
 70
     0
 62
     7
  6
CONTINUOUS
  0
LAYER
  2
20
 70
     0
 62
     7
  6
CONTINUOUS
  0
LAYER
  2
21
 70
     0
 62
     7
  6
CONTINUOUS
  0
LAYER
  2
22
 70
     0
 62
     7
  6
CONTINUOUS
  0
LAYER
  2
23
 70
     0
 62
     7
  6
CONTINUOUS
  0
LAYER
  2
24
 70
     0
 62
     7
  6
CONTINUOUS
  0
LAYER
  2
25
 70
     0
 62
     7
  6
CONTINUOUS
  0
LAYER
  2
26
 70
     0
 62
     7
  6
CONTINUOUS
  0
LAYER
  2
27
 70
     0
 62
     7
  6
CONTINUOUS
  0
LAYER
  2
28
 70
     0
 62
     7
  6
CONTINUOUS
  0
LAYER
  2
29
 70
     0
 62
     7
  6
CONTINUOUS
  0
LAYER
  2
30
 70
     0
 62
     7
  6
CONTINUOUS
  0
LAYER
  2
31
 70
     0
 62
     7
  6
CONTINUOUS
  0
LAYER
  2
32
 70
     0
 62
     7
  6
CONTINUOUS
  0
LAYER
  2
33
 70
     0
 62
     7
  6
CONTINUOUS
  0
LAYER
  2
34
 70
     0
 62
     7
  6
CONTINUOUS
  0
LAYER
  2
35
 70
     0
 62
     7
  6
CONTINUOUS
  0
LAYER
  2
36
 70
     0
 62
     7
  6
CONTINUOUS
  0
LAYER
  2
37
 70
     0
 62
     7
  6
CONTINUOUS
  0
LAYER
  2
38
 70
     0
 62
     7
  6
CONTINUOUS
  0
LAYER
  2
39
 70
     0
 62
     7
  6
CONTINUOUS
  0
LAYER
  2
40
 70
     0
 62
     7
  6
CONTINUOUS
  0
LAYER
  2
41
 70
     0
 62
     7
  6
CONTINUOUS
  0
LAYER
  2
42
 70
     0
 62
     7
  6
CONTINUOUS
  0
LAYER
  2
43
 70
     0
 62
     7
  6
CONTINUOUS
  0
LAYER
  2
44
 70
     0
 62
     7
  6
CONTINUOUS
  0
LAYER
  2
45
 70
     0
 62
     7
  6
CONTINUOUS
  0
LAYER
  2
46
 70
     0
 62
     7
  6
CONTINUOUS
  0
LAYER
  2
47
 70
     0
 62
     7
  6
CONTINUOUS
  0
LAYER
  2
48
 70
     0
 62
     7
  6
CONTINUOUS
  0
LAYER
  2
49
 70
     0
 62
     7
  6
CONTINUOUS
  0
LAYER
  2
50
 70
     0
 62
     7
  6
CONTINUOUS
  0
LAYER
  2
51
 70
     0
 62
     7
  6
CONTINUOUS
  0
LAYER
  2
52
 70
     0
 62
     7
  6
CONTINUOUS
  0
LAYER
  2
53
 70
     0
 62
     7
  6
CONTINUOUS
  0
LAYER
  2
54
 70
     0
 62
     7
  6
CONTINUOUS
  0
LAYER
  2
55
 70
     0
 62
     7
  6
CONTINUOUS
  0
LAYER
  2
56
 70
     0
 62
     7
  6
CONTINUOUS
  0
LAYER
  2
57
 70
     0
 62
     7
  6
CONTINUOUS
  0
LAYER
  2
58
 70
     0
 62
     7
  6
CONTINUOUS
  0
LAYER
  2
59
 70
     0
 62
     7
  6
CONTINUOUS
  0
LAYER
  2
60
 70
     0
 62
     7
  6
CONTINUOUS
  0
LAYER
  2
61
 70
     0
 62
     7
  6
CONTINUOUS
  0
LAYER
  2
62
 70
     0
 62
     7
  6
CONTINUOUS
  0
LAYER
  2
63
 70
     0
 62
     7
  6
CONTINUOUS
  0
LAYER
  2
64
 70
     0
 62
     7
  6
CONTINUOUS
  0
LAYER
  2
65
 70
     0
 62
     7
  6
CONTINUOUS
  0
LAYER
  2
66
 70
     0
 62
     7
  6
CONTINUOUS
  0
LAYER
  2
67
 70
     0
 62
     7
  6
CONTINUOUS
  0
LAYER
  2
68
 70
     0
 62
     7
  6
CONTINUOUS
  0
LAYER
  2
69
 70
     0
 62
     7
  6
CONTINUOUS
  0
LAYER
  2
70
 70
     0
 62
     7
  6
CONTINUOUS
  0
LAYER
  2
71
 70
     0
 62
     7
  6
CONTINUOUS
  0
LAYER
  2
72
 70
     0
 62
     7
  6
CONTINUOUS
  0
LAYER
  2
73
 70
     0
 62
     7
  6
CONTINUOUS
  0
LAYER
  2
74
 70
     0
 62
     7
  6
CONTINUOUS
  0
LAYER
  2
75
 70
     0
 62
     7
  6
CONTINUOUS
  0
LAYER
  2
76
 70
     0
 62
     7
  6
CONTINUOUS
  0
LAYER
  2
77
 70
     0
 62
     7
  6
CONTINUOUS
  0
LAYER
  2
78
 70
     0
 62
     7
  6
CONTINUOUS
  0
LAYER
  2
79
 70
     0
 62
     7
  6
CONTINUOUS
  0
LAYER
  2
80
 70
     0
 62
     7
  6
CONTINUOUS
  0
LAYER
  2
81
 70
     0
 62
     7
  6
CONTINUOUS
  0
LAYER
  2
82
 70
     0
 62
     7
  6
CONTINUOUS
  0
LAYER
  2
83
 70
     0
 62
     7
  6
CONTINUOUS
  0
LAYER
  2
84
 70
     0
 62
     7
  6
CONTINUOUS
  0
LAYER
  2
85
 70
     0
 62
     7
  6
CONTINUOUS
  0
LAYER
  2
86
 70
     0
 62
     7
  6
CONTINUOUS
  0
LAYER
  2
87
 70
     0
 62
     7
  6
CONTINUOUS
  0
LAYER
  2
88
 70
     0
 62
     7
  6
CONTINUOUS
  0
LAYER
  2
89
 70
     0
 62
     7
  6
CONTINUOUS
  0
LAYER
  2
90
 70
     0
 62
     7
  6
CONTINUOUS
  0
LAYER
  2
91
 70
     0
 62
     7
  6
CONTINUOUS
  0
LAYER
  2
92
 70
     0
 62
     7
  6
CONTINUOUS
  0
LAYER
  2
93
 70
     0
 62
     7
  6
CONTINUOUS
  0
LAYER
  2
94
 70
     0
 62
     7
  6
CONTINUOUS
  0
LAYER
  2
95
 70
     0
 62
     7
  6
CONTINUOUS
  0
LAYER
  2
96
 70
     0
 62
     7
  6
CONTINUOUS
  0
LAYER
  2
97
 70
     0
 62
     7
  6
CONTINUOUS
  0
LAYER
  2
98
 70
     0
 62
     7
  6
CONTINUOUS
  0
LAYER
  2
99
 70
     0
 62
     7
  6
CONTINUOUS
  0
LAYER
  2
100
 70
     0
 62
     7
  6
CONTINUOUS
  0
LAYER
  2
101
 70
     0
 62
     7
  6
CONTINUOUS
  0
LAYER
  2
102
 70
     0
 62
     7
  6
CONTINUOUS
  0
LAYER
  2
103
 70
     0
 62
     7
  6
CONTINUOUS
  0
LAYER
  2
104
 70
     0
 62
     7
  6
CONTINUOUS
  0
LAYER
  2
105
 70
     0
 62
     7
  6
CONTINUOUS
  0
LAYER
  2
106
 70
     0
 62
     7
  6
CONTINUOUS
  0
LAYER
  2
107
 70
     0
 62
     7
  6
CONTINUOUS
  0
LAYER
  2
108
 70
     0
 62
     7
  6
CONTINUOUS
  0
LAYER
  2
109
 70
     0
 62
     7
  6
CONTINUOUS
  0
LAYER
  2
110
 70
     0
 62
     7
  6
CONTINUOUS
  0
LAYER
  2
111
 70
     0
 62
     7
  6
CONTINUOUS
  0
LAYER
  2
112
 70
     0
 62
     7
  6
CONTINUOUS
  0
LAYER
  2
113
 70
     0
 62
     7
  6
CONTINUOUS
  0
LAYER
  2
114
 70
     0
 62
     7
  6
CONTINUOUS
  0
LAYER
  2
115
 70
     0
 62
     7
  6
CONTINUOUS
  0
LAYER
  2
116
 70
     0
 62
     7
  6
CONTINUOUS
  0
LAYER
  2
117
 70
     0
 62
     7
  6
CONTINUOUS
  0
LAYER
  2
118
 70
     0
 62
     7
  6
CONTINUOUS
  0
LAYER
  2
119
 70
     0
 62
     7
  6
CONTINUOUS
  0
LAYER
  2
120
 70
     0
 62
     7
  6
CONTINUOUS
  0
LAYER
  2
121
 70
     0
 62
     7
  6
CONTINUOUS
  0
LAYER
  2
122
 70
     0
 62
     7
  6
CONTINUOUS
  0
LAYER
  2
123
 70
     0
 62
     7
  6
CONTINUOUS
  0
LAYER
  2
124
 70
     0
 62
     7
  6
CONTINUOUS
  0
LAYER
  2
125
 70
     0
 62
     7
  6
CONTINUOUS
  0
LAYER
  2
126
 70
     0
 62
     7
  6
CONTINUOUS
  0
LAYER
  2
127
 70
     0
 62
     7
  6
CONTINUOUS
  0
LAYER
  2
128
 70
     0
 62
     7
  6
CONTINUOUS
  0
ENDTAB
  0
TABLE
  2
STYLE
 70
    77
  0
STYLE
  2
STANDARD
 70
     0
 40
0.0
 41
1.0
 50
0.0
 71
     0
 42
0.2
  3
txt.shx
  4
extfont.shx
  0
STYLE
  2
KANJI0
 70
     0
 40
9.999997897
 41
0.6
 50
0.0
 71
     0
 42
9.999997897
  3
txt.shx
  4
extfont.shx
  0
STYLE
  2
KANJI1
 70
     0
 40
11.999997477
 41
0.9
 50
0.0
 71
     0
 42
11.999997477
  3
txt.shx
  4
extfont.shx
  0
STYLE
  2
KANJI2
 70
     0
 40
14.999996846
 41
0.9
 50
0.0
 71
     0
 42
14.999996846
  3
txt.shx
  4
extfont.shx
  0
STYLE
  2
KANJI3
 70
     0
 40
12.999999
 41
0.75
 50
0.0
 71
     0
 42
12.999999
  3
txt.shx
  4
extfont.shx
  0
STYLE
  2
KANJI4
 70
     0
 40
8.666666
 41
0.6
 50
0.0
 71
     0
 42
8.666666
  3
txt.shx
  4
extfont.shx
  0
STYLE
  2
KANJI5
 70
     0
 40
10.3999992
 41
0.6
 50
0.0
 71
     0
 42
10.3999992
  3
txt.shx
  4
extfont.shx
  0
STYLE
  2
KANJI6
 70
     0
 40
15.1666655
 41
0.42031746
 50
0.0
 71
     0
 42
15.1666655
  3
txt.shx
  4
extfont.shx
  0
STYLE
  2
KANJI7
 70
     0
 40
25.999998
 41
0.9
 50
0.0
 71
     0
 42
25.999998
  3
txt.shx
  4
extfont.shx
  0
STYLE
  2
KANJI8
 70
     0
 40
22.5
 41
0.666666667
 50
0.0
 71
     0
 42
22.5
  3
txt.shx
  4
extfont.shx
  0
STYLE
  2
KANJI9
 70
     0
 40
18.0
 41
1.111111111
 50
0.0
 71
     0
 42
18.0
  3
txt.shx
  4
extfont.shx
  0
STYLE
  2
KANJI10
 70
     0
 40
8.666666
 41
0.8
 50
0.0
 71
     0
 42
8.666666
  3
txt.shx
  4
extfont.shx
  0
STYLE
  2
KANJI11
 70
     0
 40
10.3999992
 41
0.8
 50
0.0
 71
     0
 42
10.3999992
  3
txt.shx
  4
extfont.shx
  0
STYLE
  2
KANJI12
 70
     0
 40
25.0
 41
1.0
 50
0.0
 71
     0
 42
25.0
  3
txt.shx
  4
extfont.shx
  0
STYLE
  2
KANJI13
 70
     0
 40
25.0
 41
1.0
 50
0.0
 71
     0
 42
25.0
  3
txt.shx
  4
extfont.shx
  0
STYLE
  2
KANJI14
 70
     0
 40
25.0
 41
0.8
 50
0.0
 71
     0
 42
25.0
  3
txt.shx
  4
extfont.shx
  0
STYLE
  2
KANJI15
 70
     0
 40
20.0
 41
1.0
 50
0.0
 71
     0
 42
20.0
  3
txt.shx
  4
extfont.shx
  0
STYLE
  2
KANJI16
 70
     0
 40
17.5
 41
0.857142857
 50
0.0
 71
     0
 42
17.5
  3
txt.shx
  4
extfont.shx
  0
STYLE
  2
KANJI17
 70
     0
 40
12.8
 41
0.9
 50
0.0
 71
     0
 42
12.8
  3
txt.shx
  4
extfont.shx
  0
STYLE
  2
KANJI18
 70
     0
 40
12.0
 41
0.9
 50
0.0
 71
     0
 42
12.0
  3
txt.shx
  4
extfont.shx
  0
STYLE
  2
KANJI19
 70
     0
 40
12.0
 41
0.9
 50
0.0
 71
     0
 42
12.0
  3
txt.shx
  4
extfont.shx
  0
STYLE
  2
KANJI20
 70
     0
 40
14.0
 41
0.9
 50
0.0
 71
     0
 42
14.0
  3
txt.shx
  4
extfont.shx
  0
STYLE
  2
KANJI21
 70
     0
 40
10.8
 41
0.740740741
 50
0.0
 71
     0
 42
10.8
  3
txt.shx
  4
extfont.shx
  0
STYLE
  2
KANJI22
 70
     0
 40
14.0
 41
0.857142857
 50
0.0
 71
     0
 42
14.0
  3
txt.shx
  4
extfont.shx
  0
STYLE
  2
KANJI23
 70
     0
 40
11.661
 41
0.822608696
 50
0.0
 71
     0
 42
11.661
  3
txt.shx
  4
extfont.shx
  0
STYLE
  2
KANJI24
 70
     0
 40
13.182
 41
0.85
 50
0.0
 71
     0
 42
13.182
  3
txt.shx
  4
extfont.shx
  0
STYLE
  2
KANJI25
 70
     0
 40
11.8638
 41
0.726495726
 50
0.0
 71
     0
 42
11.8638
  3
txt.shx
  4
extfont.shx
  0
STYLE
  2
KANJI26
 70
     4
 40
55.0
 41
0.440318182
 50
0.0
 71
     0
 42
55.0
  3
txt.shx
  4
extfont.shx
  0
STYLE
  2
KANJI27
 70
     0
 40
12.0
 41
0.833333333
 50
0.0
 71
     0
 42
12.0
  3
txt.shx
  4
extfont.shx
  0
STYLE
  2
KANJI28
 70
     0
 40
17.5
 41
0.793650794
 50
0.0
 71
     0
 42
17.5
  3
txt.shx
  4
extfont.shx
  0
STYLE
  2
KANJI29
 70
     0
 40
25.0
 41
0.8
 50
0.0
 71
     0
 42
25.0
  3
txt.shx
  4
extfont.shx
  0
STYLE
  2
KANJI30
 70
     0
 40
15.0
 41
0.9
 50
0.0
 71
     0
 42
15.0
  3
txt.shx
  4
extfont.shx
  0
STYLE
  2
KANJI31
 70
     0
 40
11.55
 41
0.9
 50
0.0
 71
     0
 42
11.55
  3
txt.shx
  4
extfont.shx
  0
STYLE
  2
KANJI32
 70
     0
 40
17.740702234
 41
0.880962996
 50
0.0
 71
     0
 42
17.740702234
  3
txt.shx
  4
extfont.shx
  0
STYLE
  2
KANJI33
 70
     0
 40
13.475
 41
0.9
 50
0.0
 71
     0
 42
13.475
  3
txt.shx
  4
extfont.shx
  0
STYLE
  2
KANJI34
 70
     0
 40
11.7
 41
0.8
 50
0.0
 71
     0
 42
11.7
  3
txt.shx
  4
extfont.shx
  0
STYLE
  2
KANJI35
 70
     0
 40
15.0
 41
0.911
 50
0.0
 71
     0
 42
15.0
  3
txt.shx
  4
extfont.shx
  0
STYLE
  2
KANJI36
 70
     0
 40
15.6
 41
0.925
 50
0.0
 71
     0
 42
15.6
  3
txt.shx
  4
extfont.shx
  0
STYLE
  2
KANJI37
 70
     0
 40
10.933904043
 41
0.9
 50
0.0
 71
     0
 42
10.933904043
  3
txt.shx
  4
extfont.shx
  0
STYLE
  2
KANJI38
 70
     0
 40
15.185977837
 41
0.66671875
 50
0.0
 71
     0
 42
15.185977837
  3
txt.shx
  4
extfont.shx
  0
STYLE
  2
KANJI39
 70
     0
 40
18.223173404
 41
0.9
 50
0.0
 71
     0
 42
18.223173404
  3
txt.shx
  4
extfont.shx
  0
STYLE
  2
KANJI40
 70
     0
 40
14.578538724
 41
0.9
 50
0.0
 71
     0
 42
14.578538724
  3
txt.shx
  4
extfont.shx
  0
STYLE
  2
KANJI41
 70
     0
 40
15.0
 41
0.9
 50
0.0
 71
     0
 42
15.0
  3
txt.shx
  4
extfont.shx
  0
STYLE
  2
KANJI42
 70
     0
 40
20.0
 41
0.925
 50
0.0
 71
     0
 42
20.0
  3
txt.shx
  4
extfont.shx
  0
STYLE
  2
KANJI43
 70
     0
 40
20.0
 41
0.925
 50
0.0
 71
     0
 42
20.0
  3
txt.shx
  4
extfont.shx
  0
STYLE
  2
KANJI44
 70
     0
 40
10.0
 41
0.85
 50
0.0
 71
     0
 42
10.0
  3
txt.shx
  4
extfont.shx
  0
STYLE
  2
KANJI45
 70
     0
 40
10.0
 41
0.75
 50
0.0
 71
     0
 42
10.0
  3
txt.shx
  4
extfont.shx
  0
STYLE
  2
KANJI46
 70
     0
 40
8.4
 41
0.9
 50
0.0
 71
     0
 42
8.4
  3
txt.shx
  4
extfont.shx
  0
STYLE
  2
KANJI47
 70
     0
 40
15.0
 41
0.833333333
 50
0.0
 71
     0
 42
15.0
  3
txt.shx
  4
extfont.shx
  0
STYLE
  2
KANJI48
 70
     0
 40
20.0
 41
0.9
 50
0.0
 71
     0
 42
20.0
  3
txt.shx
  4
extfont.shx
  0
STYLE
  2
KANJI49
 70
     0
 40
17.5
 41
0.857142857
 50
0.0
 71
     0
 42
17.5
  3
txt.shx
  4
extfont.shx
  0
STYLE
  2
KANJI50
 70
     0
 40
17.5
 41
0.571428571
 50
0.0
 71
     0
 42
17.5
  3
txt.shx
  4
extfont.shx
  0
STYLE
  2
KANJI51
 70
     0
 40
22.5
 41
0.9
 50
0.0
 71
     0
 42
22.5
  3
txt.shx
  4
extfont.shx
  0
STYLE
  2
KANJI52
 70
     0
 40
19.0
 41
0.9
 50
0.0
 71
     0
 42
19.0
  3
txt.shx
  4
extfont.shx
  0
STYLE
  2
KANJI53
 70
     0
 40
19.0
 41
0.9
 50
0.0
 71
     0
 42
19.0
  3
txt.shx
  4
extfont.shx
  0
STYLE
  2
KANJI54
 70
     0
 40
19.0
 41
0.9
 50
0.0
 71
     0
 42
19.0
  3
txt.shx
  4
extfont.shx
  0
STYLE
  2
KANJI55
 70
     0
 40
19.0
 41
0.9
 50
0.0
 71
     0
 42
19.0
  3
txt.shx
  4
extfont.shx
  0
STYLE
  2
KANJI56
 70
     0
 40
19.0
 41
0.9
 50
0.0
 71
     0
 42
19.0
  3
txt.shx
  4
extfont.shx
  0
STYLE
  2
KANJI57
 70
     0
 40
19.0
 41
0.9
 50
0.0
 71
     0
 42
19.0
  3
txt.shx
  4
extfont.shx
  0
STYLE
  2
KANJI58
 70
     0
 40
19.0
 41
0.9
 50
0.0
 71
     0
 42
19.0
  3
txt.shx
  4
extfont.shx
  0
STYLE
  2
KANJI59
 70
     0
 40
19.0
 41
0.9
 50
0.0
 71
     0
 42
19.0
  3
txt.shx
  4
extfont.shx
  0
STYLE
  2
KANJI60
 70
     4
 40
17.5
 41
0.9
 50
0.0
 71
     0
 42
17.5
  3
txt.shx
  4
extfont.shx
  0
STYLE
  2
KANJI61
 70
     4
 40
17.5
 41
0.9
 50
0.0
 71
     0
 42
17.5
  3
txt.shx
  4
extfont.shx
  0
STYLE
  2
KANJI62
 70
     0
 40
17.5
 41
0.9
 50
0.0
 71
     0
 42
17.5
  3
txt.shx
  4
extfont.shx
  0
STYLE
  2
KANJI63
 70
     0
 40
15.0
 41
0.9
 50
0.0
 71
     0
 42
15.0
  3
txt.shx
  4
extfont.shx
  0
STYLE
  2
KANJI64
 70
     0
 40
17.5
 41
0.9
 50
0.0
 71
     0
 42
17.5
  3
txt.shx
  4
extfont.shx
  0
STYLE
  2
KANJI65
 70
     0
 40
19.0
 41
0.9
 50
0.0
 71
     0
 42
19.0
  3
txt.shx
  4
extfont.shx
  0
STYLE
  2
KANJI66
 70
     0
 40
19.0
 41
0.9
 50
0.0
 71
     0
 42
19.0
  3
txt.shx
  4
extfont.shx
  0
STYLE
  2
KANJI67
 70
     0
 40
17.5
 41
0.628571429
 50
0.0
 71
     0
 42
17.5
  3
txt.shx
  4
extfont.shx
  0
STYLE
  2
KANJI68
 70
     0
 40
17.0
 41
0.705882353
 50
0.0
 71
     0
 42
17.0
  3
txt.shx
  4
extfont.shx
  0
STYLE
  2
KANJI69
 70
     0
 40
15.0
 41
0.8
 50
0.0
 71
     0
 42
15.0
  3
txt.shx
  4
extfont.shx
  0
STYLE
  2
KANJI70
 70
     0
 40
16.0
 41
0.71875
 50
0.0
 71
     0
 42
16.0
  3
txt.shx
  4
extfont.shx
  0
STYLE
  2
KANJI71
 70
     0
 40
16.0
 41
0.8
 50
0.0
 71
     0
 42
16.0
  3
txt.shx
  4
extfont.shx
  0
STYLE
  2
KANJI72
 70
     0
 40
17.5
 41
0.571428571
 50
0.0
 71
     0
 42
17.5
  3
txt.shx
  4
extfont.shx
  0
STYLE
  2
KANJI73
 70
     0
 40
15.0
 41
0.833333333
 50
0.0
 71
     0
 42
15.0
  3
txt.shx
  4
extfont.shx
  0
STYLE
  2
KANJI74
 70
     0
 40
15.0
 41
0.833333333
 50
0.0
 71
     0
 42
15.0
  3
txt.shx
  4
extfont.shx
  0
STYLE
  2
KANJI75
 70
     0
 40
17.5
 41
0.9
 50
0.0
 71
     0
 42
17.5
  3
txt.shx
  4
extfont.shx
  0
ENDTAB
  0
TABLE
  2
VIEW
 70
     0
  0
ENDTAB
  0
ENDSEC
  0
SECTION
  2
BLOCKS
  0
ENDSEC
  0
SECTION
  2
ENTITIES
  0
LINE
  8
0
  6
CONTINUOUS
 62
     6
 10
64.5
 20
40.5
 30
0.0
 11
64.5
 21
1385.5
 31
0.0
  0
LINE
  8
0
  6
CONTINUOUS
 62
     6
 10
64.5
 20
1385.5
 30
0.0
 11
1999.5
 21
1385.5
 31
0.0
  0
TEXT
  8
0
  6
CONTINUOUS
 62
     4
 10
79.499996846
 20
65.499994744
 30
0.99999979
 40
9.999997897
  1
ＰＡＲＴＳ　ＬＩＳＴ
 50
0.0
 41
0.6
 51
0.0
  7
KANJI0
  0
TEXT
  8
0
  6
CONTINUOUS
 62
     4
 10
79.499996846
 20
50.499997897
 30
1.199999748
 40
11.999997477
  1
部品表
 50
0.0
 41
0.9
 51
0.0
  7
KANJI1
  0
LINE
  8
0
  6
CONTINUOUS
 62
     6
 10
69.499998949
 20
115.499984231
 30
0.0
 11
394.499930615
 21
115.499984231
 31
0.0
  0
LINE
  8
0
  6
CONTINUOUS
 62
     6
 10
69.499998949
 20
45.499998949
 30
0.0
 11
394.499930615
 21
45.499998949
 31
0.0
  0
LINE
  8
0
  6
CONTINUOUS
 62
     6
 10
69.499998949
 20
45.499998949
 30
0.0
 11
69.499998949
 21
115.499984231
 31
0.0
  0
LINE
  8
0
  6
CONTINUOUS
 62
     6
 10
69.499998949
 20
80.49999159
 30
0.0
 11
394.499930615
 21
80.49999159
 31
0.0
  0
TEXT
  8
0
  6
CONTINUOUS
 62
     3
 10
79.499996846
 20
90.499989487
 30
1.499999685
 40
14.999996846
  1
ＰＬ
 50
0.0
 41
0.9
 51
0.0
  7
KANJI2
  0
LINE
  8
0
  6
CONTINUOUS
 62
     4
 10
7.583333
 20
44.833333
 30
0.0
 11
59.583329
 21
44.833333
 31
0.0
  0
LINE
  8
0
  6
CONTINUOUS
 62
     4
 10
7.583333
 20
70.833331
 30
0.0
 11
59.583329
 21
70.833331
 31
0.0
  0
LINE
  8
0
  6
CONTINUOUS
 62
     4
 10
7.583333
 20
96.833329
 30
0.0
 11
59.583329
 21
96.833329
 31
0.0
  0
LINE
  8
0
  6
CONTINUOUS
 62
     4
 10
7.583333
 20
122.833327
 30
0.0
 11
59.583329
 21
122.833327
 31
0.0
  0
LINE
  8
0
  6
CONTINUOUS
 62
     4
 10
7.583333
 20
148.833325
 30
0.0
 11
59.583329
 21
148.833325
 31
0.0
  0
LINE
  8
0
  6
CONTINUOUS
 62
     4
 10
7.583333
 20
174.833323
 30
0.0
 11
59.583329
 21
174.833323
 31
0.0
  0
LINE
  8
0
  6
CONTINUOUS
 62
     4
 10
7.583333
 20
200.833321
 30
0.0
 11
59.583329
 21
200.833321
 31
0.0
  0
LINE
  8
0
  6
CONTINUOUS
 62
     4
 10
7.583333
 20
226.833319
 30
0.0
 11
59.583329
 21
226.833319
 31
0.0
  0
LINE
  8
0
  6
CONTINUOUS
 62
     4
 10
7.583333
 20
252.833317
 30
0.0
 11
59.583329
 21
252.833317
 31
0.0
  0
LINE
  8
0
  6
CONTINUOUS
 62
     4
 10
7.583333
 20
278.833315
 30
0.0
 11
59.583329
 21
278.833315
 31
0.0
  0
LINE
  8
0
  6
CONTINUOUS
 62
     4
 10
59.583329
 20
44.833333
 30
0.0
 11
59.583329
 21
278.833315
 31
0.0
  0
LINE
  8
0
  6
CONTINUOUS
 62
     4
 10
33.583331
 20
44.833333
 30
0.0
 11
33.583331
 21
252.833317
 31
0.0
  0
TEXT
  8
0
  6
CONTINUOUS
 62
     4
 10
16.46666565
 20
52.41666575
 30
1.2999999
 40
12.999999
  1
計
 50
0.0
 41
0.75
 51
0.0
  7
KANJI3
  0
TEXT
  8
0
  6
CONTINUOUS
 62
     4
 10
16.46666565
 20
104.84999505
 30
1.2999999
 40
12.999999
  1
設
 50
0.0
 41
0.75
 51
0.0
  7
KANJI3
  0
TEXT
  8
0
  6
CONTINUOUS
 62
     4
 10
16.46666565
 20
130.41665975
 30
1.2999999
 40
12.999999
  1
管
 50
0.0
 41
0.75
 51
0.0
  7
KANJI3
  0
TEXT
  8
0
  6
CONTINUOUS
 62
     4
 10
16.46666565
 20
156.41665775
 30
1.2999999
 40
12.999999
  1
製
 50
0.0
 41
0.75
 51
0.0
  7
KANJI3
  0
TEXT
  8
0
  6
CONTINUOUS
 62
     4
 10
16.46666565
 20
182.41665575
 30
1.2999999
 40
12.999999
  1
資
 50
0.0
 41
0.75
 51
0.0
  7
KANJI3
  0
TEXT
  8
0
  6
CONTINUOUS
 62
     4
 10
16.46666565
 20
208.41665375
 30
1.2999999
 40
12.999999
  1
営
 50
0.0
 41
0.75
 51
0.0
  7
KANJI3
  0
TEXT
  8
0
  6
CONTINUOUS
 62
     4
 10
16.46666565
 20
234.41665175
 30
1.2999999
 40
12.999999
  1
客
 50
0.0
 41
0.75
 51
0.0
  7
KANJI3
  0
TEXT
  8
0
  6
CONTINUOUS
 62
     4
 10
16.249999
 20
261.499983
 30
1.2999999
 40
12.999999
  1
出　図
 50
0.0
 41
0.75
 51
0.0
  7
KANJI3
  0
LINE
  8
0
  6
CONTINUOUS
 62
     4
 10
7.583333
 20
44.833333
 30
0.0
 11
7.583333
 21
278.833315
 31
0.0
  0
TEXT
  8
0
  6
CONTINUOUS
 62
     4
 10
304.499949538
 20
65.499994744
 30
0.99999979
 40
9.999997897
  1
Ｎ０．
 50
0.0
 41
0.6
 51
0.0
  7
KANJI0
  0
TEXT
  8
0
  6
CONTINUOUS
 62
     4
 10
304.499949538
 20
50.499997897
 30
1.199999748
 40
11.999997477
  1
項番
 50
0.0
 41
0.9
 51
0.0
  7
KANJI1
  0
LINE
  8
0
  6
CONTINUOUS
 62
     6
 10
1999.5
 20
40.5
 30
0.0
 11
64.5
 21
40.5
 31
0.0
  0
LINE
  8
0
  6
CONTINUOUS
 62
     6
 10
394.499930615
 20
45.499998949
 30
0.0
 11
394.499930615
 21
115.499984231
 31
0.0
  0
LINE
  8
0
  6
CONTINUOUS
 62
     6
 10
294.499951641
 20
45.499998949
 30
0.0
 11
294.499951641
 21
115.499984231
 31
0.0
  0
LINE
  8
0
  6
CONTINUOUS
 62
     6
 10
1999.5
 20
1385.5
 30
0.0
 11
1999.5
 21
40.5
 31
0.0
  0
LINE
  8
0
  6
CONTINUOUS
 62
     6
 10
1327.833385
 20
44.833333
 30
0.0
 11
1327.833385
 21
322.166645
 31
0.0
  0
LINE
  8
0
  6
CONTINUOUS
 62
     6
 10
1995.166667
 20
44.833333
 30
0.0
 11
1995.166667
 21
322.166645
 31
0.0
  0
LINE
  8
0
  6
CONTINUOUS
 62
     4
 10
1486.0000395
 20
44.833333
 30
0.0
 11
1486.0000395
 21
322.166645
 31
0.0
  0
LINE
  8
0
  6
CONTINUOUS
 62
     4
 10
1327.833385
 20
79.499997
 30
0.0
 11
1486.0000395
 21
79.499997
 31
0.0
  0
TEXT
  8
0
  6
CONTINUOUS
 62
     4
 10
1336.500051
 20
64.3333315
 30
0.8666666
 40
8.666666
  1
ＳＣＡＬＥ
 50
0.0
 41
0.6
 51
0.0
  7
KANJI4
  0
TEXT
  8
0
  6
CONTINUOUS
 62
     4
 10
1336.500051
 20
51.3333325
 30
1.03999992
 40
10.3999992
  1
尺度
 50
0.0
 41
0.6
 51
0.0
  7
KANJI5
  0
LINE
  8
0
  6
CONTINUOUS
 62
     6
 10
985.500078
 20
79.499997
 30
0.0
 11
1327.833385
 21
79.499997
 31
0.0
  0
LINE
  8
0
  6
CONTINUOUS
 62
     6
 10
985.500078
 20
44.833333
 30
0.0
 11
1995.166667
 21
44.833333
 31
0.0
  0
TEXT
  8
0
  6
CONTINUOUS
 62
     6
 10
1490.3333725
 20
64.3333315
 30
0.0
 40
15.1666655
  1
ＵＮＩＴＥＣ　ＩＮＤＵＳＴＲＹ　ＣＯ．，ＬＴＤ．
 50
0.0
 41
0.42031746
 51
0.0
  7
KANJI6
  0
TEXT
  8
0
  6
CONTINUOUS
 62
     6
 10
1703.045856138
 20
58.6999986
 30
2.5999998
 40
25.999998
  1
ユニテック工業株式会社
 50
0.0
 41
0.9
 51
0.0
  7
KANJI7
  0
LINE
  8
0
  6
CONTINUOUS
 62
     6
 10
1668.379192138
 20
67.7999979
 30
0.0
 11
1656.939193018
 21
67.7999979
 31
0.0
  0
LINE
  8
0
  6
CONTINUOUS
 62
     6
 10
1668.379192138
 20
69.87999774
 30
0.0
 11
1656.939193018
 21
69.87999774
 31
0.0
  0
LINE
  8
0
  6
CONTINUOUS
 62
     6
 10
1668.379192138
 20
67.7999979
 30
0.0
 11
1679.819191258
 21
67.7999979
 31
0.0
  0
LINE
  8
0
  6
CONTINUOUS
 62
     6
 10
1668.379192138
 20
69.87999774
 30
0.0
 11
1679.819191258
 21
69.87999774
 31
0.0
  0
LINE
  8
0
  6
CONTINUOUS
 62
     6
 10
1679.819191258
 20
69.87999774
 30
0.0
 11
1679.819191258
 21
67.7999979
 31
0.0
  0
ARC
  8
0
  6
CONTINUOUS
 62
     6
 10
1682.419191058
 20
68.83999782
 30
0.0
 40
10.3999992
 50
185.739170477
 51
90.0
  0
ARC
  8
0
  6
CONTINUOUS
 62
     6
 10
1682.419191058
 20
68.83999782
 30
0.0
 40
12.47999904
 50
184.780191847
 51
90.0
  0
LINE
  8
0
  6
CONTINUOUS
 62
     6
 10
1656.939193018
 20
67.7999979
 30
0.0
 11
1656.939193018
 21
69.87999774
 31
0.0
  0
ARC
  8
0
  6
CONTINUOUS
 62
     6
 10
1654.339193218
 20
68.83999782
 30
0.0
 40
10.3999992
 50
90.0
 51
354.260829523
  0
ARC
  8
0
  6
CONTINUOUS
 62
     6
 10
1654.339193218
 20
68.83999782
 30
0.0
 40
12.47999904
 50
90.0
 51
355.219808153
  0
LINE
  8
0
  6
CONTINUOUS
 62
     6
 10
1666.819192258
 20
81.31999686
 30
0.0
 11
1666.819192258
 21
79.23999702
 31
0.0
  0
LINE
  8
0
  6
CONTINUOUS
 62
     6
 10
1654.339193218
 20
79.23999702
 30
0.0
 11
1666.819192258
 21
79.23999702
 31
0.0
  0
LINE
  8
0
  6
CONTINUOUS
 62
     6
 10
1669.939192018
 20
81.31999686
 30
0.0
 11
1669.939192018
 21
79.23999702
 31
0.0
  0
LINE
  8
0
  6
CONTINUOUS
 62
     6
 10
1682.419191058
 20
79.23999702
 30
0.0
 11
1669.939192018
 21
79.23999702
 31
0.0
  0
TEXT
  8
0
  6
CONTINUOUS
 62
     2
 10
1419.5
 20
50.5
 30
1.5
 40
22.5
  1
１／５
 50
0.0
 41
0.666666667
 51
0.0
  7
KANJI8
  0
TEXT
  8
0
  6
CONTINUOUS
 62
     4
 10
1096.0000695
 20
64.3333315
 30
0.8666666
 40
8.666666
  1
ＢＹ
 50
0.0
 41
0.6
 51
0.0
  7
KANJI4
  0
TEXT
  8
0
  6
CONTINUOUS
 62
     4
 10
1191.3333955
 20
64.3333315
 30
0.8666666
 40
8.666666
  1
ＤＥＳＣＲＩＰＴＩＯＮ
 50
0.0
 41
0.6
 51
0.0
  7
KANJI4
  0
TEXT
  8
0
  6
CONTINUOUS
 62
     4
 10
1096.0000695
 20
51.3333325
 30
1.03999992
 40
10.3999992
  1
担当
 50
0.0
 41
0.6
 51
0.0
  7
KANJI5
  0
TEXT
  8
0
  6
CONTINUOUS
 62
     4
 10
1204.3333945
 20
51.3333325
 30
1.03999992
 40
10.3999992
  1
記　　　　事
 50
0.0
 41
0.6
 51
0.0
  7
KANJI5
  0
LINE
  8
0
  6
CONTINUOUS
 62
     4
 10
1003.91674325
 20
72.9999975
 30
0.0
 11
989.833411
 21
51.3333325
 31
0.0
  0
TEXT
  8
0
  6
CONTINUOUS
 62
     4
 10
1039.6667405
 20
64.3333315
 30
0.8666666
 40
8.666666
  1
ＤＡＴＥ
 50
0.0
 41
0.6
 51
0.0
  7
KANJI4
  0
TEXT
  8
0
  6
CONTINUOUS
 62
     4
 10
1046.16674
 20
51.3333325
 30
1.03999992
 40
10.3999992
  1
日付
 50
0.0
 41
0.6
 51
0.0
  7
KANJI5
  0
LINE
  8
0
  6
CONTINUOUS
 62
     4
 10
989.833411
 20
51.3333325
 30
0.0
 11
1018.0000755
 21
51.3333325
 31
0.0
  0
LINE
  8
0
  6
CONTINUOUS
 62
     4
 10
1003.91674325
 20
72.9999975
 30
0.0
 11
1018.0000755
 21
51.3333325
 31
0.0
  0
LINE
  8
0
  6
CONTINUOUS
 62
     6
 10
985.500078
 20
44.833333
 30
0.0
 11
985.500078
 21
79.499997
 31
0.0
  0
LINE
  8
0
  6
CONTINUOUS
 62
     4
 10
1022.3334085
 20
44.833333
 30
0.0
 11
1022.3334085
 21
79.499997
 31
0.0
  0
LINE
  8
0
  6
CONTINUOUS
 62
     4
 10
1083.0000705
 20
44.833333
 30
0.0
 11
1083.0000705
 21
79.499997
 31
0.0
  0
LINE
  8
0
  6
CONTINUOUS
 62
     4
 10
1122.0000675
 20
44.833333
 30
0.0
 11
1122.0000675
 21
79.499997
 31
0.0
  0
TEXT
  8
0
  6
CONTINUOUS
 62
     4
 10
1336.500051
 20
237.6666515
 30
0.8666666
 40
8.666666
  1
ＣＯＤＥ
 50
0.0
 41
0.6
 51
0.0
  7
KANJI4
  0
LINE
  8
0
  6
CONTINUOUS
 62
     4
 10
1327.833385
 20
252.833317
 30
0.0
 11
1995.166667
 21
252.833317
 31
0.0
  0
TEXT
  8
0
  6
CONTINUOUS
 62
     4
 10
1336.500051
 20
224.6666525
 30
1.03999992
 40
10.3999992
  1
分類
 50
0.0
 41
0.6
 51
0.0
  7
KANJI5
  0
LINE
  8
0
  6
CONTINUOUS
 62
     4
 10
1995.166667
 20
287.499981
 30
0.0
 11
1995.166667
 21
322.166645
 31
0.0
  0
LINE
  8
0
  6
CONTINUOUS
 62
     6
 10
1328.458385
 20
287.499981
 30
0.0
 11
1995.791667
 21
287.499981
 31
0.0
  0
LINE
  8
0
  6
CONTINUOUS
 62
     6
 10
1327.833385
 20
322.166645
 30
0.0
 11
1995.166667
 21
322.166645
 31
0.0
  0
TEXT
  8
0
  6
CONTINUOUS
 62
     4
 10
1343.25
 20
292.666664
 30
5.0
 40
18.0
  1
ご用途
 50
0.0
 41
1.111111111
 51
0.0
  7
KANJI9
  0
TEXT
  8
0
  6
CONTINUOUS
 62
     4
 10
1343.25
 20
258.0
 30
5.0
 40
18.0
  1
ご注文主
 50
0.0
 41
1.111111111
 51
0.0
  7
KANJI9
  0
TEXT
  8
0
  6
CONTINUOUS
 62
     4
 10
1336.500051
 20
133.6666595
 30
0.8666666
 40
8.666666
  1
ＤＲＡＷＮ
 50
0.0
 41
0.6
 51
0.0
  7
KANJI4
  0
TEXT
  8
0
  6
CONTINUOUS
 62
     4
 10
1336.500051
 20
168.3333235
 30
0.8666666
 40
8.666666
  1
ＤＥＳＩＧＮ
 50
0.0
 41
0.6
 51
0.0
  7
KANJI4
  0
TEXT
  8
0
  6
CONTINUOUS
 62
     4
 10
1336.500051
 20
202.9999875
 30
0.8666666
 40
8.666666
  1
ＣＨＥＣＫ
 50
0.0
 41
0.6
 51
0.0
  7
KANJI4
  0
LINE
  8
0
  6
CONTINUOUS
 62
     4
 10
1327.833385
 20
183.499989
 30
0.0
 11
1486.0000395
 21
183.499989
 31
0.0
  0
LINE
  8
0
  6
CONTINUOUS
 62
     4
 10
1327.833385
 20
148.833325
 30
0.0
 11
1486.0000395
 21
148.833325
 31
0.0
  0
LINE
  8
0
  6
CONTINUOUS
 62
     4
 10
1327.833385
 20
218.166653
 30
0.0
 11
1486.0000395
 21
218.166653
 31
0.0
  0
TEXT
  8
0
  6
CONTINUOUS
 62
     4
 10
1336.500051
 20
155.3333245
 30
1.03999992
 40
10.3999992
  1
設計
 50
0.0
 41
0.6
 51
0.0
  7
KANJI5
  0
TEXT
  8
0
  6
CONTINUOUS
 62
     4
 10
1336.500051
 20
189.9999885
 30
1.03999992
 40
10.3999992
  1
検図
 50
0.0
 41
0.6
 51
0.0
  7
KANJI5
  0
LINE
  8
0
  6
CONTINUOUS
 62
     4
 10
1498.78337185
 20
218.166653
 30
0.0
 11
1995.166667
 21
218.166653
 31
0.0
  0
LINE
  8
0
  6
CONTINUOUS
 62
     4
 10
1486.0000395
 20
148.833325
 30
0.0
 11
1995.166667
 21
148.833325
 31
0.0
  0
TEXT
  8
0
  6
CONTINUOUS
 62
     4
 10
1494.6667055
 20
133.6666595
 30
0.8666666
 40
8.666666
  1
ＤＲＡＷＩＮＧ　ＮＯ．
 50
0.0
 41
0.8
 51
0.0
  7
KANJI10
  0
TEXT
  8
0
  6
CONTINUOUS
 62
     4
 10
1494.6667055
 20
168.3333235
 30
0.8666666
 40
8.666666
  1
ＭＦＧ　ＮＯ．
 50
0.0
 41
0.8
 51
0.0
  7
KANJI10
  0
TEXT
  8
0
  6
CONTINUOUS
 62
     4
 10
1494.6667055
 20
202.9999875
 30
0.8666666
 40
8.666666
  1
ＴＹＰＥ
 50
0.0
 41
0.8
 51
0.0
  7
KANJI10
  0
LINE
  8
0
  6
CONTINUOUS
 62
     4
 10
1499.0000385
 20
183.499989
 30
0.0
 11
1698.3333565
 21
183.499989
 31
0.0
  0
TEXT
  8
0
  6
CONTINUOUS
 62
     4
 10
1494.6667055
 20
118.499994
 30
1.03999992
 40
10.3999992
  1
図　面　番　号
 50
0.0
 41
0.8
 51
0.0
  7
KANJI11
  0
TEXT
  8
0
  6
CONTINUOUS
 62
     4
 10
1494.6667055
 20
153.166658
 30
1.03999992
 40
10.3999992
  1
製番
 50
0.0
 41
0.8
 51
0.0
  7
KANJI11
  0
TEXT
  8
0
  6
CONTINUOUS
 62
     4
 10
1494.6667055
 20
187.833322
 30
1.03999992
 40
10.3999992
  1
機種
 50
0.0
 41
0.8
 51
0.0
  7
KANJI11
  0
LINE
  8
0
  6
CONTINUOUS
 62
     4
 10
1327.833385
 20
114.166661
 30
0.0
 11
1486.0000395
 21
114.166661
 31
0.0
  0
TEXT
  8
0
  6
CONTINUOUS
 62
     4
 10
1336.500051
 20
98.9999955
 30
0.8666666
 40
8.666666
  1
ＤＡＴＥ
 50
0.0
 41
0.6
 51
0.0
  7
KANJI4
  0
TEXT
  8
0
  6
CONTINUOUS
 62
     4
 10
1336.500051
 20
85.9999965
 30
1.03999992
 40
10.3999992
  1
日付
 50
0.0
 41
0.6
 51
0.0
  7
KANJI5
  0
TEXT
  8
0
  6
CONTINUOUS
 62
     4
 10
1336.500051
 20
120.6666605
 30
1.03999992
 40
10.3999992
  1
作図
 50
0.0
 41
0.6
 51
0.0
  7
KANJI5
  0
LINE
  8
0
  6
CONTINUOUS
 62
     4
 10
1486.0000395
 20
98.9999955
 30
0.0
 11
1995.166667
 21
98.9999955
 31
0.0
  0
LINE
  8
0
  6
LTYPE1
 62
     4
 10
1850.0000115
 20
105.499995
 30
0.0
 11
1850.0000115
 21
140.166659
 31
0.0
  0
LINE
  8
0
  6
LTYPE1
 62
     4
 10
1819.6666805
 20
105.499995
 30
0.0
 11
1819.6666805
 21
140.166659
 31
0.0
  0
LINE
  8
0
  6
LTYPE1
 62
     4
 10
1789.3333495
 20
105.499995
 30
0.0
 11
1789.3333495
 21
140.166659
 31
0.0
  0
LINE
  8
0
  6
LTYPE1
 62
     4
 10
1759.0000185
 20
105.499995
 30
0.0
 11
1759.0000185
 21
140.166659
 31
0.0
  0
LINE
  8
0
  6
LTYPE1
 62
     4
 10
1728.6666875
 20
105.499995
 30
0.0
 11
1728.6666875
 21
140.166659
 31
0.0
  0
LINE
  8
0
  6
LTYPE1
 62
     4
 10
1698.3333565
 20
105.499995
 30
0.0
 11
1698.3333565
 21
140.166659
 31
0.0
  0
LINE
  8
0
  6
LTYPE1
 62
     4
 10
1668.0000255
 20
105.499995
 30
0.0
 11
1668.0000255
 21
140.166659
 31
0.0
  0
LINE
  8
0
  6
LTYPE1
 62
     4
 10
1637.6666945
 20
105.499995
 30
0.0
 11
1637.6666945
 21
140.166659
 31
0.0
  0
LINE
  8
0
  6
LTYPE1
 62
     4
 10
1637.6666945
 20
140.166659
 30
0.0
 11
1850.0000115
 21
140.166659
 31
0.0
  0
LINE
  8
0
  6
LTYPE1
 62
     4
 10
1637.6666945
 20
105.499995
 30
0.0
 11
1850.0000115
 21
105.499995
 31
0.0
  0
LINE
  8
0
  6
CONTINUOUS
 62
     4
 10
1867.3333435
 20
123.91666025
 30
0.0
 11
1876.0000095
 21
123.91666025
 31
0.0
  0
LINE
  8
0
  6
CONTINUOUS
 62
     4
 10
1921.500006
 20
110.91666125
 30
0.0
 11
1891.166675
 21
110.91666125
 31
0.0
  0
LINE
  8
0
  6
CONTINUOUS
 62
     4
 10
1891.166675
 20
110.91666125
 30
0.0
 11
1906.3333405
 21
136.91665925
 31
0.0
  0
LINE
  8
0
  6
CONTINUOUS
 62
     4
 10
1906.3333405
 20
136.91665925
 30
0.0
 11
1921.500006
 21
110.91666125
 31
0.0
  0
TEXT
  8
0
  6
CONTINUOUS
 62
     4
 10
1711.3333555
 20
202.9999875
 30
0.8666666
 40
8.666666
  1
ＴＩＴＬＥ
 50
0.0
 41
0.8
 51
0.0
  7
KANJI10
  0
TEXT
  8
0
  6
CONTINUOUS
 62
     4
 10
1711.3333555
 20
187.833322
 30
1.03999992
 40
10.3999992
  1
名称
 50
0.0
 41
0.8
 51
0.0
  7
KANJI11
  0
TEXT
  8
0
  6
CONTINUOUS
 62
     2
 10
1782.0
 20
155.5
 30
12.5
 40
25.0
  1
外形寸法図
 50
0.0
 41
1.0
 51
0.0
  7
KANJI12
  0
TEXT
  8
0
  6
CONTINUOUS
 62
     2
 10
1752.0
 20
185.5
 30
3.571428571
 40
25.0
  1
マイティシリンダ
 50
0.0
 41
1.0
 51
0.0
  7
KANJI13
  0
TEXT
  8
0
  6
CONTINUOUS
 62
     2
 10
1611.4166945
 20
110.499995
 30
1.5
 40
25.0
  1
Ａ
 50
0.0
 41
0.8
 51
0.0
  7
KANJI14
  0
CIRCLE
  8
0
  6
CONTINUOUS
 62
     2
 10
1578.9166945
 20
164.249995
 30
0.0
 40
12.5
  0
TEXT
  8
0
  6
CONTINUOUS
 62
     2
 10
1569.5416945
 20
154.874995
 30
1.5
 40
20.0
  1
Ｓ
 50
0.0
 41
1.0
 51
0.0
  7
KANJI15
  0
LINE
  8
0
  6
CONTINUOUS
 62
     6
 10
1666.819192258
 20
81.31999686
 30
0.0
 11
1654.339193218
 21
81.31999686
 31
0.0
  0
LINE
  8
0
  6
CONTINUOUS
 62
     6
 10
1669.939192018
 20
81.31999686
 30
0.0
 11
1682.419191058
 21
81.31999686
 31
0.0
  0
TEXT
  8
0
  6
CONTINUOUS
 62
     2
 10
1383.6666945
 20
122.999995
 30
5.0
 40
17.5
  1
岡田
 50
0.0
 41
0.857142857
 51
0.0
  7
KANJI16
  0
LINE
  8
0
  6
CONTINUOUS
 62
     1
 10
840.5
 20
1223.45
 30
0.0
 11
1488.5
 21
1223.45
 31
0.0
  0
LINE
  8
0
  6
CONTINUOUS
 62
     1
 10
840.5
 20
1195.45
 30
0.0
 11
1488.5
 21
1195.45
 31
0.0
  0
TEXT
  8
0
  6
CONTINUOUS
 62
     2
 10
880.5
 20
1203.45
 30
1.28
 40
12.8
  1
形
 50
0.0
 41
0.9
 51
0.0
  7
KANJI17
  0
TEXT
  8
0
  6
CONTINUOUS
 62
     2
 10
958.5
 20
1203.45
 30
1.28
 40
12.8
  1
式
 50
0.0
 41
0.9
 51
0.0
  7
KANJI17
  0
TEXT
  8
0
  6
CONTINUOUS
 62
     2
 10
1018.9
 20
1202.65
 30
1.2
 40
12.0
  1
ストローク
 50
0.0
 41
0.9
 51
0.0
  7
KANJI18
  0
TEXT
  8
0
  6
CONTINUOUS
 62
     2
 10
1095.7
 20
1201.85
 30
0.0
 40
12.0
  1
ｍｉｎ　
 50
0.0
 41
0.9
 51
0.0
  7
KANJI19
  0
TEXT
  8
0
  6
CONTINUOUS
 62
     2
 10
1175.7
 20
1201.85
 30
0.0
 40
12.0
  1
ｍｉｎ　
 50
0.0
 41
0.9
 51
0.0
  7
KANJI19
  0
TEXT
  8
0
  6
CONTINUOUS
 62
     2
 10
1335.7
 20
1201.85
 30
0.0
 40
12.0
  1
ｍｉｎ　
 50
0.0
 41
0.9
 51
0.0
  7
KANJI19
  0
TEXT
  8
0
  6
CONTINUOUS
 62
     2
 10
1136.5
 20
1202.65
 30
1.4
 40
14.0
  1
ＡＬ
 50
0.0
 41
0.9
 51
0.0
  7
KANJI20
  0
TEXT
  8
0
  6
CONTINUOUS
 62
     2
 10
1216.5
 20
1202.65
 30
1.4
 40
14.0
  1
Ｌ
 50
0.0
 41
0.9
 51
0.0
  7
KANJI20
  0
TEXT
  8
0
  6
CONTINUOUS
 62
     2
 10
1284.5
 20
1202.65
 30
1.4
 40
14.0
  1
Ｃ
 50
0.0
 41
0.9
 51
0.0
  7
KANJI20
  0
TEXT
  8
0
  6
CONTINUOUS
 62
     2
 10
1376.5
 20
1202.65
 30
1.4
 40
14.0
  1
Ｐ
 50
0.0
 41
0.9
 51
0.0
  7
KANJI20
  0
TEXT
  8
0
  6
CONTINUOUS
 62
     2
 10
1458.8
 20
1202.35
 30
0.0
 40
10.8
  1
（ｋｇ）
 50
0.0
 41
0.740740741
 51
0.0
  7
KANJI21
  0
TEXT
  8
0
  6
CONTINUOUS
 62
     2
 10
1410.8
 20
1202.15
 30
1.2
 40
14.0
  1
概算重量
 50
0.0
 41
0.857142857
 51
0.0
  7
KANJI22
  0
TEXT
  8
0
  6
CONTINUOUS
 62
     2
 10
1026.5
 20
1174.15
 30
1.2
 40
12.0
  1
　１００
 50
0.0
 41
0.9
 51
0.0
  7
KANJI18
  0
TEXT
  8
0
  6
CONTINUOUS
 62
     2
 10
1026.5
 20
1146.15
 30
1.2
 40
12.0
  1
　２００
 50
0.0
 41
0.9
 51
0.0
  7
KANJI18
  0
TEXT
  8
0
  6
CONTINUOUS
 62
     2
 10
1026.5
 20
1118.15
 30
1.2
 40
12.0
  1
　３００
 50
0.0
 41
0.9
 51
0.0
  7
KANJI18
  0
TEXT
  8
0
  6
CONTINUOUS
 62
     2
 10
1186.5
 20
1118.15
 30
1.2
 40
12.0
  1
　５０８
 50
0.0
 41
0.9
 51
0.0
  7
KANJI18
  0
TEXT
  8
0
  6
CONTINUOUS
 62
     2
 10
1186.5
 20
1146.15
 30
1.2
 40
12.0
  1
　４０８
 50
0.0
 41
0.9
 51
0.0
  7
KANJI18
  0
TEXT
  8
0
  6
CONTINUOUS
 62
     2
 10
1266.5
 20
1174.15
 30
1.2
 40
12.0
  1
　２３８
 50
0.0
 41
0.9
 51
0.0
  7
KANJI18
  0
TEXT
  8
0
  6
CONTINUOUS
 62
     2
 10
1266.5
 20
1146.15
 30
1.2
 40
12.0
  1
　３３８
 50
0.0
 41
0.9
 51
0.0
  7
KANJI18
  0
TEXT
  8
0
  6
CONTINUOUS
 62
     2
 10
1266.5
 20
1118.15
 30
1.2
 40
12.0
  1
　４３８
 50
0.0
 41
0.9
 51
0.0
  7
KANJI18
  0
TEXT
  8
0
  6
CONTINUOUS
 62
     2
 10
1346.5
 20
1118.15
 30
1.2
 40
12.0
  1
　　３５
 50
0.0
 41
0.9
 51
0.0
  7
KANJI18
  0
TEXT
  8
0
  6
CONTINUOUS
 62
     2
 10
1346.5
 20
1146.15
 30
1.2
 40
12.0
  1
　　３５
 50
0.0
 41
0.9
 51
0.0
  7
KANJI18
  0
TEXT
  8
0
  6
CONTINUOUS
 62
     2
 10
1346.5
 20
1174.15
 30
1.2
 40
12.0
  1
　　３５
 50
0.0
 41
0.9
 51
0.0
  7
KANJI18
  0
TEXT
  8
0
  6
CONTINUOUS
 62
     2
 10
1026.5
 20
1006.15
 30
1.2
 40
12.0
  1
　７００
 50
0.0
 41
0.9
 51
0.0
  7
KANJI18
  0
TEXT
  8
0
  6
CONTINUOUS
 62
     2
 10
1266.5
 20
1006.15
 30
1.2
 40
12.0
  1
　８７８
 50
0.0
 41
0.9
 51
0.0
  7
KANJI18
  0
TEXT
  8
0
  6
CONTINUOUS
 62
     2
 10
1026.5
 20
1062.15
 30
1.2
 40
12.0
  1
　５００
 50
0.0
 41
0.9
 51
0.0
  7
KANJI18
  0
TEXT
  8
0
  6
CONTINUOUS
 62
     2
 10
1266.5
 20
1062.15
 30
1.2
 40
12.0
  1
　６３８
 50
0.0
 41
0.9
 51
0.0
  7
KANJI18
  0
TEXT
  8
0
  6
CONTINUOUS
 62
     2
 10
1026.5
 20
1090.15
 30
1.2
 40
12.0
  1
　４００
 50
0.0
 41
0.9
 51
0.0
  7
KANJI18
  0
TEXT
  8
0
  6
CONTINUOUS
 62
     2
 10
1026.5
 20
1034.15
 30
1.2
 40
12.0
  1
　６００
 50
0.0
 41
0.9
 51
0.0
  7
KANJI18
  0
TEXT
  8
0
  6
CONTINUOUS
 62
     2
 10
1266.5
 20
1090.15
 30
1.2
 40
12.0
  1
　５３８
 50
0.0
 41
0.9
 51
0.0
  7
KANJI18
  0
TEXT
  8
0
  6
CONTINUOUS
 62
     2
 10
1266.5
 20
1034.15
 30
1.2
 40
12.0
  1
　７７８
 50
0.0
 41
0.9
 51
0.0
  7
KANJI18
  0
TEXT
  8
0
  6
CONTINUOUS
 62
     2
 10
1186.5
 20
1174.15
 30
1.2
 40
12.0
  1
　３０８
 50
0.0
 41
0.9
 51
0.0
  7
KANJI18
  0
TEXT
  8
0
  6
CONTINUOUS
 62
     2
 10
1106.5
 20
1174.15
 30
1.2
 40
12.0
  1
　４５０
 50
0.0
 41
0.9
 51
0.0
  7
KANJI18
  0
TEXT
  8
0
  6
CONTINUOUS
 62
     2
 10
1106.5
 20
1146.15
 30
1.2
 40
12.0
  1
　５５０
 50
0.0
 41
0.9
 51
0.0
  7
KANJI18
  0
TEXT
  8
0
  6
CONTINUOUS
 62
     2
 10
1106.5
 20
1118.15
 30
1.2
 40
12.0
  1
　６５０
 50
0.0
 41
0.9
 51
0.0
  7
KANJI18
  0
TEXT
  8
0
  6
CONTINUOUS
 62
     2
 10
1346.5
 20
1090.15
 30
1.2
 40
12.0
  1
　　３５
 50
0.0
 41
0.9
 51
0.0
  7
KANJI18
  0
TEXT
  8
0
  6
CONTINUOUS
 62
     2
 10
1346.5
 20
1062.15
 30
1.2
 40
12.0
  1
　　３５
 50
0.0
 41
0.9
 51
0.0
  7
KANJI18
  0
TEXT
  8
0
  6
CONTINUOUS
 62
     2
 10
1346.5
 20
1034.15
 30
1.2
 40
12.0
  1
　　３５
 50
0.0
 41
0.9
 51
0.0
  7
KANJI18
  0
TEXT
  8
0
  6
CONTINUOUS
 62
     2
 10
1346.5
 20
1006.15
 30
1.2
 40
12.0
  1
　　３５
 50
0.0
 41
0.9
 51
0.0
  7
KANJI18
  0
LINE
  8
0
  6
CONTINUOUS
 62
     6
 10
338.209425053
 20
1331.247759827
 30
0.0
 11
106.164646507
 21
1331.247759827
 31
0.0
  0
TEXT
  8
0
  6
CONTINUOUS
 62
     6
 10
110.073517202
 20
1334.44592676
 30
1.0647
 40
11.661
  1
ＬＳ０１　　　：推力リミッタ（前進時過負荷用）
 50
0.0
 41
0.822608696
 51
0.0
  7
KANJI23
  0
TEXT
  8
0
  6
CONTINUOUS
 62
     6
 10
110.073517202
 20
1306.98342676
 30
1.0647
 40
11.661
  1
ＬＳ０２　　　：推力リミッタ（後進時過負荷用）
 50
0.0
 41
0.822608696
 51
0.0
  7
KANJI23
  0
LINE
  8
0
  6
CONTINUOUS
 62
     3
 10
338.209425053
 20
1303.785259827
 30
0.0
 11
106.164646507
 21
1303.785259827
 31
0.0
  0
LINE
  8
0
  6
CONTINUOUS
 62
     6
 10
338.209425053
 20
1303.785259827
 30
0.0
 11
106.164646507
 21
1303.785259827
 31
0.0
  0
TEXT
  8
0
  6
CONTINUOUS
 62
     6
 10
363.792228
 20
1328.700410728
 30
1.232517
 40
13.182
  1
電気定格　　　
 50
0.0
 41
0.85
 51
0.0
  7
KANJI24
  0
TEXT
  8
0
  6
CONTINUOUS
 62
     6
 10
376.593715102
 20
1298.126958599
 30
0.0
 40
11.8638
  1
ＤＣ１２５Ｖ　０．６Ａ　，ＤＣ２５０Ｖ　０．３Ａ　
 50
0.0
 41
0.726495726
 51
0.0
  7
KANJI25
  0
TEXT
  8
0
  6
CONTINUOUS
 62
     6
 10
371.337132178
 20
1346.461726126
 30
0.0
 40
55.0
  1
｝
 50
0.0
 41
0.440318182
 51
0.0
  7
KANJI26
  0
POLYLINE
  8
0
  6
LTYPE2
 62
     6
 66
     1
 70
     1
  0
VERTEX
  8
0
  6
LTYPE2
 62
     6
 10
90.0
 20
1058.1
 30
0.0
  0
VERTEX
  8
0
  6
LTYPE2
 62
     6
 10
610.6
 20
1058.1
 30
0.0
  0
VERTEX
  8
0
  6
LTYPE2
 62
     6
 10
610.6
 20
1361.2
 30
0.0
  0
VERTEX
  8
0
  6
LTYPE2
 62
     6
 10
90.0
 20
1361.2
 30
0.0
  0
SEQEND
  0
TEXT
  8
0
  6
CONTINUOUS
 62
     2
 10
1106.5
 20
1090.15
 30
1.2
 40
12.0
  1
　７５０
 50
0.0
 41
0.9
 51
0.0
  7
KANJI18
  0
TEXT
  8
0
  6
CONTINUOUS
 62
     2
 10
1106.5
 20
1062.15
 30
1.2
 40
12.0
  1
　８５０
 50
0.0
 41
0.9
 51
0.0
  7
KANJI18
  0
TEXT
  8
0
  6
CONTINUOUS
 62
     2
 10
1106.5
 20
1034.15
 30
1.2
 40
12.0
  1
　９９０
 50
0.0
 41
0.9
 51
0.0
  7
KANJI18
  0
TEXT
  8
0
  6
CONTINUOUS
 62
     2
 10
1106.5
 20
1006.15
 30
1.2
 40
12.0
  1
１０９０
 50
0.0
 41
0.9
 51
0.0
  7
KANJI18
  0
TEXT
  8
0
  6
CONTINUOUS
 62
     2
 10
1186.5
 20
1006.15
 30
1.2
 40
12.0
  1
　９４８
 50
0.0
 41
0.9
 51
0.0
  7
KANJI18
  0
TEXT
  8
0
  6
CONTINUOUS
 62
     2
 10
1186.5
 20
1034.15
 30
1.2
 40
12.0
  1
　８４８
 50
0.0
 41
0.9
 51
0.0
  7
KANJI18
  0
TEXT
  8
0
  6
CONTINUOUS
 62
     2
 10
1186.5
 20
1062.15
 30
1.2
 40
12.0
  1
　７０８
 50
0.0
 41
0.9
 51
0.0
  7
KANJI18
  0
TEXT
  8
0
  6
CONTINUOUS
 62
     2
 10
1186.5
 20
1090.15
 30
1.2
 40
12.0
  1
　６０８
 50
0.0
 41
0.9
 51
0.0
  7
KANJI18
  0
TEXT
  8
0
  6
CONTINUOUS
 62
     2
 10
853.5
 20
1173.85
 30
0.8
 40
12.0
  1
ＭＣＬＢ０１－　　１Ｌ
 50
0.0
 41
0.833333333
 51
0.0
  7
KANJI27
  0
TEXT
  8
0
  6
CONTINUOUS
 62
     2
 10
853.5
 20
1145.85
 30
0.8
 40
12.0
  1
ＭＣＬＢ０１－　　２Ｌ
 50
0.0
 41
0.833333333
 51
0.0
  7
KANJI27
  0
TEXT
  8
0
  6
CONTINUOUS
 62
     2
 10
853.5
 20
1117.85
 30
0.8
 40
12.0
  1
ＭＣＬＢ０１－　　３Ｌ
 50
0.0
 41
0.833333333
 51
0.0
  7
KANJI27
  0
TEXT
  8
0
  6
CONTINUOUS
 62
     2
 10
853.5
 20
1089.85
 30
0.8
 40
12.0
  1
ＭＣＬＢ０１－　　４Ｌ
 50
0.0
 41
0.833333333
 51
0.0
  7
KANJI27
  0
TEXT
  8
0
  6
CONTINUOUS
 62
     2
 10
853.5
 20
1061.85
 30
0.8
 40
12.0
  1
ＭＣＬＢ０１－　　５Ｌ
 50
0.0
 41
0.833333333
 51
0.0
  7
KANJI27
  0
TEXT
  8
0
  6
CONTINUOUS
 62
     2
 10
853.5
 20
1033.85
 30
0.8
 40
12.0
  1
ＭＣＬＢ０１－　　６Ｌ
 50
0.0
 41
0.833333333
 51
0.0
  7
KANJI27
  0
TEXT
  8
0
  6
CONTINUOUS
 62
     2
 10
853.5
 20
1005.85
 30
0.8
 40
12.0
  1
ＭＣＬＢ０１－　　７Ｌ
 50
0.0
 41
0.833333333
 51
0.0
  7
KANJI27
  0
TEXT
  8
0
  6
CONTINUOUS
 62
     2
 10
1547.0
 20
190.5
 30
0.0
 40
17.5
  1
ＭＣＬＢ０１－Ｌ
 50
0.0
 41
0.793650794
 51
0.0
  7
KANJI28
  0
TEXT
  8
0
  6
CONTINUOUS
 62
     2
 10
1642.6666945
 20
110.499995
 30
10.833333333
 40
25.0
  1
３００２３６５
 50
0.0
 41
0.8
 51
0.0
  7
KANJI29
  0
TEXT
  8
0
  6
CONTINUOUS
 62
     2
 10
154.575
 20
10.4
 30
0.0
 40
15.0
  1
ＦＤ　Ｎｏ．ＭＣ１８４
 50
0.0
 41
0.9
 51
0.0
  7
KANJI30
  0
LINE
  8
0
  6
CONTINUOUS
 62
     1
 10
1264.875
 20
1376.5
 30
0.0
 11
1264.875
 21
1276.4
 31
0.0
  0
LINE
  8
0
  6
CONTINUOUS
 62
     2
 10
1207.125
 20
1376.5
 30
0.0
 11
1207.125
 21
1276.4
 31
0.0
  0
LINE
  8
0
  6
CONTINUOUS
 62
     2
 10
1149.375
 20
1376.5
 30
0.0
 11
1149.375
 21
1276.4
 31
0.0
  0
LINE
  8
0
  6
CONTINUOUS
 62
     1
 10
1072.375
 20
1376.5
 30
0.0
 11
1072.375
 21
1276.4
 31
0.0
  0
LINE
  8
0
  6
CONTINUOUS
 62
     1
 10
1072.375
 20
1376.5
 30
0.0
 11
1264.875
 21
1376.5
 31
0.0
  0
LINE
  8
0
  6
CONTINUOUS
 62
     1
 10
1072.375
 20
1345.7
 30
0.0
 11
1264.875
 21
1345.7
 31
0.0
  0
LINE
  8
0
  6
CONTINUOUS
 62
     2
 10
1072.375
 20
1322.6
 30
0.0
 11
1264.875
 21
1322.6
 31
0.0
  0
LINE
  8
0
  6
CONTINUOUS
 62
     2
 10
1072.375
 20
1299.5
 30
0.0
 11
1264.875
 21
1299.5
 31
0.0
  0
LINE
  8
0
  6
CONTINUOUS
 62
     1
 10
1072.375
 20
1276.4
 30
0.0
 11
1264.875
 21
1276.4
 31
0.0
  0
TEXT
  8
0
  6
CONTINUOUS
 62
     2
 10
1214.825
 20
1363.025
 30
1.155
 40
11.55
  1
起動電流
 50
0.0
 41
0.9
 51
0.0
  7
KANJI31
  0
TEXT
  8
0
  6
CONTINUOUS
 62
     2
 10
1214.825
 20
1349.55
 30
1.155
 40
11.55
  1
　　　Ａ
 50
0.0
 41
0.9
 51
0.0
  7
KANJI31
  0
TEXT
  8
0
  6
CONTINUOUS
 62
     2
 10
1157.075
 20
1363.025
 30
1.155
 40
11.55
  1
定格電流
 50
0.0
 41
0.9
 51
0.0
  7
KANJI31
  0
TEXT
  8
0
  6
CONTINUOUS
 62
     2
 10
1157.075
 20
1349.55
 30
1.155
 40
11.55
  1
　　　Ａ
 50
0.0
 41
0.9
 51
0.0
  7
KANJI31
  0
TEXT
  8
0
  6
CONTINUOUS
 62
     2
 10
1078.92
 20
1305.275
 30
1.155
 40
11.55
  1
２００／６０
 50
0.0
 41
0.9
 51
0.0
  7
KANJI31
  0
TEXT
  8
0
  6
CONTINUOUS
 62
     2
 10
1078.92
 20
1363.025
 30
1.155
 40
11.55
  1
電圧／周波数
 50
0.0
 41
0.9
 51
0.0
  7
KANJI31
  0
TEXT
  8
0
  6
CONTINUOUS
 62
     2
 10
1078.92
 20
1349.55
 30
1.155
 40
11.55
  1
　Ｖ／Ｈｚ
 50
0.0
 41
0.9
 51
0.0
  7
KANJI31
  0
TEXT
  8
0
  6
CONTINUOUS
 62
     2
 10
1078.92
 20
1328.375
 30
1.155
 40
11.55
  1
２００／５０
 50
0.0
 41
0.9
 51
0.0
  7
KANJI31
  0
TEXT
  8
0
  6
CONTINUOUS
 62
     2
 10
1078.92
 20
1282.175
 30
1.155
 40
11.55
  1
２２０／６０
 50
0.0
 41
0.9
 51
0.0
  7
KANJI31
  0
LINE
  8
0
  6
CONTINUOUS
 62
     1
 10
1033.875
 20
1376.5
 30
0.0
 11
1033.875
 21
1276.4
 31
0.0
  0
LINE
  8
0
  6
CONTINUOUS
 62
     2
 10
976.125
 20
1376.5
 30
0.0
 11
976.125
 21
1276.4
 31
0.0
  0
LINE
  8
0
  6
CONTINUOUS
 62
     2
 10
918.375
 20
1376.5
 30
0.0
 11
918.375
 21
1276.4
 31
0.0
  0
LINE
  8
0
  6
CONTINUOUS
 62
     1
 10
841.375
 20
1376.5
 30
0.0
 11
841.375
 21
1276.4
 31
0.0
  0
LINE
  8
0
  6
CONTINUOUS
 62
     1
 10
841.375
 20
1376.5
 30
0.0
 11
1033.875
 21
1376.5
 31
0.0
  0
LINE
  8
0
  6
CONTINUOUS
 62
     1
 10
841.375
 20
1345.7
 30
0.0
 11
1033.875
 21
1345.7
 31
0.0
  0
LINE
  8
0
  6
CONTINUOUS
 62
     2
 10
841.375
 20
1322.6
 30
0.0
 11
1033.875
 21
1322.6
 31
0.0
  0
LINE
  8
0
  6
CONTINUOUS
 62
     2
 10
841.375
 20
1299.5
 30
0.0
 11
1033.875
 21
1299.5
 31
0.0
  0
LINE
  8
0
  6
CONTINUOUS
 62
     1
 10
841.375
 20
1276.4
 30
0.0
 11
1033.875
 21
1276.4
 31
0.0
  0
TEXT
  8
0
  6
CONTINUOUS
 62
     2
 10
983.825
 20
1363.025
 30
1.155
 40
11.55
  1
起動電流
 50
0.0
 41
0.9
 51
0.0
  7
KANJI31
  0
TEXT
  8
0
  6
CONTINUOUS
 62
     2
 10
983.825
 20
1349.55
 30
1.155
 40
11.55
  1
　　　Ａ
 50
0.0
 41
0.9
 51
0.0
  7
KANJI31
  0
TEXT
  8
0
  6
CONTINUOUS
 62
     2
 10
926.075
 20
1363.025
 30
1.155
 40
11.55
  1
定格電流
 50
0.0
 41
0.9
 51
0.0
  7
KANJI31
  0
TEXT
  8
0
  6
CONTINUOUS
 62
     2
 10
926.075
 20
1349.55
 30
1.155
 40
11.55
  1
　　　Ａ
 50
0.0
 41
0.9
 51
0.0
  7
KANJI31
  0
TEXT
  8
0
  6
CONTINUOUS
 62
     2
 10
847.92
 20
1363.025
 30
1.155
 40
11.55
  1
電圧／周波数
 50
0.0
 41
0.9
 51
0.0
  7
KANJI31
  0
TEXT
  8
0
  6
CONTINUOUS
 62
     2
 10
847.92
 20
1349.55
 30
1.155
 40
11.55
  1
　Ｖ／Ｈｚ
 50
0.0
 41
0.9
 51
0.0
  7
KANJI31
  0
TEXT
  8
0
  6
CONTINUOUS
 62
     2
 10
847.92
 20
1328.375
 30
1.155
 40
11.55
  1
４００／５０
 50
0.0
 41
0.9
 51
0.0
  7
KANJI31
  0
TEXT
  8
0
  6
CONTINUOUS
 62
     2
 10
847.92
 20
1305.275
 30
1.155
 40
11.55
  1
４００／６０
 50
0.0
 41
0.9
 51
0.0
  7
KANJI31
  0
TEXT
  8
0
  6
CONTINUOUS
 62
     2
 10
847.92
 20
1282.175
 30
1.155
 40
11.55
  1
４４０／６０
 50
0.0
 41
0.9
 51
0.0
  7
KANJI31
  0
TEXT
  8
0
  6
CONTINUOUS
 62
     2
 10
926.075
 20
1328.375
 30
1.155
 40
11.55
  1
　２．０
 50
0.0
 41
0.9
 51
0.0
  7
KANJI31
  0
TEXT
  8
0
  6
CONTINUOUS
 62
     2
 10
926.075
 20
1305.275
 30
1.155
 40
11.55
  1
　１．４
 50
0.0
 41
0.9
 51
0.0
  7
KANJI31
  0
TEXT
  8
0
  6
CONTINUOUS
 62
     2
 10
926.075
 20
1282.175
 30
1.155
 40
11.55
  1
　１．７
 50
0.0
 41
0.9
 51
0.0
  7
KANJI31
  0
TEXT
  8
0
  6
CONTINUOUS
 62
     2
 10
1157.075
 20
1328.375
 30
1.155
 40
11.55
  1
　４．０
 50
0.0
 41
0.9
 51
0.0
  7
KANJI31
  0
TEXT
  8
0
  6
CONTINUOUS
 62
     2
 10
1157.075
 20
1305.275
 30
1.155
 40
11.55
  1
　２．８
 50
0.0
 41
0.9
 51
0.0
  7
KANJI31
  0
TEXT
  8
0
  6
CONTINUOUS
 62
     2
 10
1157.075
 20
1282.175
 30
1.155
 40
11.55
  1
　３．３
 50
0.0
 41
0.9
 51
0.0
  7
KANJI31
  0
TEXT
  8
0
  6
CONTINUOUS
 62
     2
 10
1214.825
 20
1328.375
 30
1.155
 40
11.55
  1
　９．２
 50
0.0
 41
0.9
 51
0.0
  7
KANJI31
  0
TEXT
  8
0
  6
CONTINUOUS
 62
     2
 10
1214.825
 20
1305.275
 30
1.155
 40
11.55
  1
　８
 50
0.0
 41
0.9
 51
0.0
  7
KANJI31
  0
TEXT
  8
0
  6
CONTINUOUS
 62
     2
 10
1214.825
 20
1282.175
 30
1.155
 40
11.55
  1
　８．８
 50
0.0
 41
0.9
 51
0.0
  7
KANJI31
  0
TEXT
  8
0
  6
CONTINUOUS
 62
     2
 10
983.825
 20
1328.375
 30
1.155
 40
11.55
  1
　４．６
 50
0.0
 41
0.9
 51
0.0
  7
KANJI31
  0
TEXT
  8
0
  6
CONTINUOUS
 62
     2
 10
983.825
 20
1305.275
 30
1.155
 40
11.55
  1
　４
 50
0.0
 41
0.9
 51
0.0
  7
KANJI31
  0
TEXT
  8
0
  6
CONTINUOUS
 62
     2
 10
983.825
 20
1282.175
 30
1.155
 40
11.55
  1
　４．４
 50
0.0
 41
0.9
 51
0.0
  7
KANJI31
  0
LINE
  8
0
  6
CONTINUOUS
 62
     2
 10
840.5
 20
1167.45
 30
0.0
 11
1488.5
 21
1167.45
 31
0.0
  0
LINE
  8
0
  6
CONTINUOUS
 62
     2
 10
840.5
 20
1139.45
 30
0.0
 11
1488.5
 21
1139.45
 31
0.0
  0
LINE
  8
0
  6
CONTINUOUS
 62
     2
 10
840.5
 20
1111.45
 30
0.0
 11
1488.5
 21
1111.45
 31
0.0
  0
LINE
  8
0
  6
CONTINUOUS
 62
     2
 10
840.5
 20
1055.45
 30
0.0
 11
1488.5
 21
1055.45
 31
0.0
  0
LINE
  8
0
  6
CONTINUOUS
 62
     2
 10
840.5
 20
1083.45
 30
0.0
 11
1488.5
 21
1083.45
 31
0.0
  0
LINE
  8
0
  6
CONTINUOUS
 62
     2
 10
840.5
 20
999.45
 30
0.0
 11
1488.5
 21
999.45
 31
0.0
  0
LINE
  8
0
  6
CONTINUOUS
 62
     2
 10
840.5
 20
1027.45
 30
0.0
 11
1488.5
 21
1027.45
 31
0.0
  0
TEXT
  8
0
  6
CONTINUOUS
 62
     2
 10
1426.5
 20
1174.15
 30
1.2
 40
12.0
  1
　　３５
 50
0.0
 41
0.9
 51
0.0
  7
KANJI18
  0
TEXT
  8
0
  6
CONTINUOUS
 62
     2
 10
1426.5
 20
1146.15
 30
1.2
 40
12.0
  1
　　３６
 50
0.0
 41
0.9
 51
0.0
  7
KANJI18
  0
TEXT
  8
0
  6
CONTINUOUS
 62
     2
 10
1426.5
 20
1118.15
 30
1.2
 40
12.0
  1
　　３７
 50
0.0
 41
0.9
 51
0.0
  7
KANJI18
  0
TEXT
  8
0
  6
CONTINUOUS
 62
     2
 10
1426.5
 20
1090.15
 30
1.2
 40
12.0
  1
　　３８
 50
0.0
 41
0.9
 51
0.0
  7
KANJI18
  0
TEXT
  8
0
  6
CONTINUOUS
 62
     2
 10
1426.5
 20
1062.15
 30
1.2
 40
12.0
  1
　　３９
 50
0.0
 41
0.9
 51
0.0
  7
KANJI18
  0
TEXT
  8
0
  6
CONTINUOUS
 62
     2
 10
1426.5
 20
1034.15
 30
1.2
 40
12.0
  1
　　４１
 50
0.0
 41
0.9
 51
0.0
  7
KANJI18
  0
TEXT
  8
0
  6
CONTINUOUS
 62
     2
 10
1426.5
 20
1006.15
 30
1.2
 40
12.0
  1
　　４２
 50
0.0
 41
0.9
 51
0.0
  7
KANJI18
  0
TEXT
  8
0
  6
CONTINUOUS
 62
     6
 10
275.212791539
 20
1076.12382165
 30
0.0
 40
17.740702234
  1
端子台　接続図
 50
0.0
 41
0.880962996
 51
0.0
  7
KANJI32
  0
TEXT
  8
0
  6
CONTINUOUS
 62
     2
 10
874.6775
 20
1259.075
 30
1.3475
 40
13.475
  1
注意：サーマルリレー等の選定は、上記の値で選定して下さい。
 50
0.0
 41
0.9
 51
0.0
  7
KANJI33
  0
LINE
  8
0
  6
CONTINUOUS
 62
     2
 10
866.9775
 20
1255.225
 30
0.0
 11
1258.927902
 21
1255.225
 31
0.0
  0
LINE
  8
0
  6
CONTINUOUS
 62
     2
 10
310.177373465
 20
1127.128121884
 30
0.0
 11
310.177373465
 21
1104.349155128
 31
0.0
  0
LINE
  8
0
  6
CONTINUOUS
 62
     2
 10
336.75283468
 20
1127.128121884
 30
0.0
 11
336.75283468
 21
1104.349155128
 31
0.0
  0
LINE
  8
0
  6
CONTINUOUS
 62
     2
 10
363.328295894
 20
1127.128121884
 30
0.0
 11
363.328295894
 21
1104.349155128
 31
0.0
  0
LINE
  8
0
  6
CONTINUOUS
 62
     2
 10
389.903757109
 20
1127.128121884
 30
0.0
 11
389.903757109
 21
1104.349155128
 31
0.0
  0
CIRCLE
  8
0
  6
CONTINUOUS
 62
     6
 10
381.984269667
 20
1150.607921517
 30
0.0
 40
4.100214016
  0
LINE
  8
0
  6
CONTINUOUS
 62
     6
 10
377.884055651
 20
1150.607921517
 30
0.0
 11
376.616026502
 21
1150.607921517
 31
0.0
  0
LINE
  8
0
  6
CONTINUOUS
 62
     6
 10
402.938027433
 20
1164.294562742
 30
0.0
 11
399.023558096
 21
1141.959507138
 31
0.0
  0
LINE
  8
0
  6
CONTINUOUS
 62
     6
 10
398.211699663
 20
1165.082284037
 30
0.0
 11
394.296922494
 21
1142.747279739
 31
0.0
  0
LINE
  8
0
  6
CONTINUOUS
 62
     6
 10
399.023558096
 20
1141.959507138
 30
0.0
 11
394.296922494
 21
1142.747279739
 31
0.0
  0
CIRCLE
  8
0
  6
CONTINUOUS
 62
     6
 10
403.191487717
 20
1141.139464335
 30
0.0
 40
4.100214016
  0
LINE
  8
0
  6
CONTINUOUS
 62
     6
 10
403.191487717
 20
1137.039250319
 30
0.0
 11
403.191487717
 21
1127.128121884
 31
0.0
  0
LINE
  8
0
  6
CONTINUOUS
 62
     6
 10
376.616026502
 20
1150.607921517
 30
0.0
 11
376.616026502
 21
1127.128121884
 31
0.0
  0
LINE
  8
0
  6
CONTINUOUS
 62
     6
 10
350.040565287
 20
1127.128121884
 30
0.0
 11
350.040565287
 21
1180.833332504
 31
0.0
  0
LINE
  8
0
  6
CONTINUOUS
 62
     6
 10
270.567641926
 20
1164.294562742
 30
0.0
 11
274.482111263
 21
1141.959507138
 31
0.0
  0
LINE
  8
0
  6
CONTINUOUS
 62
     6
 10
275.293969696
 20
1165.082284037
 30
0.0
 11
279.208746865
 21
1142.747279739
 31
0.0
  0
LINE
  8
0
  6
CONTINUOUS
 62
     6
 10
274.482111263
 20
1141.959507138
 30
0.0
 11
279.208746865
 21
1142.747279739
 31
0.0
  0
CIRCLE
  8
0
  6
CONTINUOUS
 62
     6
 10
270.314181642
 20
1141.139464335
 30
0.0
 40
4.100214016
  0
CIRCLE
  8
0
  6
CONTINUOUS
 62
     6
 10
291.521399692
 20
1150.607921517
 30
0.0
 40
4.100214016
  0
LINE
  8
0
  6
CONTINUOUS
 62
     6
 10
295.621613708
 20
1150.607921517
 30
0.0
 11
296.889642857
 21
1150.607921517
 31
0.0
  0
LINE
  8
0
  6
CONTINUOUS
 62
     6
 10
270.314181642
 20
1137.039250319
 30
0.0
 11
270.314181642
 21
1127.128121884
 31
0.0
  0
LINE
  8
0
  6
CONTINUOUS
 62
     6
 10
296.889642857
 20
1150.607921517
 30
0.0
 11
296.889642857
 21
1127.128121884
 31
0.0
  0
LINE
  8
0
  6
CONTINUOUS
 62
     6
 10
323.465104072
 20
1127.128121884
 30
0.0
 11
323.465104072
 21
1180.833332504
 31
0.0
  0
LINE
  8
0
  6
CONTINUOUS
 62
     2
 10
416.479218324
 20
1127.128121884
 30
0.0
 11
416.479218324
 21
1104.349155128
 31
0.0
  0
LINE
  8
0
  6
CONTINUOUS
 62
     2
 10
257.026451035
 20
1127.128121884
 30
0.0
 11
257.026451035
 21
1104.349155128
 31
0.0
  0
LINE
  8
0
  6
CONTINUOUS
 62
     2
 10
283.60191225
 20
1127.128121884
 30
0.0
 11
283.60191225
 21
1104.349155128
 31
0.0
  0
LINE
  8
0
  6
CONTINUOUS
 62
     6
 10
403.191487717
 20
1180.833332504
 30
0.0
 11
350.040565287
 21
1180.833332504
 31
0.0
  0
CIRCLE
  8
0
  6
CONTINUOUS
 62
     6
 10
403.191487717
 20
1168.48941042
 30
0.0
 40
4.100214016
  0
LINE
  8
0
  6
CONTINUOUS
 62
     6
 10
402.938027433
 20
1164.294562742
 30
0.0
 11
398.211699663
 21
1165.082284037
 31
0.0
  0
LINE
  8
0
  6
CONTINUOUS
 62
     6
 10
403.191487717
 20
1172.589624436
 30
0.0
 11
403.191487717
 21
1180.833332504
 31
0.0
  0
CIRCLE
  8
0
  6
CONTINUOUS
 62
     6
 10
270.314181642
 20
1168.48941042
 30
0.0
 40
4.100214016
  0
LINE
  8
0
  6
CONTINUOUS
 62
     6
 10
270.567641926
 20
1164.294562742
 30
0.0
 11
275.293969696
 21
1165.082284037
 31
0.0
  0
LINE
  8
0
  6
CONTINUOUS
 62
     6
 10
270.314181642
 20
1172.589624436
 30
0.0
 11
270.314181642
 21
1180.833332504
 31
0.0
  0
LINE
  8
0
  6
CONTINUOUS
 62
     6
 10
323.465104072
 20
1180.833332504
 30
0.0
 11
270.314181642
 21
1180.833332504
 31
0.0
  0
TEXT
  8
0
  6
CONTINUOUS
 62
     6
 10
275.0772152
 20
1185.352473273
 30
0.819
 40
11.7
  1
ＬＳ０１
 50
0.0
 41
0.8
 51
0.0
  7
KANJI34
  0
TEXT
  8
0
  6
CONTINUOUS
 62
     6
 10
357.697398844
 20
1185.352473273
 30
0.819
 40
11.7
  1
ＬＳ０２
 50
0.0
 41
0.8
 51
0.0
  7
KANJI34
  0
TEXT
  8
0
  6
CONTINUOUS
 62
     3
 10
102.888775989
 20
1108.145649587
 30
0.0
 40
15.0
  1
　　　　　　　　　　　　　　　　　　１　　２　　　３　　　４　　　５　　　６
 50
0.0
 41
0.911
 51
0.0
  7
KANJI35
  0
LINE
  8
0
  6
CONTINUOUS
 62
     2
 10
257.026451035
 20
1127.128121884
 30
0.0
 11
416.479218324
 21
1127.128121884
 31
0.0
  0
LINE
  8
0
  6
CONTINUOUS
 62
     2
 10
257.026451035
 20
1104.349155128
 30
0.0
 11
416.479218324
 21
1104.349155128
 31
0.0
  0
TEXT
  8
0
  6
CONTINUOUS
 62
     6
 10
248.712791539
 20
1215.12382165
 30
0.0
 40
17.740702234
  1
推力リミッタ端子台配列
 50
0.0
 41
0.880962996
 51
0.0
  7
KANJI32
  0
LINE
  8
0
  6
CONTINUOUS
 62
     1
 10
656.075
 20
597.9
 30
0.0
 11
656.075
 21
572.9
 31
0.0
  0
LINE
  8
0
  6
CONTINUOUS
 62
     1
 10
631.075
 20
597.9
 30
0.0
 11
656.075
 21
597.9
 31
0.0
  0
LINE
  8
0
  6
CONTINUOUS
 62
     1
 10
679.575
 20
565.4
 30
0.0
 11
679.575
 21
621.15
 31
0.0
  0
LINE
  8
0
  6
CONTINUOUS
 62
     1
 10
671.575
 20
565.4
 30
0.0
 11
671.575
 21
621.15
 31
0.0
  0
ARC
  8
0
  6
CONTINUOUS
 62
     1
 10
675.575
 20
621.15
 30
0.0
 40
4.0
 50
0.0
 51
180.0
  0
LINE
  8
0
  6
LTYPE3
 62
     2
 10
675.575
 20
535.15
 30
0.0
 11
675.575
 21
629.15
 31
0.0
  0
LINE
  8
0
  6
CONTINUOUS
 62
     1
 10
679.575
 20
617.15
 30
0.0
 11
731.575
 21
617.15
 31
0.0
  0
LINE
  8
0
  6
LTYPE3
 62
     2
 10
643.575
 20
566.7
 30
0.0
 11
643.575
 21
606.4
 31
0.0
  0
LINE
  8
7
  6
CONTINUOUS
 62
     2
 10
648.044424461
 20
594.9
 30
0.0
 11
654.011000149
 21
602.924959474
 31
0.0
  0
LINE
  8
7
  6
CONTINUOUS
 62
     2
 10
648.044424461
 20
594.9
 30
0.0
 11
649.199150843
 21
604.833106613
 31
0.0
  0
LINE
  8
0
  6
CONTINUOUS
 62
     1
 10
631.075
 20
572.9
 30
0.0
 11
656.075
 21
572.9
 31
0.0
  0
LINE
  8
0
  6
CONTINUOUS
 62
     1
 10
631.075
 20
597.9
 30
0.0
 11
631.075
 21
572.9
 31
0.0
  0
LINE
  8
0
  6
CONTINUOUS
 62
     1
 10
667.575
 20
496.4
 30
0.0
 11
667.575
 21
565.4
 31
0.0
  0
LINE
  8
0
  6
CONTINUOUS
 62
     1
 10
667.575
 20
565.4
 30
0.0
 11
683.575
 21
565.4
 31
0.0
  0
CIRCLE
  8
0
  6
CONTINUOUS
 62
     1
 10
643.575
 20
585.4
 30
0.0
 40
12.5
  0
LINE
  8
0
  6
CONTINUOUS
 62
     1
 10
667.575
 20
545.4
 30
0.0
 11
683.575
 21
545.4
 31
0.0
  0
LINE
  8
0
  6
CONTINUOUS
 62
     1
 10
683.575
 20
496.4
 30
0.0
 11
683.575
 21
565.4
 31
0.0
  0
LINE
  8
0
  6
CONTINUOUS
 62
     1
 10
683.575
 20
553.65
 30
0.0
 11
727.575
 21
553.65
 31
0.0
  0
LINE
  8
0
  6
CONTINUOUS
 62
     1
 10
640.575
 20
496.4
 30
0.0
 11
770.575
 21
496.4
 31
0.0
  0
LINE
  8
0
  6
CONTINUOUS
 62
     1
 10
640.575
 20
490.4
 30
0.0
 11
640.575
 21
496.4
 31
0.0
  0
LINE
  8
0
  6
CONTINUOUS
 62
     1
 10
640.575
 20
490.4
 30
0.0
 11
770.575
 21
490.4
 31
0.0
  0
LINE
  8
0
  6
CONTINUOUS
 62
     1
 10
684.175
 20
490.4
 30
0.0
 11
684.175
 21
450.4
 31
0.0
  0
LINE
  8
0
  6
CONTINUOUS
 62
     1
 10
632.875
 20
489.4
 30
0.0
 11
632.875
 21
464.0
 31
0.0
  0
LINE
  8
0
  6
CONTINUOUS
 62
     1
 10
658.275
 20
489.4
 30
0.0
 11
632.875
 21
489.4
 31
0.0
  0
LINE
  8
0
  6
CONTINUOUS
 62
     1
 10
658.275
 20
464.0
 30
0.0
 11
632.875
 21
464.0
 31
0.0
  0
LINE
  8
0
  6
CONTINUOUS
 62
     1
 10
658.275
 20
490.4
 30
0.0
 11
658.275
 21
450.4
 31
0.0
  0
LINE
  8
0
  6
LTYPE4
 62
     2
 10
693.675
 20
469.1
 30
0.0
 11
676.675
 21
469.1
 31
0.0
  0
LINE
  8
0
  6
CONTINUOUS
 62
     1
 10
689.575
 20
435.4
 30
0.0
 11
689.575
 21
450.4
 31
0.0
  0
LINE
  8
0
  6
CONTINUOUS
 62
     1
 10
721.575
 20
435.4
 30
0.0
 11
721.575
 21
450.4
 31
0.0
  0
LINE
  8
0
  6
CONTINUOUS
 62
     1
 10
684.175
 20
456.4
 30
0.0
 11
752.875
 21
456.4
 31
0.0
  0
LINE
  8
0
  6
CONTINUOUS
 62
     1
 10
658.275
 20
456.4
 30
0.0
 11
680.175
 21
456.4
 31
0.0
  0
LINE
  8
0
  6
CONTINUOUS
 62
     1
 10
684.175
 20
450.4
 30
0.0
 11
752.875
 21
450.4
 31
0.0
  0
LINE
  8
0
  6
CONTINUOUS
 62
     1
 10
658.275
 20
450.4
 30
0.0
 11
680.175
 21
450.4
 31
0.0
  0
LINE
  8
0
  6
LTYPE2
 62
     2
 10
705.575
 20
139.4
 30
0.0
 11
705.575
 21
450.4
 31
0.0
  0
LINE
  8
0
  6
LTYPE5
 62
     2
 10
611.924814745
 20
625.15
 30
0.0
 11
611.924814745
 21
545.65
 31
0.0
  0
LINE
  8
0
  6
LTYPE5
 62
     2
 10
617.924814745
 20
625.15
 30
0.0
 11
617.924814745
 21
545.65
 31
0.0
  0
LINE
  8
0
  6
CONTINUOUS
 62
     1
 10
617.924814745
 20
617.15
 30
0.0
 11
671.575
 21
617.15
 31
0.0
  0
LINE
  8
0
  6
CONTINUOUS
 62
     1
 10
617.924814745
 20
553.65
 30
0.0
 11
667.575
 21
553.65
 31
0.0
  0
LINE
  8
0
  6
CONTINUOUS
 62
     1
 10
260.575
 20
755.4
 30
0.0
 11
297.575
 21
755.4
 31
0.0
  0
LINE
  8
0
  6
CONTINUOUS
 62
     1
 10
260.575
 20
736.4
 30
0.0
 11
260.575
 21
755.4
 31
0.0
  0
ARC
  8
0
  6
CONTINUOUS
 62
     1
 10
254.575
 20
736.4
 30
0.0
 40
6.0
 50
270.0
 51
360.0
  0
ARC
  8
0
  6
CONTINUOUS
 62
     1
 10
282.575
 20
733.4
 30
0.0
 40
3.0
 50
270.0
 51
360.0
  0
ARC
  8
0
  6
CONTINUOUS
 62
     1
 10
282.575
 20
680.4
 30
0.0
 40
3.0
 50
270.0
 51
0.0
  0
LINE
  8
0
  6
CONTINUOUS
 62
     1
 10
285.575
 20
734.352380952
 30
0.0
 11
289.575
 21
755.4
 31
0.0
  0
LINE
  8
0
  6
CONTINUOUS
 62
     1
 10
285.575
 20
680.4
 30
0.0
 11
285.575
 21
734.352380952
 31
0.0
  0
CIRCLE
  8
0
  6
CONTINUOUS
 62
     1
 10
273.575
 20
775.4
 30
0.0
 40
12.5
  0
ARC
  8
0
  6
CONTINUOUS
 62
     1
 10
273.575
 20
775.4
 30
0.0
 40
20.5
 50
300.423432294
 51
0.0
  0
ARC
  8
0
  6
CONTINUOUS
 62
     1
 10
284.522984073
 20
756.673488336
 30
0.0
 40
1.2
 50
118.393405187
 51
188.554293104
  0
ARC
  8
0
  6
CONTINUOUS
 62
     1
 10
262.627015927
 20
756.673488336
 30
0.0
 40
1.2
 50
351.445706896
 51
61.606594813
  0
ARC
  8
0
  6
CONTINUOUS
 62
     1
 10
273.575
 20
775.4
 30
0.0
 40
20.5
 50
0.0
 51
239.707348078
  0
LINE
  8
0
  6
CONTINUOUS
 62
     1
 10
283.460714286
 20
755.4
 30
0.0
 11
282.775
 21
761.4
 31
0.0
  0
CIRCLE
  8
0
  6
CONTINUOUS
 62
     1
 10
367.575
 20
585.4
 30
0.0
 40
20.0
  0
CIRCLE
  8
0
  6
CONTINUOUS
 62
     1
 10
367.575
 20
585.4
 30
0.0
 40
8.0
  0
ARC
  8
0
  6
CONTINUOUS
 62
     1
 10
303.575
 20
534.4
 30
0.0
 40
2.0
 50
270.0
 51
0.0
  0
LINE
  8
0
  6
CONTINUOUS
 62
     1
 10
308.575
 20
622.4
 30
0.0
 11
465.575
 21
622.4
 31
0.0
  0
LINE
  8
0
  6
CONTINUOUS
 62
     1
 10
308.575
 20
548.4
 30
0.0
 11
391.575
 21
548.4
 31
0.0
  0
ARC
  8
0
  6
CONTINUOUS
 62
     1
 10
308.575
 20
545.4
 30
0.0
 40
3.0
 50
87.047798252
 51
176.185925166
  0
ARC
  8
0
  6
CONTINUOUS
 62
     1
 10
308.375
 20
625.4
 30
0.0
 40
3.0
 50
177.893372153
 51
273.822553727
  0
LINE
  8
0
  6
CONTINUOUS
 62
     1
 10
473.575
 20
625.4
 30
0.0
 11
473.575
 21
545.4
 31
0.0
  0
LINE
  8
0
  6
CONTINUOUS
 62
     1
 10
465.575
 20
625.4
 30
0.0
 11
473.575
 21
625.4
 31
0.0
  0
LINE
  8
0
  6
CONTINUOUS
 62
     1
 10
465.575
 20
545.4
 30
0.0
 11
473.575
 21
545.4
 31
0.0
  0
LINE
  8
0
  6
CONTINUOUS
 62
     1
 10
465.575
 20
586.9
 30
0.0
 11
473.575
 21
586.9
 31
0.0
  0
LINE
  8
0
  6
CONTINUOUS
 62
     1
 10
465.575
 20
583.9
 30
0.0
 11
473.575
 21
583.9
 31
0.0
  0
LINE
  8
0
  6
CONTINUOUS
 62
     1
 10
391.575
 20
562.4
 30
0.0
 11
465.575
 21
562.4
 31
0.0
  0
LINE
  8
0
  6
CONTINUOUS
 62
     1
 10
297.575
 20
532.4
 30
0.0
 11
303.575
 21
532.4
 31
0.0
  0
LINE
  8
0
  6
CONTINUOUS
 62
     1
 10
297.575
 20
687.2
 30
0.0
 11
297.575
 21
695.4
 31
0.0
  0
LINE
  8
0
  6
CONTINUOUS
 62
     1
 10
297.575
 20
687.2
 30
0.0
 11
297.575
 21
695.4
 31
0.0
  0
LINE
  8
0
  6
LTYPE3
 62
     2
 10
291.975
 20
695.4
 30
0.0
 11
303.975
 21
695.4
 31
0.0
  0
LINE
  8
0
  6
LTYPE3
 62
     2
 10
291.975
 20
695.4
 30
0.0
 11
303.975
 21
695.4
 31
0.0
  0
LINE
  8
0
  6
CONTINUOUS
 62
     1
 10
237.575
 20
730.4
 30
0.0
 11
282.575
 21
730.4
 31
0.0
  0
CIRCLE
  8
0
  6
CONTINUOUS
 62
     1
 10
367.575
 20
585.4
 30
0.0
 40
26.0
  0
LINE
  8
0
  6
CONTINUOUS
 62
     1
 10
391.575
 20
572.9
 30
0.0
 11
391.575
 21
540.4
 31
0.0
  0
LINE
  8
0
  6
CONTINUOUS
 62
     1
 10
465.575
 20
625.4
 30
0.0
 11
465.575
 21
540.4
 31
0.0
  0
LINE
  8
0
  6
LTYPE3
 62
     2
 10
428.575
 20
553.4
 30
0.0
 11
428.575
 21
529.4
 31
0.0
  0
LINE
  8
0
  6
LTYPE3
 62
     2
 10
367.575
 20
617.4
 30
0.0
 11
367.575
 21
553.4
 31
0.0
  0
LINE
  8
0
  6
LTYPE3
 62
     2
 10
273.575
 20
745.525
 30
0.0
 11
273.575
 21
799.7
 31
0.0
  0
LINE
  8
0
  6
CONTINUOUS
 62
     6
 10
273.575
 20
762.9
 30
0.0
 11
282.775
 21
761.4
 31
0.0
  0
LINE
  8
0
  6
CONTINUOUS
 62
     6
 10
273.575
 20
762.9
 30
0.0
 11
264.375
 21
761.4
 31
0.0
  0
LINE
  8
0
  6
CONTINUOUS
 62
     1
 10
263.689285714
 20
755.4
 30
0.0
 11
264.375
 21
761.4
 31
0.0
  0
LINE
  8
0
  6
CONTINUOUS
 62
     6
 10
264.375
 20
761.4
 30
0.0
 11
282.775
 21
761.4
 31
0.0
  0
LINE
  8
0
  6
CONTINUOUS
 62
     1
 10
311.575
 20
695.4
 30
0.0
 11
311.575
 21
752.4
 31
0.0
  0
ARC
  8
0
  6
CONTINUOUS
 62
     1
 10
307.075
 20
753.9
 30
0.0
 40
1.5
 50
180.0
 51
270.0
  0
LINE
  8
0
  6
CONTINUOUS
 62
     1
 10
305.575
 20
753.9
 30
0.0
 11
305.575
 21
754.9
 31
0.0
  0
ARC
  8
0
  6
CONTINUOUS
 62
     1
 10
304.075
 20
754.9
 30
0.0
 40
1.5
 50
0.0
 51
90.0
  0
LINE
  8
0
  6
CONTINUOUS
 62
     1
 10
460.575
 20
695.4
 30
0.0
 11
460.575
 21
752.4
 31
0.0
  0
ARC
  8
0
  6
CONTINUOUS
 62
     1
 10
464.075
 20
750.9
 30
0.0
 40
1.5
 50
0.0
 51
90.0
  0
LINE
  8
0
  6
CONTINUOUS
 62
     1
 10
305.575
 20
695.4
 30
0.0
 11
305.575
 21
754.5
 31
0.0
  0
LINE
  8
0
  6
CONTINUOUS
 62
     1
 10
465.575
 20
738.470524155
 30
0.0
 11
465.575
 21
750.9
 31
0.0
  0
ARC
  8
0
  6
CONTINUOUS
 62
     1
 10
467.075
 20
738.470524155
 30
0.0
 40
1.5
 50
180.0
 51
251.029592192
  0
LINE
  8
0
  6
CONTINUOUS
 62
     1
 10
481.575
 20
695.4
 30
0.0
 11
481.575
 21
730.829475845
 31
0.0
  0
LINE
  8
0
  6
CONTINUOUS
 62
     1
 10
480.562619653
 20
732.248005744
 30
0.0
 11
466.587380347
 21
737.051994256
 31
0.0
  0
ARC
  8
0
  6
CONTINUOUS
 62
     1
 10
480.075
 20
730.829475845
 30
0.0
 40
1.5
 50
0.0
 51
71.029592192
  0
LINE
  8
0
  6
CONTINUOUS
 62
     1
 10
465.575
 20
695.4
 30
0.0
 11
465.575
 21
738.470524155
 31
0.0
  0
ARC
  8
0
  6
CONTINUOUS
 62
     1
 10
493.575
 20
711.9
 30
0.0
 40
1.0
 50
0.0
 51
90.0
  0
LINE
  8
0
  6
CONTINUOUS
 62
     1
 10
493.575
 20
712.9
 30
0.0
 11
481.575
 21
712.9
 31
0.0
  0
LINE
  8
0
  6
CONTINUOUS
 62
     1
 10
494.575
 20
695.4
 30
0.0
 11
494.575
 21
711.9
 31
0.0
  0
LINE
  8
0
  6
CONTINUOUS
 62
     1
 10
311.575
 20
695.4
 30
0.0
 11
311.575
 21
638.4
 31
0.0
  0
ARC
  8
0
  6
CONTINUOUS
 62
     1
 10
307.075
 20
636.9
 30
0.0
 40
1.5
 50
90.0
 51
180.0
  0
LINE
  8
0
  6
CONTINUOUS
 62
     1
 10
305.575
 20
636.9
 30
0.0
 11
305.575
 21
635.9
 31
0.0
  0
ARC
  8
0
  6
CONTINUOUS
 62
     1
 10
304.075
 20
635.9
 30
0.0
 40
1.5
 50
270.0
 51
0.0
  0
LINE
  8
0
  6
CONTINUOUS
 62
     1
 10
460.575
 20
695.4
 30
0.0
 11
460.575
 21
638.4
 31
0.0
  0
LINE
  8
0
  6
CONTINUOUS
 62
     1
 10
464.075
 20
638.4
 30
0.0
 11
307.075
 21
638.4
 31
0.0
  0
ARC
  8
0
  6
CONTINUOUS
 62
     1
 10
464.075
 20
639.9
 30
0.0
 40
1.5
 50
270.0
 51
0.0
  0
LINE
  8
0
  6
CONTINUOUS
 62
     1
 10
305.575
 20
695.4
 30
0.0
 11
305.575
 21
636.3
 31
0.0
  0
LINE
  8
0
  6
CONTINUOUS
 62
     1
 10
481.575
 20
695.4
 30
0.0
 11
481.575
 21
659.970524155
 31
0.0
  0
ARC
  8
0
  6
CONTINUOUS
 62
     1
 10
480.075
 20
659.970524155
 30
0.0
 40
1.5
 50
288.970407808
 51
0.0
  0
ARC
  8
0
  6
CONTINUOUS
 62
     1
 10
493.575
 20
678.9
 30
0.0
 40
1.0
 50
270.0
 51
0.0
  0
LINE
  8
0
  6
CONTINUOUS
 62
     1
 10
493.575
 20
677.9
 30
0.0
 11
481.575
 21
677.9
 31
0.0
  0
LINE
  8
0
  6
CONTINUOUS
 62
     1
 10
494.575
 20
695.4
 30
0.0
 11
494.575
 21
678.9
 31
0.0
  0
LINE
  8
0
  6
LTYPE2
 62
     2
 10
473.575
 20
731.462445841
 30
0.0
 11
462.575
 21
731.462445841
 31
0.0
  0
LINE
  8
0
  6
CONTINUOUS
 62
     1
 10
465.575
 20
652.329475845
 30
0.0
 11
465.575
 21
639.9
 31
0.0
  0
ARC
  8
0
  6
CONTINUOUS
 62
     1
 10
467.075
 20
652.329475845
 30
0.0
 40
1.5
 50
108.970407808
 51
180.0
  0
LINE
  8
0
  6
CONTINUOUS
 62
     1
 10
480.562619653
 20
658.551994256
 30
0.0
 11
466.587380347
 21
653.748005744
 31
0.0
  0
LINE
  8
0
  6
CONTINUOUS
 62
     1
 10
465.575
 20
695.4
 30
0.0
 11
465.575
 21
652.329475845
 31
0.0
  0
LINE
  8
0
  6
LTYPE2
 62
     2
 10
473.575
 20
659.337554159
 30
0.0
 11
462.575
 21
659.337554159
 31
0.0
  0
LINE
  8
0
  6
CONTINUOUS
 62
     1
 10
410.575
 20
773.4
 30
0.0
 11
410.575
 21
807.4
 31
0.0
  0
LINE
  8
0
  6
CONTINUOUS
 62
     1
 10
410.575
 20
773.4
 30
0.0
 11
384.575
 21
773.4
 31
0.0
  0
LINE
  8
0
  6
CONTINUOUS
 62
     1
 10
410.575
 20
807.4
 30
0.0
 11
384.575
 21
807.4
 31
0.0
  0
LINE
  8
0
  6
CONTINUOUS
 62
     1
 10
314.575
 20
765.4
 30
0.0
 11
314.575
 21
768.4
 31
0.0
  0
ARC
  8
0
  6
CONTINUOUS
 62
     1
 10
318.575
 20
762.4
 30
0.0
 40
3.0
 50
0.0
 51
90.0
  0
LINE
  8
0
  6
CONTINUOUS
 62
     1
 10
321.575
 20
755.4
 30
0.0
 11
321.575
 21
762.4
 31
0.0
  0
ARC
  8
0
  6
CONTINUOUS
 62
     1
 10
324.575
 20
755.4
 30
0.0
 40
3.0
 50
180.0
 51
270.0
  0
LINE
  8
0
  6
CONTINUOUS
 62
     1
 10
464.075
 20
752.4
 30
0.0
 11
307.075
 21
752.4
 31
0.0
  0
LINE
  8
0
  6
CONTINUOUS
 62
     1
 10
374.575
 20
765.4
 30
0.0
 11
374.575
 21
768.4
 31
0.0
  0
ARC
  8
0
  6
CONTINUOUS
 62
     1
 10
370.575
 20
762.4
 30
0.0
 40
3.0
 50
90.0
 51
180.0
  0
LINE
  8
0
  6
CONTINUOUS
 62
     1
 10
367.575
 20
755.4
 30
0.0
 11
367.575
 21
762.4
 31
0.0
  0
ARC
  8
0
  6
CONTINUOUS
 62
     1
 10
364.575
 20
755.4
 30
0.0
 40
3.0
 50
270.0
 51
0.0
  0
LINE
  8
0
  6
CONTINUOUS
 62
     1
 10
374.575
 20
765.4
 30
0.0
 11
314.575
 21
765.4
 31
0.0
  0
LINE
  8
0
  6
CONTINUOUS
 62
     1
 10
299.487087912
 20
770.4
 30
0.0
 11
391.575
 21
814.420045888
 31
0.0
  0
LINE
  8
0
  6
CONTINUOUS
 62
     1
 10
297.575
 20
774.4
 30
0.0
 11
299.487087912
 21
770.4
 31
0.0
  0
LINE
  8
0
  6
CONTINUOUS
 62
     1
 10
297.575
 20
774.4
 30
0.0
 11
389.662912088
 21
818.420045888
 31
0.0
  0
LINE
  8
0
  6
CONTINUOUS
 62
     1
 10
389.662912088
 20
818.420045888
 30
0.0
 11
391.575
 21
814.420045888
 31
0.0
  0
LINE
  8
0
  6
CONTINUOUS
 62
     1
 10
304.575
 20
777.746153846
 30
0.0
 11
304.575
 21
817.4
 31
0.0
  0
ARC
  8
0
  6
CONTINUOUS
 62
     1
 10
307.575
 20
817.4
 30
0.0
 40
3.0
 50
90.0
 51
180.0
  0
LINE
  8
0
  6
CONTINUOUS
 62
     1
 10
304.575
 20
771.4
 30
0.0
 11
304.575
 21
772.8321338
 31
0.0
  0
ARC
  8
0
  6
CONTINUOUS
 62
     1
 10
307.575
 20
771.4
 30
0.0
 40
3.0
 50
180.0
 51
270.0
  0
LINE
  8
0
  6
CONTINUOUS
 62
     1
 10
384.575
 20
771.4
 30
0.0
 11
384.575
 21
811.073892042
 31
0.0
  0
LINE
  8
0
  6
CONTINUOUS
 62
     1
 10
381.575
 20
768.4
 30
0.0
 11
307.575
 21
768.4
 31
0.0
  0
ARC
  8
0
  6
CONTINUOUS
 62
     1
 10
381.575
 20
771.4
 30
0.0
 40
3.0
 50
270.0
 51
0.0
  0
LINE
  8
0
  6
CONTINUOUS
 62
     1
 10
384.575
 20
815.987912088
 30
0.0
 11
384.575
 21
817.4
 31
0.0
  0
LINE
  8
0
  6
CONTINUOUS
 62
     1
 10
381.575
 20
820.4
 30
0.0
 11
307.575
 21
820.4
 31
0.0
  0
ARC
  8
0
  6
CONTINUOUS
 62
     1
 10
381.575
 20
817.4
 30
0.0
 40
3.0
 50
0.0
 51
90.0
  0
LINE
  8
0
  6
LTYPE2
 62
     2
 10
344.575
 20
740.4
 30
0.0
 11
344.575
 21
828.3321338
 31
0.0
  0
LINE
  8
0
  6
CONTINUOUS
 62
     6
 10
466.875
 20
731.462445841
 30
0.0
 11
466.875
 21
726.850565841
 31
0.0
  0
LINE
  8
0
  6
CONTINUOUS
 62
     6
 10
466.875
 20
731.462445841
 30
0.0
 11
466.875
 21
736.074325841
 31
0.0
  0
LINE
  8
0
  6
CONTINUOUS
 62
     6
 10
470.3752
 20
727.980005841
 30
0.0
 11
469.723117512
 21
726.850565841
 31
0.0
  0
LINE
  8
0
  6
CONTINUOUS
 62
     6
 10
470.3752
 20
731.462445841
 30
0.0
 11
470.3752
 21
727.980005841
 31
0.0
  0
LINE
  8
0
  6
CONTINUOUS
 62
     6
 10
470.3752
 20
734.944885841
 30
0.0
 11
469.723117512
 21
736.074325841
 31
0.0
  0
LINE
  8
0
  6
CONTINUOUS
 62
     6
 10
470.3752
 20
731.462445841
 30
0.0
 11
470.3752
 21
734.944885841
 31
0.0
  0
ARC
  8
0
  6
CONTINUOUS
 62
     6
 10
465.971945074
 20
731.462445841
 30
0.0
 40
4.403254926
 50
328.419912243
 51
31.580087757
  0
ARC
  8
0
  6
CONTINUOUS
 62
     6
 10
469.030279868
 20
728.003535841
 30
0.0
 40
1.34512595
 50
357.010501597
 51
58.997686085
  0
LINE
  8
0
  6
CONTINUOUS
 62
     6
 10
470.3752
 20
734.944885841
 30
0.0
 11
469.723117512
 21
736.074325841
 31
0.0
  0
ARC
  8
0
  6
CONTINUOUS
 62
     6
 10
469.030279868
 20
734.921355841
 30
0.0
 40
1.34512595
 50
301.002313915
 51
2.989498403
  0
LINE
  8
0
  6
CONTINUOUS
 62
     6
 10
466.875
 20
726.850565841
 30
0.0
 11
469.723117512
 21
726.850565841
 31
0.0
  0
LINE
  8
0
  6
CONTINUOUS
 62
     6
 10
466.875
 20
729.156505841
 30
0.0
 11
469.723117512
 21
729.156505841
 31
0.0
  0
LINE
  8
0
  6
CONTINUOUS
 62
     6
 10
466.875
 20
733.768385841
 30
0.0
 11
469.723117512
 21
733.768385841
 31
0.0
  0
LINE
  8
0
  6
CONTINUOUS
 62
     6
 10
466.875
 20
736.074325841
 30
0.0
 11
469.723117512
 21
736.074325841
 31
0.0
  0
LINE
  8
0
  6
CONTINUOUS
 62
     6
 10
465.575
 20
726.862445841
 30
0.0
 11
466.875
 21
726.862445841
 31
0.0
  0
LINE
  8
0
  6
CONTINUOUS
 62
     6
 10
465.575
 20
731.462445841
 30
0.0
 11
466.874999554
 21
730.162446287
 31
0.0
  0
LINE
  8
0
  6
CONTINUOUS
 62
     6
 10
466.874999554
 20
731.462445841
 30
0.0
 11
465.575
 21
732.762445394
 31
0.0
  0
LINE
  8
0
  6
CONTINUOUS
 62
     6
 10
465.575
 20
736.062445841
 30
0.0
 11
466.875
 21
736.062445841
 31
0.0
  0
LINE
  8
0
  6
CONTINUOUS
 62
     6
 10
495.575
 20
699.2
 30
0.0
 11
494.575
 21
699.2
 31
0.0
  0
LINE
  8
0
  6
CONTINUOUS
 62
     6
 10
495.575
 20
695.4
 30
0.0
 11
494.575
 21
696.4
 31
0.0
  0
LINE
  8
0
  6
CONTINUOUS
 62
     6
 10
498.057457352
 20
699.45
 30
0.0
 11
495.575
 21
699.45
 31
0.0
  0
LINE
  8
0
  6
CONTINUOUS
 62
     6
 10
498.375
 20
698.9
 30
0.0
 11
498.057457352
 21
699.45
 31
0.0
  0
LINE
  8
0
  6
CONTINUOUS
 62
     6
 10
498.057457352
 20
697.425
 30
0.0
 11
495.575
 21
697.425
 31
0.0
  0
ARC
  8
0
  6
CONTINUOUS
 62
     6
 10
496.602026212
 20
698.4375
 30
0.0
 40
1.772973788
 50
325.174816769
 51
34.825183231
  0
LINE
  8
0
  6
CONTINUOUS
 62
     6
 10
495.575
 20
691.6
 30
0.0
 11
494.575
 21
691.6
 31
0.0
  0
LINE
  8
0
  6
CONTINUOUS
 62
     6
 10
495.575
 20
694.4
 30
0.0
 11
494.575
 21
695.4
 31
0.0
  0
LINE
  8
0
  6
CONTINUOUS
 62
     6
 10
498.375
 20
691.9
 30
0.0
 11
498.057457352
 21
691.35
 31
0.0
  0
LINE
  8
0
  6
CONTINUOUS
 62
     6
 10
498.057457352
 20
691.35
 30
0.0
 11
495.575
 21
691.35
 31
0.0
  0
LINE
  8
0
  6
CONTINUOUS
 62
     6
 10
498.057457352
 20
693.375
 30
0.0
 11
495.575
 21
693.375
 31
0.0
  0
ARC
  8
0
  6
CONTINUOUS
 62
     6
 10
496.602026212
 20
692.3625
 30
0.0
 40
1.772973788
 50
325.174816769
 51
34.825183231
  0
LINE
  8
0
  6
CONTINUOUS
 62
     6
 10
495.575
 20
699.45
 30
0.0
 11
495.575
 21
691.35
 31
0.0
  0
LINE
  8
0
  6
CONTINUOUS
 62
     6
 10
498.375
 20
698.9
 30
0.0
 11
498.375
 21
691.9
 31
0.0
  0
ARC
  8
0
  6
CONTINUOUS
 62
     6
 10
491.759418819
 20
695.4
 30
0.0
 40
6.615581181
 50
342.175912681
 51
17.824087319
  0
LINE
  8
0
  6
CONTINUOUS
 62
     6
 10
466.875
 20
659.337554159
 30
0.0
 11
466.875
 21
663.949434159
 31
0.0
  0
LINE
  8
0
  6
CONTINUOUS
 62
     6
 10
470.3752
 20
662.819994159
 30
0.0
 11
469.723117512
 21
663.949434159
 31
0.0
  0
LINE
  8
0
  6
CONTINUOUS
 62
     6
 10
470.3752
 20
659.337554159
 30
0.0
 11
470.3752
 21
662.819994159
 31
0.0
  0
ARC
  8
0
  6
CONTINUOUS
 62
     6
 10
469.030279868
 20
662.796464159
 30
0.0
 40
1.34512595
 50
301.002313915
 51
2.989498403
  0
LINE
  8
0
  6
CONTINUOUS
 62
     6
 10
466.875
 20
663.949434159
 30
0.0
 11
469.723117512
 21
663.949434159
 31
0.0
  0
LINE
  8
0
  6
CONTINUOUS
 62
     6
 10
465.575
 20
663.937554159
 30
0.0
 11
466.875
 21
663.937554159
 31
0.0
  0
LINE
  8
0
  6
CONTINUOUS
 62
     6
 10
466.875
 20
659.337554159
 30
0.0
 11
466.875
 21
654.725674159
 31
0.0
  0
LINE
  8
0
  6
CONTINUOUS
 62
     6
 10
470.3752
 20
655.855114159
 30
0.0
 11
469.723117512
 21
654.725674159
 31
0.0
  0
LINE
  8
0
  6
CONTINUOUS
 62
     6
 10
470.3752
 20
659.337554159
 30
0.0
 11
470.3752
 21
655.855114159
 31
0.0
  0
ARC
  8
0
  6
CONTINUOUS
 62
     6
 10
465.971945074
 20
659.337554159
 30
0.0
 40
4.403254926
 50
328.419912243
 51
31.580087757
  0
LINE
  8
0
  6
CONTINUOUS
 62
     6
 10
470.3752
 20
655.855114159
 30
0.0
 11
469.723117512
 21
654.725674159
 31
0.0
  0
ARC
  8
0
  6
CONTINUOUS
 62
     6
 10
469.030279868
 20
655.878644159
 30
0.0
 40
1.34512595
 50
357.010501597
 51
58.997686085
  0
LINE
  8
0
  6
CONTINUOUS
 62
     6
 10
466.875
 20
657.031614159
 30
0.0
 11
469.723117512
 21
657.031614159
 31
0.0
  0
LINE
  8
0
  6
CONTINUOUS
 62
     6
 10
466.875
 20
654.725674159
 30
0.0
 11
469.723117512
 21
654.725674159
 31
0.0
  0
LINE
  8
0
  6
CONTINUOUS
 62
     6
 10
465.575
 20
654.737554159
 30
0.0
 11
466.875
 21
654.737554159
 31
0.0
  0
LINE
  8
0
  6
CONTINUOUS
 62
     6
 10
466.875
 20
661.643494159
 30
0.0
 11
469.723117512
 21
661.643494159
 31
0.0
  0
LINE
  8
0
  6
CONTINUOUS
 62
     6
 10
465.575
 20
659.337554159
 30
0.0
 11
466.874999554
 21
660.637553713
 31
0.0
  0
LINE
  8
0
  6
CONTINUOUS
 62
     6
 10
466.874999554
 20
659.337554159
 30
0.0
 11
465.575
 21
658.037554606
 31
0.0
  0
LINE
  8
0
  6
CONTINUOUS
 62
     1
 10
509.075
 20
710.9
 30
0.0
 11
494.575
 21
710.9
 31
0.0
  0
ARC
  8
0
  6
CONTINUOUS
 62
     1
 10
509.075
 20
709.4
 30
0.0
 40
1.5
 50
0.0
 51
90.0
  0
LINE
  8
0
  6
CONTINUOUS
 62
     1
 10
509.075
 20
679.9
 30
0.0
 11
494.575
 21
679.9
 31
0.0
  0
LINE
  8
0
  6
CONTINUOUS
 62
     1
 10
510.575
 20
681.4
 30
0.0
 11
510.575
 21
709.4
 31
0.0
  0
ARC
  8
0
  6
CONTINUOUS
 62
     1
 10
509.075
 20
681.4
 30
0.0
 40
1.5
 50
270.0
 51
0.0
  0
LINE
  8
0
  6
CONTINUOUS
 62
     1
 10
305.575
 20
634.4
 30
0.0
 11
297.575
 21
634.4
 31
0.0
  0
LINE
  8
0
  6
CONTINUOUS
 62
     1
 10
305.575
 20
634.4
 30
0.0
 11
305.575
 21
534.4
 31
0.0
  0
LINE
  8
0
  6
LTYPE3
 62
     2
 10
248.575
 20
775.4
 30
0.0
 11
297.575
 21
775.4
 31
0.0
  0
LINE
  8
0
  6
CONTINUOUS
 62
     1
 10
304.075
 20
756.4
 30
0.0
 11
297.575
 21
756.4
 31
0.0
  0
LINE
  8
0
  6
CONTINUOUS
 62
     1
 10
297.575
 20
525.4
 30
0.0
 11
297.575
 21
756.4
 31
0.0
  0
LINE
  8
7
  6
CONTINUOUS
 62
     2
 10
410.575
 20
790.4
 30
0.0
 11
419.139390096
 21
795.562482183
 31
0.0
  0
LINE
  8
7
  6
CONTINUOUS
 62
     2
 10
410.575
 20
790.4
 30
0.0
 11
415.410738299
 21
799.153035765
 31
0.0
  0
LINE
  8
7
  6
CONTINUOUS
 62
     2
 10
410.575
 20
790.4
 30
0.0
 11
436.575
 21
817.4
 31
0.0
  0
LINE
  8
7
  6
CONTINUOUS
 62
     2
 10
436.575
 20
817.4
 30
0.0
 11
495.375
 21
817.4
 31
0.0
  0
LINE
  8
7
  6
CONTINUOUS
 62
     2
 10
497.575
 20
553.65
 30
0.0
 11
500.163190451
 21
563.309258263
 31
0.0
  0
LINE
  8
7
  6
CONTINUOUS
 62
     2
 10
497.575
 20
553.65
 30
0.0
 11
494.986809549
 21
563.309258263
 31
0.0
  0
LINE
  8
7
  6
CONTINUOUS
 62
     2
 10
497.575
 20
553.65
 30
0.0
 11
497.575
 21
617.15
 31
0.0
  0
LINE
  8
7
  6
CONTINUOUS
 62
     2
 10
497.575
 20
617.15
 30
0.0
 11
494.986809549
 21
607.490741737
 31
0.0
  0
LINE
  8
7
  6
CONTINUOUS
 62
     2
 10
497.575
 20
617.15
 30
0.0
 11
500.163190451
 21
607.490741737
 31
0.0
  0
LINE
  8
7
  6
CONTINUOUS
 62
     2
 10
430.575
 20
752.4
 30
0.0
 11
427.986809549
 21
742.740741737
 31
0.0
  0
LINE
  8
7
  6
CONTINUOUS
 62
     2
 10
430.575
 20
752.4
 30
0.0
 11
433.163190451
 21
742.740741737
 31
0.0
  0
LINE
  8
7
  6
CONTINUOUS
 62
     2
 10
430.575
 20
638.4
 30
0.0
 11
433.163190451
 21
648.059258263
 31
0.0
  0
LINE
  8
7
  6
CONTINUOUS
 62
     2
 10
430.575
 20
638.4
 30
0.0
 11
427.986809549
 21
648.059258263
 31
0.0
  0
LINE
  8
0
  6
LTYPE3
 62
     2
 10
434.575
 20
695.4
 30
0.0
 11
517.575
 21
695.4
 31
0.0
  0
LINE
  8
0
  6
CONTINUOUS
 62
     1
 10
237.575
 20
525.4
 30
0.0
 11
237.575
 21
730.4
 31
0.0
  0
LINE
  8
0
  6
CONTINUOUS
 62
     1
 10
465.575
 20
540.4
 30
0.0
 11
391.575
 21
540.4
 31
0.0
  0
LINE
  8
0
  6
CONTINUOUS
 62
     1
 10
516.575
 20
495.9
 30
0.0
 11
383.575
 21
495.9
 31
0.0
  0
LINE
  8
0
  6
CONTINUOUS
 62
     1
 10
473.575
 20
538.9
 30
0.0
 11
386.575
 21
538.9
 31
0.0
  0
ARC
  8
0
  6
CONTINUOUS
 62
     1
 10
386.575
 20
535.9
 30
0.0
 40
3.0
 50
90.0
 51
180.0
  0
LINE
  8
0
  6
CONTINUOUS
 62
     1
 10
516.575
 20
495.9
 30
0.0
 11
516.575
 21
534.9
 31
0.0
  0
LINE
  8
0
  6
CONTINUOUS
 62
     1
 10
513.575
 20
537.9
 30
0.0
 11
473.575
 21
537.9
 31
0.0
  0
ARC
  8
0
  6
CONTINUOUS
 62
     1
 10
513.575
 20
534.9
 30
0.0
 40
3.0
 50
0.0
 51
90.0
  0
LINE
  8
0
  6
CONTINUOUS
 62
     1
 10
511.575
 20
488.4
 30
0.0
 11
511.575
 21
537.9
 31
0.0
  0
LINE
  8
0
  6
CONTINUOUS
 62
     1
 10
511.575
 20
488.4
 30
0.0
 11
383.575
 21
488.4
 31
0.0
  0
LINE
  8
0
  6
CONTINUOUS
 62
     1
 10
383.575
 20
488.4
 30
0.0
 11
383.575
 21
535.9
 31
0.0
  0
LINE
  8
0
  6
CONTINUOUS
 62
     1
 10
511.575
 20
494.4
 30
0.0
 11
383.575
 21
494.4
 31
0.0
  0
LINE
  8
0
  6
CONTINUOUS
 62
     1
 10
391.575
 20
538.9
 30
0.0
 11
391.575
 21
540.4
 31
0.0
  0
LINE
  8
0
  6
CONTINUOUS
 62
     1
 10
465.575
 20
538.9
 30
0.0
 11
465.575
 21
540.4
 31
0.0
  0
LINE
  8
0
  6
CONTINUOUS
 62
     1
 10
473.575
 20
537.9
 30
0.0
 11
473.575
 21
538.9
 31
0.0
  0
LINE
  8
0
  6
CONTINUOUS
 62
     1
 10
225.575
 20
677.4
 30
0.0
 11
282.575
 21
677.4
 31
0.0
  0
LINE
  8
0
  6
CONTINUOUS
 62
     1
 10
225.575
 20
525.4
 30
0.0
 11
225.575
 21
677.4
 31
0.0
  0
LINE
  8
0
  6
CONTINUOUS
 62
     1
 10
225.575
 20
525.4
 30
0.0
 11
297.575
 21
525.4
 31
0.0
  0
LINE
  8
0
  6
CONTINUOUS
 62
     1
 10
225.575
 20
535.4
 30
0.0
 11
225.575
 21
525.6
 31
0.0
  0
LINE
  8
0
  6
CONTINUOUS
 62
     1
 10
225.575
 20
525.6
 30
0.0
 11
219.960640646
 21
525.6
 31
0.0
  0
LINE
  8
0
  6
CONTINUOUS
 62
     1
 10
218.575
 20
528.0
 30
0.0
 11
219.960640646
 21
525.6
 31
0.0
  0
LINE
  8
0
  6
CONTINUOUS
 62
     1
 10
218.575
 20
535.4
 30
0.0
 11
218.575
 21
528.0
 31
0.0
  0
LINE
  8
0
  6
CONTINUOUS
 62
     1
 10
225.575
 20
530.5
 30
0.0
 11
219.960640646
 21
530.5
 31
0.0
  0
LINE
  8
0
  6
CONTINUOUS
 62
     1
 10
225.575
 20
535.4
 30
0.0
 11
225.575
 21
545.2
 31
0.0
  0
LINE
  8
0
  6
CONTINUOUS
 62
     1
 10
225.575
 20
545.2
 30
0.0
 11
219.960640646
 21
545.2
 31
0.0
  0
LINE
  8
0
  6
CONTINUOUS
 62
     1
 10
218.575
 20
542.8
 30
0.0
 11
219.960640646
 21
545.2
 31
0.0
  0
LINE
  8
0
  6
CONTINUOUS
 62
     1
 10
218.575
 20
535.4
 30
0.0
 11
218.575
 21
542.8
 31
0.0
  0
LINE
  8
0
  6
CONTINUOUS
 62
     1
 10
225.575
 20
540.3
 30
0.0
 11
219.960640646
 21
540.3
 31
0.0
  0
ARC
  8
0
  6
CONTINUOUS
 62
     1
 10
227.9316828
 20
535.4
 30
0.0
 40
9.3566828
 50
148.419912243
 51
211.580087757
  0
ARC
  8
0
  6
CONTINUOUS
 62
     1
 10
221.432883832
 20
528.05
 30
0.0
 40
2.858321186
 50
121.002313915
 51
182.989498403
  0
LINE
  8
0
  6
CONTINUOUS
 62
     1
 10
218.575
 20
542.8
 30
0.0
 11
219.960640646
 21
545.2
 31
0.0
  0
ARC
  8
0
  6
CONTINUOUS
 62
     1
 10
221.432883832
 20
542.75
 30
0.0
 40
2.858321186
 50
177.010501597
 51
238.997686085
  0
LINE
  8
0
  6
LTYPE2
 62
     2
 10
213.575
 20
535.4
 30
0.0
 11
246.575
 21
535.4
 31
0.0
  0
LINE
  8
0
  6
LTYPE3
 62
     2
 10
218.575
 20
585.4
 30
0.0
 11
477.075
 21
585.4
 31
0.0
  0
LINE
  8
0
  6
CONTINUOUS
 62
     1
 10
233.575
 20
681.4
 30
0.0
 11
237.575
 21
681.4
 31
0.0
  0
LINE
  8
0
  6
CONTINUOUS
 62
     1
 10
233.575
 20
709.4
 30
0.0
 11
237.575
 21
709.4
 31
0.0
  0
LINE
  8
0
  6
CONTINUOUS
 62
     1
 10
233.575
 20
681.4
 30
0.0
 11
233.575
 21
709.4
 31
0.0
  0
LINE
  8
0
  6
CONTINUOUS
 62
     1
 10
232.575
 20
681.4
 30
0.0
 11
232.575
 21
709.4
 31
0.0
  0
LINE
  8
0
  6
CONTINUOUS
 62
     1
 10
204.575
 20
709.4
 30
0.0
 11
232.575
 21
709.4
 31
0.0
  0
LINE
  8
0
  6
CONTINUOUS
 62
     1
 10
202.575
 20
707.4
 30
0.0
 11
204.575
 21
709.4
 31
0.0
  0
LINE
  8
0
  6
CONTINUOUS
 62
     1
 10
204.575
 20
681.4
 30
0.0
 11
232.575
 21
681.4
 31
0.0
  0
LINE
  8
0
  6
CONTINUOUS
 62
     1
 10
202.575
 20
683.4
 30
0.0
 11
202.575
 21
707.4
 31
0.0
  0
LINE
  8
0
  6
CONTINUOUS
 62
     1
 10
204.575
 20
681.4
 30
0.0
 11
202.575
 21
683.4
 31
0.0
  0
ARC
  8
0
  6
CONTINUOUS
 62
     6
 10
199.195975674
 20
697.6
 30
0.0
 40
1.3
 50
90.0
 51
163.39844642
  0
ARC
  8
0
  6
CONTINUOUS
 62
     6
 10
206.575
 20
695.4
 30
0.0
 40
9.0
 50
163.398449826
 51
180.0
  0
LINE
  8
0
  6
CONTINUOUS
 62
     6
 10
200.175
 20
698.9
 30
0.0
 11
199.195975674
 21
698.9
 31
0.0
  0
LINE
  8
0
  6
CONTINUOUS
 62
     6
 10
200.175
 20
695.4
 30
0.0
 11
200.175
 21
699.2
 31
0.0
  0
ARC
  8
0
  6
CONTINUOUS
 62
     6
 10
199.195975674
 20
693.2
 30
0.0
 40
1.3
 50
196.60155358
 51
270.0
  0
ARC
  8
0
  6
CONTINUOUS
 62
     6
 10
206.575
 20
695.4
 30
0.0
 40
9.0
 50
180.0
 51
196.601550174
  0
LINE
  8
0
  6
CONTINUOUS
 62
     6
 10
200.175
 20
691.9
 30
0.0
 11
199.195975674
 21
691.9
 31
0.0
  0
LINE
  8
0
  6
CONTINUOUS
 62
     6
 10
200.175
 20
695.4
 30
0.0
 11
200.175
 21
691.6
 31
0.0
  0
LINE
  8
0
  6
CONTINUOUS
 62
     6
 10
197.575
 20
695.4
 30
0.0
 11
199.075
 21
693.8
 31
0.0
  0
LINE
  8
0
  6
CONTINUOUS
 62
     6
 10
197.575
 20
695.4
 30
0.0
 11
199.075
 21
697.0
 31
0.0
  0
LINE
  8
0
  6
CONTINUOUS
 62
     6
 10
202.575
 20
699.2
 30
0.0
 11
200.175
 21
699.2
 31
0.0
  0
LINE
  8
0
  6
CONTINUOUS
 62
     6
 10
202.575
 20
691.6
 30
0.0
 11
200.175
 21
691.6
 31
0.0
  0
LINE
  8
0
  6
LTYPE3
 62
     2
 10
189.575
 20
695.4
 30
0.0
 11
409.575
 21
695.4
 31
0.0
  0
LINE
  8
0
  6
CONTINUOUS
 62
     1
 10
222.375
 20
657.4
 30
0.0
 11
225.575
 21
657.4
 31
0.0
  0
LINE
  8
0
  6
CONTINUOUS
 62
     1
 10
222.375
 20
637.4
 30
0.0
 11
225.575
 21
637.4
 31
0.0
  0
LINE
  8
0
  6
CONTINUOUS
 62
     6
 10
216.871118477
 20
643.047098
 30
0.0
 11
217.686193874
 21
641.635346
 31
0.0
  0
LINE
  8
0
  6
CONTINUOUS
 62
     6
 10
216.871118477
 20
647.4
 30
0.0
 11
216.871118477
 21
643.047098
 31
0.0
  0
LINE
  8
0
  6
CONTINUOUS
 62
     6
 10
216.871118477
 20
651.752902
 30
0.0
 11
217.686193874
 21
653.164654
 31
0.0
  0
LINE
  8
0
  6
CONTINUOUS
 62
     6
 10
216.871118477
 20
647.4
 30
0.0
 11
216.871118477
 21
651.752902
 31
0.0
  0
ARC
  8
0
  6
CONTINUOUS
 62
     6
 10
222.375
 20
647.4
 30
0.0
 40
5.503881523
 50
148.419912243
 51
211.580087757
  0
ARC
  8
0
  6
CONTINUOUS
 62
     6
 10
218.552211483
 20
643.0765095
 30
0.0
 40
1.681350271
 50
121.002313915
 51
182.989498403
  0
LINE
  8
0
  6
CONTINUOUS
 62
     6
 10
216.871118477
 20
651.752902
 30
0.0
 11
217.686193874
 21
653.164654
 31
0.0
  0
ARC
  8
0
  6
CONTINUOUS
 62
     6
 10
218.552211483
 20
651.7234905
 30
0.0
 40
1.681350271
 50
177.010501597
 51
238.997686085
  0
LINE
  8
0
  6
CONTINUOUS
 62
     6
 10
220.870728477
 20
644.517673
 30
0.0
 11
217.686193874
 21
644.517673
 31
0.0
  0
LINE
  8
0
  6
CONTINUOUS
 62
     6
 10
220.870728477
 20
641.635346
 30
0.0
 11
217.686193874
 21
641.635346
 31
0.0
  0
LINE
  8
0
  6
CONTINUOUS
 62
     6
 10
220.870728477
 20
650.282327
 30
0.0
 11
217.686193874
 21
650.282327
 31
0.0
  0
LINE
  8
0
  6
CONTINUOUS
 62
     6
 10
220.870728477
 20
653.164654
 30
0.0
 11
217.686193874
 21
653.164654
 31
0.0
  0
LINE
  8
0
  6
CONTINUOUS
 62
     6
 10
222.370728477
 20
647.4
 30
0.0
 11
220.870728719
 21
645.900000243
 31
0.0
  0
LINE
  8
0
  6
CONTINUOUS
 62
     6
 10
220.870728719
 20
647.4
 30
0.0
 11
222.370728477
 21
648.899999757
 31
0.0
  0
LINE
  8
0
  6
CONTINUOUS
 62
     6
 10
222.370728477
 20
641.3
 30
0.0
 11
220.870728477
 21
641.3
 31
0.0
  0
LINE
  8
0
  6
CONTINUOUS
 62
     6
 10
220.870728477
 20
647.4
 30
0.0
 11
220.870728477
 21
641.3
 31
0.0
  0
LINE
  8
0
  6
CONTINUOUS
 62
     6
 10
220.870728477
 20
647.4
 30
0.0
 11
220.870728477
 21
653.5
 31
0.0
  0
LINE
  8
0
  6
CONTINUOUS
 62
     6
 10
222.370728477
 20
653.5
 30
0.0
 11
220.870728477
 21
653.5
 31
0.0
  0
LINE
  8
0
  6
LTYPE3
 62
     2
 10
213.375
 20
647.4
 30
0.0
 11
233.575
 21
647.4
 31
0.0
  0
LINE
  8
0
  6
CONTINUOUS
 62
     1
 10
222.375
 20
637.4
 30
0.0
 11
222.375
 21
657.4
 31
0.0
  0
LINE
  8
7
  6
CONTINUOUS
 62
     2
 10
367.575
 20
547.4
 30
0.0
 11
367.575
 21
345.4
 31
0.0
  0
LINE
  8
7
  6
CONTINUOUS
 62
     2
 10
297.575
 20
519.4
 30
0.0
 11
297.575
 21
345.4
 31
0.0
  0
LINE
  8
7
  6
CONTINUOUS
 62
     2
 10
225.575
 20
519.4
 30
0.0
 11
225.575
 21
317.4
 31
0.0
  0
LINE
  8
7
  6
CONTINUOUS
 62
     2
 10
197.575
 20
689.4
 30
0.0
 11
197.575
 21
317.4
 31
0.0
  0
LINE
  8
7
  6
CONTINUOUS
 62
     2
 10
404.575
 20
503.4
 30
0.0
 11
481.844424461
 21
503.4
 31
0.0
  0
LINE
  8
0
  6
LTYPE2
 62
     2
 10
500.575
 20
512.9
 30
0.0
 11
528.575
 21
512.9
 31
0.0
  0
LINE
  8
7
  6
CONTINUOUS
 62
     2
 10
510.575
 20
842.4
 30
0.0
 11
500.915741737
 21
844.988190451
 31
0.0
  0
LINE
  8
7
  6
CONTINUOUS
 62
     2
 10
510.575
 20
842.4
 30
0.0
 11
500.915741737
 21
839.811809549
 31
0.0
  0
LINE
  8
7
  6
CONTINUOUS
 62
     2
 10
510.575
 20
842.4
 30
0.0
 11
297.575
 21
842.4
 31
0.0
  0
LINE
  8
7
  6
CONTINUOUS
 62
     2
 10
297.575
 20
842.4
 30
0.0
 11
307.234258263
 21
839.811809549
 31
0.0
  0
LINE
  8
7
  6
CONTINUOUS
 62
     2
 10
297.575
 20
842.4
 30
0.0
 11
307.234258263
 21
844.988190451
 31
0.0
  0
LINE
  8
7
  6
CONTINUOUS
 62
     2
 10
297.575
 20
836.4
 30
0.0
 11
297.575
 21
836.4
 31
0.0
  0
LINE
  8
7
  6
CONTINUOUS
 62
     2
 10
297.575
 20
842.4
 30
0.0
 11
287.915741737
 21
844.988190451
 31
0.0
  0
LINE
  8
7
  6
CONTINUOUS
 62
     2
 10
297.575
 20
842.4
 30
0.0
 11
287.915741737
 21
839.811809549
 31
0.0
  0
LINE
  8
7
  6
CONTINUOUS
 62
     2
 10
297.575
 20
842.4
 30
0.0
 11
237.575
 21
842.4
 31
0.0
  0
LINE
  8
7
  6
CONTINUOUS
 62
     2
 10
237.575
 20
842.4
 30
0.0
 11
247.234258263
 21
839.811809549
 31
0.0
  0
LINE
  8
7
  6
CONTINUOUS
 62
     2
 10
237.575
 20
842.4
 30
0.0
 11
247.234258263
 21
844.988190451
 31
0.0
  0
LINE
  8
7
  6
CONTINUOUS
 62
     2
 10
510.575
 20
715.40001079
 30
0.0
 11
510.575
 21
848.4
 31
0.0
  0
LINE
  8
7
  6
CONTINUOUS
 62
     2
 10
297.575
 20
762.4
 30
0.0
 11
297.575
 21
848.4
 31
0.0
  0
LINE
  8
7
  6
CONTINUOUS
 62
     2
 10
237.575
 20
736.4
 30
0.0
 11
237.575
 21
848.4
 31
0.0
  0
LINE
  8
0
  6
LTYPE2
 62
     2
 10
420.24968209
 20
790.4
 30
0.0
 11
377.504475845
 21
790.4
 31
0.0
  0
TEXT
  8
7
  6
CONTINUOUS
 62
     2
 10
436.575
 20
821.4
 30
0.0
 40
15.0
  1
ＰＦ３／４
 50
0.0
 41
0.9
 51
0.0
  7
KANJI30
  0
TEXT
  8
7
  6
CONTINUOUS
 62
     2
 10
426.575
 20
672.0
 30
0.0
 40
15.0
  1
φ１１４
 50
90.0
 41
0.9
 51
0.0
  7
KANJI30
  0
LINE
  8
0
  6
CONTINUOUS
 62
     1
 10
290.075
 20
660.4
 30
0.0
 11
290.075
 21
590.4
 31
0.0
  0
TEXT
  8
7
  6
CONTINUOUS
 62
     2
 10
411.044424461
 20
507.4
 30
0.0
 40
15.0
  1
推力リミッタ
 50
0.0
 41
0.9
 51
0.0
  7
KANJI30
  0
LINE
  8
0
  6
CONTINUOUS
 62
     2
 10
516.575
 20
512.9
 30
0.0
 11
526.574784385
 21
512.965667759
 31
0.0
  0
LINE
  8
0
  6
CONTINUOUS
 62
     2
 10
516.575
 20
512.9
 30
0.0
 11
525.20223343
 21
517.95676214
 31
0.0
  0
LINE
  8
0
  6
CONTINUOUS
 62
     2
 10
516.575
 20
512.9
 30
0.0
 11
556.575
 21
523.9
 31
0.0
  0
LINE
  8
0
  6
CONTINUOUS
 62
     2
 10
556.575
 20
523.9
 30
0.0
 11
623.075
 21
523.9
 31
0.0
  0
TEXT
  8
0
  6
CONTINUOUS
 62
     3
 10
556.575
 20
524.4
 30
0.0
 40
15.0
  1
ＰＦ１／２
 50
0.0
 41
0.9
 51
0.0
  7
KANJI30
  0
TEXT
  8
7
  6
CONTINUOUS
 62
     2
 10
493.575
 20
568.0
 30
0.0
 40
15.0
  1
φ６４
 50
90.0
 41
0.9
 51
0.0
  7
KANJI30
  0
LINE
  8
0
  6
CONTINUOUS
 62
     1
 10
473.575
 20
617.15
 30
0.0
 11
611.924814745
 21
617.15
 31
0.0
  0
LINE
  8
0
  6
CONTINUOUS
 62
     1
 10
473.575
 20
553.65
 30
0.0
 11
611.924814745
 21
553.65
 31
0.0
  0
TEXT
  8
7
  6
CONTINUOUS
 62
     2
 10
664.044424461
 20
639.9
 30
0.0
 40
15.0
  1
給脂口
 50
0.0
 41
0.9
 51
0.0
  7
KANJI30
  0
LINE
  8
7
  6
CONTINUOUS
 62
     2
 10
664.303045151
 20
635.9
 30
0.0
 11
698.844424461
 21
635.9
 31
0.0
  0
LINE
  8
7
  6
CONTINUOUS
 62
     2
 10
648.044424461
 20
594.9
 30
0.0
 11
664.303045151
 21
635.9
 31
0.0
  0
LINE
  8
0
  6
LTYPE3
 62
     2
 10
501.075
 20
585.4
 30
0.0
 11
906.575
 21
585.4
 31
0.0
  0
LINE
  8
0
  6
LTYPE2
 62
     2
 10
277.925
 20
476.4
 30
0.0
 11
617.185
 21
476.4
 31
0.0
  0
LINE
  8
0
  6
LTYPE1
 62
     2
 10
532.425
 20
490.4
 30
0.0
 11
297.425
 21
490.4
 31
0.0
  0
LINE
  8
0
  6
LTYPE1
 62
     2
 10
532.425
 20
496.4
 30
0.0
 11
297.425
 21
496.4
 31
0.0
  0
LINE
  8
0
  6
LTYPE3
 62
     2
 10
316.425
 20
476.4
 30
0.0
 11
327.925
 21
476.4
 31
0.0
  0
LINE
  8
0
  6
LTYPE1
 62
     2
 10
294.925
 20
486.2
 30
0.0
 11
289.310640646
 21
486.2
 31
0.0
  0
LINE
  8
0
  6
LTYPE1
 62
     2
 10
294.925
 20
481.3
 30
0.0
 11
289.310640646
 21
481.3
 31
0.0
  0
LINE
  8
0
  6
LTYPE1
 62
     2
 10
294.925
 20
476.4
 30
0.0
 11
294.925
 21
486.2
 31
0.0
  0
LINE
  8
0
  6
LTYPE1
 62
     2
 10
297.425
 20
485.6
 30
0.0
 11
294.925
 21
485.6
 31
0.0
  0
LINE
  8
0
  6
LTYPE1
 62
     2
 10
313.425
 20
486.8
 30
0.0
 11
319.925
 21
486.8
 31
0.0
  0
ARC
  8
0
  6
LTYPE1
 62
     2
 10
317.025
 20
484.2
 30
0.0
 40
3.9
 50
317.9
 51
42.1
  0
LINE
  8
0
  6
LTYPE1
 62
     2
 10
319.925
 20
481.6
 30
0.0
 11
313.425
 21
481.6
 31
0.0
  0
LINE
  8
0
  6
LTYPE1
 62
     2
 10
305.425
 20
486.4
 30
0.0
 11
305.425
 21
502.4
 31
0.0
  0
LINE
  8
0
  6
LTYPE1
 62
     2
 10
320.925
 20
480.4
 30
0.0
 11
328.425
 21
480.4
 31
0.0
  0
LINE
  8
0
  6
LTYPE1
 62
     2
 10
360.425
 20
488.4
 30
0.0
 11
328.425
 21
488.4
 31
0.0
  0
LINE
  8
0
  6
LTYPE1
 62
     2
 10
328.425
 20
480.4
 30
0.0
 11
333.425
 21
480.4
 31
0.0
  0
LINE
  8
0
  6
LTYPE1
 62
     2
 10
360.425
 20
482.4
 30
0.0
 11
328.425
 21
482.4
 31
0.0
  0
LINE
  8
0
  6
LTYPE1
 62
     2
 10
320.925
 20
479.4
 30
0.0
 11
328.425
 21
479.4
 31
0.0
  0
LINE
  8
0
  6
LTYPE1
 62
     2
 10
328.425
 20
479.4
 30
0.0
 11
333.425
 21
479.4
 31
0.0
  0
LINE
  8
0
  6
LTYPE1
 62
     2
 10
294.925000004
 20
476.4
 30
0.0
 11
297.425
 21
478.899999996
 31
0.0
  0
LINE
  8
0
  6
LTYPE1
 62
     2
 10
299.76622
 20
501.8999
 30
0.0
 11
297.93094
 21
500.840300598
 31
0.0
  0
LINE
  8
0
  6
LTYPE1
 62
     2
 10
305.425
 20
501.8999
 30
0.0
 11
299.76622
 21
501.8999
 31
0.0
  0
ARC
  8
0
  6
LTYPE1
 62
     2
 10
299.804455
 20
499.714476233
 30
0.0
 40
2.185758211
 50
31.002313915
 51
92.989498403
  0
ARC
  8
0
  6
LTYPE1
 62
     2
 10
305.425
 20
494.744844663
 30
0.0
 40
7.155055337
 50
58.419912243
 51
121.580087757
  0
LINE
  8
0
  6
LTYPE1
 62
     2
 10
297.93094
 20
496.4
 30
0.0
 11
297.93094
 21
500.840300598
 31
0.0
  0
LINE
  8
0
  6
LTYPE1
 62
     2
 10
301.67797
 20
496.4
 30
0.0
 11
301.67797
 21
500.840300598
 31
0.0
  0
LINE
  8
0
  6
LTYPE1
 62
     2
 10
311.08378
 20
501.8999
 30
0.0
 11
312.91906
 21
500.840300598
 31
0.0
  0
LINE
  8
0
  6
LTYPE1
 62
     2
 10
305.425
 20
501.8999
 30
0.0
 11
311.08378
 21
501.8999
 31
0.0
  0
LINE
  8
0
  6
LTYPE1
 62
     2
 10
311.08378
 20
501.8999
 30
0.0
 11
312.91906
 21
500.840300598
 31
0.0
  0
ARC
  8
0
  6
LTYPE1
 62
     2
 10
311.045545
 20
499.714476233
 30
0.0
 40
2.185758211
 50
87.010501597
 51
148.997686085
  0
LINE
  8
0
  6
LTYPE1
 62
     2
 10
309.17203
 20
496.4
 30
0.0
 11
309.17203
 21
500.840300598
 31
0.0
  0
LINE
  8
0
  6
LTYPE1
 62
     2
 10
312.91906
 20
496.4
 30
0.0
 11
312.91906
 21
500.840300598
 31
0.0
  0
LINE
  8
0
  6
LTYPE1
 62
     2
 10
313.425
 20
466.0
 30
0.0
 11
319.925
 21
466.0
 31
0.0
  0
ARC
  8
0
  6
LTYPE1
 62
     2
 10
317.025
 20
468.6
 30
0.0
 40
3.9
 50
317.9
 51
42.1
  0
LINE
  8
0
  6
LTYPE1
 62
     2
 10
294.925
 20
466.6
 30
0.0
 11
289.310640646
 21
466.6
 31
0.0
  0
LINE
  8
0
  6
LTYPE1
 62
     2
 10
294.925
 20
471.5
 30
0.0
 11
289.310640646
 21
471.5
 31
0.0
  0
LINE
  8
0
  6
LTYPE1
 62
     2
 10
294.925
 20
476.4
 30
0.0
 11
294.925
 21
466.6
 31
0.0
  0
LINE
  8
0
  6
LTYPE1
 62
     2
 10
313.425
 20
471.2
 30
0.0
 11
319.925
 21
471.2
 31
0.0
  0
LINE
  8
0
  6
LTYPE1
 62
     2
 10
320.925
 20
473.4
 30
0.0
 11
328.425
 21
473.4
 31
0.0
  0
LINE
  8
0
  6
LTYPE1
 62
     2
 10
320.925
 20
472.4
 30
0.0
 11
328.425
 21
472.4
 31
0.0
  0
LINE
  8
0
  6
LTYPE1
 62
     2
 10
328.425
 20
472.4
 30
0.0
 11
333.425
 21
472.4
 31
0.0
  0
LINE
  8
0
  6
LTYPE1
 62
     2
 10
328.425
 20
473.4
 30
0.0
 11
333.425
 21
473.4
 31
0.0
  0
LINE
  8
0
  6
LTYPE1
 62
     2
 10
328.425
 20
470.4
 30
0.0
 11
360.425
 21
470.4
 31
0.0
  0
LINE
  8
0
  6
LTYPE1
 62
     2
 10
313.425
 20
463.4
 30
0.0
 11
313.425
 21
490.4
 31
0.0
  0
LINE
  8
0
  6
LTYPE1
 62
     2
 10
313.425
 20
486.8
 30
0.0
 11
313.425
 21
466.0
 31
0.0
  0
ARC
  8
0
  6
LTYPE1
 62
     2
 10
306.925
 20
476.4
 30
0.0
 40
14.0
 50
338.2
 51
21.8
  0
LINE
  8
0
  6
LTYPE1
 62
     2
 10
320.925
 20
468.6
 30
0.0
 11
320.925
 21
484.2
 31
0.0
  0
LINE
  8
0
  6
LTYPE1
 62
     2
 10
297.425
 20
463.4
 30
0.0
 11
313.425
 21
463.4
 31
0.0
  0
LINE
  8
0
  6
LTYPE1
 62
     2
 10
297.425
 20
476.4
 30
0.0
 11
294.925000004
 21
473.900000004
 31
0.0
  0
LINE
  8
0
  6
LTYPE1
 62
     2
 10
297.425
 20
467.2
 30
0.0
 11
294.925
 21
467.2
 31
0.0
  0
LINE
  8
0
  6
LTYPE1
 62
     2
 10
297.425
 20
463.4
 30
0.0
 11
297.425
 21
496.4
 31
0.0
  0
LINE
  8
0
  6
LTYPE1
 62
     2
 10
325.925
 20
458.2
 30
0.0
 11
320.310640646
 21
458.2
 31
0.0
  0
LINE
  8
0
  6
LTYPE1
 62
     2
 10
318.925
 20
455.8
 30
0.0
 11
320.310640646
 21
458.2
 31
0.0
  0
LINE
  8
0
  6
LTYPE1
 62
     2
 10
318.925
 20
455.8
 30
0.0
 11
320.310640646
 21
458.2
 31
0.0
  0
LINE
  8
0
  6
LTYPE1
 62
     2
 10
328.425
 20
457.6
 30
0.0
 11
325.925
 21
457.6
 31
0.0
  0
LINE
  8
0
  6
LTYPE1
 62
     2
 10
318.925
 20
448.4
 30
0.0
 11
318.925
 21
455.8
 31
0.0
  0
LINE
  8
0
  6
LTYPE1
 62
     2
 10
325.925
 20
453.3
 30
0.0
 11
320.310640646
 21
453.3
 31
0.0
  0
ARC
  8
0
  6
LTYPE1
 62
     2
 10
321.782883832
 20
455.75
 30
0.0
 40
2.858321186
 50
177.010501597
 51
238.997686085
  0
LINE
  8
0
  6
LTYPE1
 62
     2
 10
325.925
 20
448.4
 30
0.0
 11
325.925
 21
458.2
 31
0.0
  0
LINE
  8
0
  6
LTYPE1
 62
     2
 10
310.425
 20
452.4
 30
0.0
 11
318.925
 21
452.4
 31
0.0
  0
ARC
  8
0
  6
LTYPE1
 62
     2
 10
328.2816828
 20
448.4
 30
0.0
 40
9.3566828
 50
148.419912243
 51
211.580087757
  0
LINE
  8
0
  6
LTYPE1
 62
     2
 10
310.425
 20
444.4
 30
0.0
 11
310.425
 21
452.4
 31
0.0
  0
LINE
  8
0
  6
LTYPE1
 62
     2
 10
328.425
 20
435.4
 30
0.0
 11
328.425
 21
488.4
 31
0.0
  0
LINE
  8
0
  6
LTYPE1
 62
     2
 10
325.925000004
 20
448.4
 30
0.0
 11
328.425
 21
450.899999996
 31
0.0
  0
LINE
  8
0
  6
LTYPE1
 62
     2
 10
310.425
 20
451.4
 30
0.0
 11
318.925
 21
451.4
 31
0.0
  0
LINE
  8
0
  6
LTYPE1
 62
     2
 10
287.925
 20
476.4
 30
0.0
 11
287.925
 21
483.8
 31
0.0
  0
LINE
  8
0
  6
LTYPE1
 62
     2
 10
287.925
 20
483.8
 30
0.0
 11
289.310640646
 21
486.2
 31
0.0
  0
LINE
  8
0
  6
LTYPE1
 62
     2
 10
287.925
 20
483.8
 30
0.0
 11
289.310640646
 21
486.2
 31
0.0
  0
ARC
  8
0
  6
LTYPE1
 62
     2
 10
290.782883832
 20
483.75
 30
0.0
 40
2.858321186
 50
177.010501597
 51
238.997686085
  0
LINE
  8
0
  6
LTYPE1
 62
     2
 10
283.425
 20
480.4
 30
0.0
 11
287.925
 21
480.4
 31
0.0
  0
LINE
  8
0
  6
LTYPE1
 62
     2
 10
283.425
 20
479.4
 30
0.0
 11
287.925
 21
479.4
 31
0.0
  0
LINE
  8
0
  6
LTYPE1
 62
     2
 10
287.925
 20
469.0
 30
0.0
 11
289.310640646
 21
466.6
 31
0.0
  0
LINE
  8
0
  6
LTYPE1
 62
     2
 10
287.925
 20
476.4
 30
0.0
 11
287.925
 21
469.0
 31
0.0
  0
ARC
  8
0
  6
LTYPE1
 62
     2
 10
290.782883832
 20
469.05
 30
0.0
 40
2.858321186
 50
121.002313915
 51
182.989498403
  0
LINE
  8
0
  6
LTYPE1
 62
     2
 10
283.425
 20
472.4
 30
0.0
 11
287.925
 21
472.4
 31
0.0
  0
LINE
  8
0
  6
LTYPE1
 62
     2
 10
283.425
 20
473.4
 30
0.0
 11
287.925
 21
473.4
 31
0.0
  0
ARC
  8
0
  6
LTYPE1
 62
     2
 10
297.2816828
 20
476.4
 30
0.0
 40
9.3566828
 50
148.419912243
 51
211.580087757
  0
LINE
  8
0
  6
LTYPE1
 62
     2
 10
283.425
 20
472.4
 30
0.0
 11
283.425
 21
480.4
 31
0.0
  0
LINE
  8
0
  6
LTYPE1
 62
     2
 10
360.425
 20
435.4
 30
0.0
 11
360.425
 21
488.4
 31
0.0
  0
LINE
  8
0
  6
LTYPE1
 62
     2
 10
333.425
 20
470.4
 30
0.0
 11
333.425
 21
482.4
 31
0.0
  0
LINE
  8
0
  6
CONTINUOUS
 62
     1
 10
346.925
 20
456.95
 30
0.0
 11
346.925
 21
440.95
 31
0.0
  0
LINE
  8
0
  6
CONTINUOUS
 62
     1
 10
346.925
 20
456.95
 30
0.0
 11
360.425
 21
456.95
 31
0.0
  0
LINE
  8
0
  6
CONTINUOUS
 62
     1
 10
360.425
 20
459.4
 30
0.0
 11
369.085254038
 21
464.4
 31
0.0
  0
LINE
  8
0
  6
CONTINUOUS
 62
     1
 10
360.425
 20
437.4
 30
0.0
 11
360.425
 21
459.4
 31
0.0
  0
LINE
  8
0
  6
CONTINUOUS
 62
     1
 10
369.075
 20
432.4
 30
0.0
 11
369.075
 21
464.4
 31
0.0
  0
LINE
  8
0
  6
CONTINUOUS
 62
     1
 10
393.775
 20
432.4
 30
0.0
 11
393.775
 21
464.4
 31
0.0
  0
LINE
  8
0
  6
LTYPE2
 62
     2
 10
381.425
 20
438.4
 30
0.0
 11
381.425
 21
458.4
 31
0.0
  0
LINE
  8
0
  6
CONTINUOUS
 62
     1
 10
369.075
 20
464.4
 30
0.0
 11
393.775
 21
464.4
 31
0.0
  0
LINE
  8
0
  6
CONTINUOUS
 62
     1
 10
402.425
 20
459.4
 30
0.0
 11
393.764745962
 21
464.4
 31
0.0
  0
CIRCLE
  8
0
  6
CONTINUOUS
 62
     2
 10
381.425
 20
448.4
 30
0.0
 40
5.0
  0
CIRCLE
  8
0
  6
CONTINUOUS
 62
     2
 10
381.425
 20
448.4
 30
0.0
 40
4.0
  0
LINE
  8
0
  6
CONTINUOUS
 62
     1
 10
402.425
 20
437.4
 30
0.0
 11
402.425
 21
459.4
 31
0.0
  0
LINE
  8
0
  6
LTYPE1
 62
     2
 10
518.425
 20
496.9
 30
0.0
 11
518.425
 21
565.9
 31
0.0
  0
LINE
  8
0
  6
LTYPE1
 62
     2
 10
531.925
 20
490.4
 30
0.0
 11
531.925
 21
485.8
 31
0.0
  0
LINE
  8
0
  6
LTYPE1
 62
     2
 10
531.925
 20
490.4
 30
0.0
 11
516.925
 21
490.4
 31
0.0
  0
LINE
  8
0
  6
LTYPE1
 62
     2
 10
516.925
 20
490.4
 30
0.0
 11
516.925
 21
485.8
 31
0.0
  0
LINE
  8
0
  6
LTYPE1
 62
     2
 10
520.625
 20
490.4
 30
0.0
 11
520.625
 21
485.8
 31
0.0
  0
LINE
  8
0
  6
LTYPE1
 62
     2
 10
528.225
 20
490.4
 30
0.0
 11
528.225
 21
485.8
 31
0.0
  0
ARC
  8
0
  6
LTYPE1
 62
     2
 10
518.725
 20
487.9
 30
0.0
 40
2.8
 50
228.5
 51
311.5
  0
ARC
  8
0
  6
LTYPE1
 62
     2
 10
524.425
 20
495.8
 30
0.0
 40
10.7
 50
249.1
 51
290.9
  0
ARC
  8
0
  6
LTYPE1
 62
     2
 10
530.125
 20
487.9
 30
0.0
 40
2.8
 50
228.5
 51
311.5
  0
LINE
  8
0
  6
LTYPE1
 62
     2
 10
524.425
 20
481.6
 30
0.0
 11
524.425
 21
493.4
 31
0.0
  0
LINE
  8
0
  6
LTYPE2
 62
     2
 10
524.425
 20
477.75
 30
0.0
 11
524.425
 21
502.05
 31
0.0
  0
LINE
  8
0
  6
LTYPE1
 62
     2
 10
532.425
 20
490.4
 30
0.0
 11
532.425
 21
565.9
 31
0.0
  0
LINE
  8
0
  6
LTYPE1
 62
     2
 10
530.125
 20
485.1
 30
0.0
 11
518.725
 21
485.1
 31
0.0
  0
LINE
  8
0
  6
LTYPE3
 62
     2
 10
525.425
 20
535.65
 30
0.0
 11
525.425
 21
629.65
 31
0.0
  0
LINE
  8
0
  6
LTYPE1
 62
     2
 10
518.425
 20
545.9
 30
0.0
 11
532.425
 21
545.9
 31
0.0
  0
LINE
  8
0
  6
LTYPE1
 62
     2
 10
518.425
 20
565.9
 30
0.0
 11
532.425
 21
565.9
 31
0.0
  0
LINE
  8
0
  6
LTYPE1
 62
     2
 10
521.425
 20
565.9
 30
0.0
 11
521.425
 21
621.65
 31
0.0
  0
LINE
  8
0
  6
LTYPE1
 62
     2
 10
529.425
 20
565.9
 30
0.0
 11
529.425
 21
621.65
 31
0.0
  0
ARC
  8
0
  6
LTYPE1
 62
     2
 10
525.425
 20
621.65
 30
0.0
 40
4.0
 50
0.0
 51
180.0
  0
LINE
  8
0
  6
LTYPE1
 62
     2
 10
360.425
 20
484.4
 30
0.0
 11
632.875
 21
484.4
 31
0.0
  0
LINE
  8
0
  6
LTYPE1
 62
     2
 10
360.425
 20
468.4
 30
0.0
 11
632.875
 21
468.4
 31
0.0
  0
LINE
  8
0
  6
CONTINUOUS
 62
     1
 10
402.425
 20
456.4
 30
0.0
 11
658.275
 21
456.4
 31
0.0
  0
LINE
  8
7
  6
CONTINUOUS
 62
     2
 10
430.575
 20
649.4
 30
0.0
 11
430.575
 21
638.4
 31
0.0
  0
LINE
  8
7
  6
CONTINUOUS
 62
     2
 10
430.575
 20
752.4
 30
0.0
 11
430.575
 21
665.4
 31
0.0
  0
LINE
  8
0
  6
CONTINUOUS
 62
     1
 10
394.875
 20
488.4
 30
0.0
 11
384.275
 21
488.4
 31
0.0
  0
ARC
  8
0
  6
CONTINUOUS
 62
     1
 10
389.975
 20
489.4
 30
0.0
 40
5.0
 50
272.3
 51
348.5
  0
ARC
  8
0
  6
CONTINUOUS
 62
     1
 10
389.175
 20
489.4
 30
0.0
 40
5.0
 50
191.5
 51
267.7
  0
LINE
  8
0
  6
CONTINUOUS
 62
     1
 10
390.175
 20
484.4
 30
0.0
 11
388.975
 21
484.4
 31
0.0
  0
LINE
  8
0
  6
LTYPE6
 62
     2
 10
389.575
 20
481.0
 30
0.0
 11
389.575
 21
494.4
 31
0.0
  0
LINE
  8
0
  6
CONTINUOUS
 62
     1
 10
510.875
 20
488.4
 30
0.0
 11
500.275
 21
488.4
 31
0.0
  0
ARC
  8
0
  6
CONTINUOUS
 62
     1
 10
505.975
 20
489.4
 30
0.0
 40
5.0
 50
272.3
 51
348.5
  0
ARC
  8
0
  6
CONTINUOUS
 62
     1
 10
505.175
 20
489.4
 30
0.0
 40
5.0
 50
191.5
 51
267.7
  0
LINE
  8
0
  6
CONTINUOUS
 62
     1
 10
506.175
 20
484.4
 30
0.0
 11
504.975
 21
484.4
 31
0.0
  0
LINE
  8
0
  6
LTYPE6
 62
     2
 10
505.575
 20
481.0
 30
0.0
 11
505.575
 21
494.4
 31
0.0
  0
TEXT
  8
7
  6
CONTINUOUS
 62
     2
 10
526.175
 20
383.4
 30
0.0
 40
15.0
  1
Ｃ
 50
0.0
 41
0.9
 51
0.0
  7
KANJI30
  0
TEXT
  8
7
  6
CONTINUOUS
 62
     2
 10
537.175
 20
355.4
 30
0.0
 40
15.0
  1
ｍｉｎ．Ｌ
 50
0.0
 41
0.9
 51
0.0
  7
KANJI30
  0
TEXT
  8
7
  6
CONTINUOUS
 62
     2
 10
460.175
 20
327.4
 30
0.0
 40
15.0
  1
ｍｉｎ．ＡＬ
 50
0.0
 41
0.9
 51
0.0
  7
KANJI30
  0
LINE
  8
0
  6
LTYPE2
 62
     2
 10
789.575
 20
757.4
 30
0.0
 11
909.075
 21
757.4
 31
0.0
  0
LINE
  8
0
  6
CONTINUOUS
 62
     1
 10
739.575
 20
565.4
 30
0.0
 11
739.575
 21
621.15
 31
0.0
  0
LINE
  8
0
  6
CONTINUOUS
 62
     1
 10
731.575
 20
565.4
 30
0.0
 11
731.575
 21
621.15
 31
0.0
  0
ARC
  8
0
  6
CONTINUOUS
 62
     1
 10
735.575
 20
621.15
 30
0.0
 40
4.0
 50
0.0
 51
180.0
  0
LINE
  8
0
  6
LTYPE3
 62
     2
 10
735.575
 20
535.15
 30
0.0
 11
735.575
 21
629.15
 31
0.0
  0
LINE
  8
0
  6
CONTINUOUS
 62
     1
 10
739.575
 20
617.15
 30
0.0
 11
810.575
 21
617.15
 31
0.0
  0
LINE
  8
0
  6
CONTINUOUS
 62
     1
 10
791.575
 20
553.65
 30
0.0
 11
791.575
 21
617.15
 31
0.0
  0
LINE
  8
0
  6
CONTINUOUS
 62
     1
 10
727.575
 20
545.4
 30
0.0
 11
743.575
 21
545.4
 31
0.0
  0
LINE
  8
0
  6
CONTINUOUS
 62
     1
 10
727.575
 20
496.4
 30
0.0
 11
727.575
 21
565.4
 31
0.0
  0
LINE
  8
0
  6
CONTINUOUS
 62
     1
 10
727.575
 20
565.4
 30
0.0
 11
743.575
 21
565.4
 31
0.0
  0
LINE
  8
0
  6
CONTINUOUS
 62
     1
 10
743.575
 20
496.4
 30
0.0
 11
743.575
 21
565.4
 31
0.0
  0
LINE
  8
0
  6
CONTINUOUS
 62
     1
 10
743.575
 20
553.65
 30
0.0
 11
810.575
 21
553.65
 31
0.0
  0
LINE
  8
0
  6
CONTINUOUS
 62
     1
 10
778.275
 20
489.4
 30
0.0
 11
778.275
 21
464.0
 31
0.0
  0
LINE
  8
0
  6
CONTINUOUS
 62
     1
 10
752.875
 20
489.4
 30
0.0
 11
778.275
 21
489.4
 31
0.0
  0
LINE
  8
0
  6
CONTINUOUS
 62
     1
 10
770.575
 20
490.4
 30
0.0
 11
770.575
 21
496.4
 31
0.0
  0
LINE
  8
0
  6
CONTINUOUS
 62
     1
 10
752.875
 20
464.0
 30
0.0
 11
778.275
 21
464.0
 31
0.0
  0
LINE
  8
0
  6
CONTINUOUS
 62
     1
 10
752.875
 20
490.4
 30
0.0
 11
752.875
 21
450.4
 31
0.0
  0
LINE
  8
0
  6
CONTINUOUS
 62
     1
 10
756.575
 20
440.0
 30
0.0
 11
756.575
 21
464.0
 31
0.0
  0
LINE
  8
0
  6
CONTINUOUS
 62
     1
 10
768.575
 20
440.0
 30
0.0
 11
768.575
 21
464.0
 31
0.0
  0
LINE
  8
0
  6
LTYPE3
 62
     2
 10
762.575
 20
468.0
 30
0.0
 11
762.575
 21
433.0
 31
0.0
  0
LINE
  8
0
  6
CONTINUOUS
 62
     1
 10
689.575
 20
435.4
 30
0.0
 11
721.575
 21
435.4
 31
0.0
  0
LINE
  8
0
  6
CONTINUOUS
 62
     1
 10
768.575
 20
440.0
 30
0.0
 11
756.575
 21
440.0
 31
0.0
  0
LINE
  8
0
  6
LTYPE2
 62
     2
 10
800.575
 20
438.4
 30
0.0
 11
800.575
 21
458.4
 31
0.0
  0
CIRCLE
  8
0
  6
CONTINUOUS
 62
     2
 10
800.575
 20
448.4
 30
0.0
 40
5.0
  0
CIRCLE
  8
0
  6
CONTINUOUS
 62
     2
 10
800.575
 20
448.4
 30
0.0
 40
4.0
  0
LINE
  8
0
  6
CONTINUOUS
 62
     1
 10
721.575
 20
440.4
 30
0.0
 11
756.575
 21
440.4
 31
0.0
  0
LINE
  8
0
  6
LTYPE3
 62
     2
 10
406.325
 20
448.4
 30
0.0
 11
872.575
 21
448.4
 31
0.0
  0
LINE
  8
7
  6
CONTINUOUS
 62
     2
 10
703.575
 20
435.4
 30
0.0
 11
695.854572975
 21
429.044293387
 31
0.0
  0
LINE
  8
7
  6
CONTINUOUS
 62
     2
 10
703.575
 20
435.4
 30
0.0
 11
700.066767374
 21
426.035583102
 31
0.0
  0
LINE
  8
7
  6
CONTINUOUS
 62
     2
 10
703.575
 20
435.4
 30
0.0
 11
683.575
 21
407.4
 31
0.0
  0
LINE
  8
7
  6
CONTINUOUS
 62
     2
 10
683.575
 20
407.4
 30
0.0
 11
612.775
 21
407.4
 31
0.0
  0
TEXT
  8
7
  6
CONTINUOUS
 62
     2
 10
607.775
 20
411.4
 30
0.0
 40
15.0
  1
ＬＳユニット
 50
0.0
 41
0.9
 51
0.0
  7
KANJI30
  0
LINE
  8
0
  6
CONTINUOUS
 62
     1
 10
768.575
 20
440.4
 30
0.0
 11
779.575
 21
440.4
 31
0.0
  0
LINE
  8
0
  6
CONTINUOUS
 62
     1
 10
768.575
 20
456.4
 30
0.0
 11
779.575
 21
456.4
 31
0.0
  0
LINE
  8
7
  6
CONTINUOUS
 62
     2
 10
810.575
 20
379.4
 30
0.0
 11
800.915741737
 21
381.988190451
 31
0.0
  0
LINE
  8
7
  6
CONTINUOUS
 62
     2
 10
810.575
 20
379.4
 30
0.0
 11
800.915741737
 21
376.811809549
 31
0.0
  0
LINE
  8
7
  6
CONTINUOUS
 62
     2
 10
367.575
 20
379.4
 30
0.0
 11
377.234258263
 21
376.811809549
 31
0.0
  0
LINE
  8
7
  6
CONTINUOUS
 62
     2
 10
367.575
 20
379.4
 30
0.0
 11
377.234258263
 21
381.988190451
 31
0.0
  0
LINE
  8
7
  6
CONTINUOUS
 62
     2
 10
367.575
 20
351.4
 30
0.0
 11
377.234258263
 21
348.811809549
 31
0.0
  0
LINE
  8
7
  6
CONTINUOUS
 62
     2
 10
367.575
 20
351.4
 30
0.0
 11
377.234258263
 21
353.988190451
 31
0.0
  0
LINE
  8
7
  6
CONTINUOUS
 62
     2
 10
367.575
 20
345.4
 30
0.0
 11
367.575
 21
345.4
 31
0.0
  0
LINE
  8
7
  6
CONTINUOUS
 62
     2
 10
367.575
 20
345.4
 30
0.0
 11
367.575
 21
345.4
 31
0.0
  0
LINE
  8
7
  6
CONTINUOUS
 62
     2
 10
367.575
 20
351.4
 30
0.0
 11
357.915741737
 21
353.988190451
 31
0.0
  0
LINE
  8
7
  6
CONTINUOUS
 62
     2
 10
367.575
 20
351.4
 30
0.0
 11
357.915741737
 21
348.811809549
 31
0.0
  0
LINE
  8
7
  6
CONTINUOUS
 62
     2
 10
367.575
 20
351.4
 30
0.0
 11
297.575
 21
351.4
 31
0.0
  0
LINE
  8
7
  6
CONTINUOUS
 62
     2
 10
297.575
 20
351.4
 30
0.0
 11
307.234258263
 21
348.811809549
 31
0.0
  0
LINE
  8
7
  6
CONTINUOUS
 62
     2
 10
297.575
 20
351.4
 30
0.0
 11
307.234258263
 21
353.988190451
 31
0.0
  0
LINE
  8
7
  6
CONTINUOUS
 62
     2
 10
297.575
 20
345.4
 30
0.0
 11
297.575
 21
345.4
 31
0.0
  0
LINE
  8
7
  6
CONTINUOUS
 62
     2
 10
297.575
 20
351.4
 30
0.0
 11
287.915741737
 21
353.988190451
 31
0.0
  0
LINE
  8
7
  6
CONTINUOUS
 62
     2
 10
297.575
 20
351.4
 30
0.0
 11
287.915741737
 21
348.811809549
 31
0.0
  0
LINE
  8
7
  6
CONTINUOUS
 62
     2
 10
297.575
 20
351.4
 30
0.0
 11
225.575
 21
351.4
 31
0.0
  0
LINE
  8
7
  6
CONTINUOUS
 62
     2
 10
225.575
 20
351.4
 30
0.0
 11
235.234258263
 21
348.811809549
 31
0.0
  0
LINE
  8
7
  6
CONTINUOUS
 62
     2
 10
225.575
 20
351.4
 30
0.0
 11
235.234258263
 21
353.988190451
 31
0.0
  0
LINE
  8
7
  6
CONTINUOUS
 62
     2
 10
225.575
 20
323.4
 30
0.0
 11
235.234258263
 21
320.811809549
 31
0.0
  0
LINE
  8
7
  6
CONTINUOUS
 62
     2
 10
225.575
 20
323.4
 30
0.0
 11
235.234258263
 21
325.988190451
 31
0.0
  0
LINE
  8
7
  6
CONTINUOUS
 62
     2
 10
225.575
 20
323.4
 30
0.0
 11
215.915741737
 21
325.988190451
 31
0.0
  0
LINE
  8
7
  6
CONTINUOUS
 62
     2
 10
225.575
 20
323.4
 30
0.0
 11
215.915741737
 21
320.811809549
 31
0.0
  0
LINE
  8
7
  6
CONTINUOUS
 62
     2
 10
225.575
 20
323.4
 30
0.0
 11
197.575
 21
323.4
 31
0.0
  0
LINE
  8
7
  6
CONTINUOUS
 62
     2
 10
197.575
 20
323.4
 30
0.0
 11
207.234258263
 21
320.811809549
 31
0.0
  0
LINE
  8
7
  6
CONTINUOUS
 62
     2
 10
197.575
 20
323.4
 30
0.0
 11
207.234258263
 21
325.988190451
 31
0.0
  0
TEXT
  8
7
  6
CONTINUOUS
 62
     2
 10
321.175
 20
355.4
 30
0.0
 40
15.0
  1
７０
 50
0.0
 41
0.9
 51
0.0
  7
KANJI30
  0
TEXT
  8
7
  6
CONTINUOUS
 62
     2
 10
250.175
 20
355.4
 30
0.0
 40
15.0
  1
７２
 50
0.0
 41
0.9
 51
0.0
  7
KANJI30
  0
TEXT
  8
7
  6
CONTINUOUS
 62
     2
 10
200.175
 20
327.4
 30
0.0
 40
15.0
  1
２８
 50
0.0
 41
0.9
 51
0.0
  7
KANJI30
  0
LINE
  8
7
  6
CONTINUOUS
 62
     2
 10
367.575
 20
379.4
 30
0.0
 11
829.575
 21
379.4
 31
0.0
  0
LINE
  8
7
  6
CONTINUOUS
 62
     2
 10
367.575
 20
351.4
 30
0.0
 11
880.575
 21
351.4
 31
0.0
  0
LINE
  8
7
  6
CONTINUOUS
 62
     2
 10
880.575
 20
323.4
 30
0.0
 11
225.575
 21
323.4
 31
0.0
  0
LINE
  8
0
  6
LTYPE1
 62
     2
 10
328.425
 20
435.4
 30
0.0
 11
360.425
 21
435.4
 31
0.0
  0
LINE
  8
0
  6
LTYPE1
 62
     2
 10
325.925
 20
448.4
 30
0.0
 11
325.925
 21
438.6
 31
0.0
  0
LINE
  8
0
  6
LTYPE1
 62
     2
 10
325.925
 20
438.6
 30
0.0
 11
320.310640646
 21
438.6
 31
0.0
  0
LINE
  8
0
  6
LTYPE1
 62
     2
 10
318.925
 20
441.0
 30
0.0
 11
320.310640646
 21
438.6
 31
0.0
  0
LINE
  8
0
  6
LTYPE1
 62
     2
 10
318.925
 20
448.4
 30
0.0
 11
318.925
 21
441.0
 31
0.0
  0
LINE
  8
0
  6
LTYPE1
 62
     2
 10
325.925
 20
443.5
 30
0.0
 11
320.310640646
 21
443.5
 31
0.0
  0
ARC
  8
0
  6
LTYPE1
 62
     2
 10
321.782883832
 20
441.05
 30
0.0
 40
2.858321186
 50
121.002313915
 51
182.989498403
  0
LINE
  8
0
  6
LTYPE1
 62
     2
 10
328.425
 20
439.2
 30
0.0
 11
325.925
 21
439.2
 31
0.0
  0
LINE
  8
0
  6
LTYPE1
 62
     2
 10
328.425
 20
448.4
 30
0.0
 11
325.925000004
 21
445.900000004
 31
0.0
  0
LINE
  8
0
  6
LTYPE1
 62
     2
 10
310.425
 20
444.4
 30
0.0
 11
318.925
 21
444.4
 31
0.0
  0
LINE
  8
0
  6
LTYPE1
 62
     2
 10
310.425
 20
445.4
 30
0.0
 11
318.925
 21
445.4
 31
0.0
  0
LINE
  8
0
  6
CONTINUOUS
 62
     1
 10
369.075
 20
432.4
 30
0.0
 11
393.775
 21
432.4
 31
0.0
  0
LINE
  8
0
  6
CONTINUOUS
 62
     1
 10
402.425
 20
437.4
 30
0.0
 11
393.764745962
 21
432.4
 31
0.0
  0
LINE
  8
0
  6
CONTINUOUS
 62
     1
 10
360.425
 20
437.4
 30
0.0
 11
369.085254038
 21
432.4
 31
0.0
  0
LINE
  8
0
  6
CONTINUOUS
 62
     1
 10
346.925
 20
440.95
 30
0.0
 11
360.425
 21
440.95
 31
0.0
  0
LINE
  8
0
  6
CONTINUOUS
 62
     1
 10
402.425
 20
440.4
 30
0.0
 11
689.575
 21
440.4
 31
0.0
  0
LINE
  8
0
  6
LTYPE3
 62
     2
 10
771.836021217
 20
231.5
 30
0.0
 11
680.575
 21
231.5
 31
0.0
  0
LINE
  8
0
  6
CONTINUOUS
 62
     1
 10
776.275
 20
244.2
 30
0.0
 11
752.875
 21
244.2
 31
0.0
  0
ARC
  8
0
  6
CONTINUOUS
 62
     1
 10
776.275
 20
242.2
 30
0.0
 40
2.0
 50
0.0
 51
90.0
  0
LINE
  8
0
  6
CONTINUOUS
 62
     1
 10
778.275
 20
242.2
 30
0.0
 11
778.275
 21
220.8
 31
0.0
  0
ARC
  8
0
  6
CONTINUOUS
 62
     1
 10
650.575
 20
246.0
 30
0.0
 40
10.0
 50
90.0
 51
180.0
  0
LINE
  8
0
  6
CONTINUOUS
 62
     1
 10
770.575
 20
244.2
 30
0.0
 11
770.575
 21
246.0
 31
0.0
  0
LINE
  8
0
  6
CONTINUOUS
 62
     1
 10
650.575
 20
256.0
 30
0.0
 11
760.575
 21
256.0
 31
0.0
  0
ARC
  8
0
  6
CONTINUOUS
 62
     1
 10
760.575
 20
246.0
 30
0.0
 40
10.0
 50
0.0
 51
90.0
  0
LINE
  8
7
  6
CONTINUOUS
 62
     2
 10
684.175
 20
231.5
 30
0.0
 11
675.86652211
 21
225.935002681
 31
0.0
  0
LINE
  8
7
  6
CONTINUOUS
 62
     2
 10
684.175
 20
231.5
 30
0.0
 11
679.76214574
 21
222.526332005
 31
0.0
  0
LINE
  8
7
  6
CONTINUOUS
 62
     2
 10
684.175
 20
231.5
 30
0.0
 11
672.975
 21
218.7
 31
0.0
  0
TEXT
  8
7
  6
CONTINUOUS
 62
     2
 10
614.175
 20
222.7
 30
1.2
 40
12.0
  1
ＰＦ１／２
 50
0.0
 41
0.9
 51
0.0
  7
KANJI18
  0
LINE
  8
0
  6
CONTINUOUS
 62
     1
 10
640.575
 20
235.7
 30
0.0
 11
640.575
 21
246.0
 31
0.0
  0
LINE
  8
0
  6
LTYPE3
 62
     2
 10
695.615
 20
246.6
 30
0.0
 11
684.175
 21
246.6
 31
0.0
  0
LINE
  8
0
  6
LTYPE3
 62
     2
 10
689.175
 20
250.5
 30
0.0
 11
689.175
 21
241.52
 31
0.0
  0
LINE
  8
0
  6
CONTINUOUS
 62
     1
 10
750.875
 20
251.5
 30
0.0
 11
686.175
 21
251.5
 31
0.0
  0
LINE
  8
0
  6
CONTINUOUS
 62
     1
 10
684.175
 20
249.5
 30
0.0
 11
684.175
 21
213.5
 31
0.0
  0
ARC
  8
0
  6
CONTINUOUS
 62
     1
 10
686.175
 20
249.5
 30
0.0
 40
2.0
 50
90.0
 51
180.0
  0
LINE
  8
0
  6
LTYPE3
 62
     2
 10
689.175
 20
222.42
 30
0.0
 11
689.175
 21
212.5
 31
0.0
  0
LINE
  8
0
  6
LTYPE3
 62
     2
 10
752.875
 20
246.6
 30
0.0
 11
742.915
 21
246.6
 31
0.0
  0
LINE
  8
0
  6
LTYPE3
 62
     2
 10
747.875
 20
250.5
 30
0.0
 11
747.875
 21
242.62
 31
0.0
  0
ARC
  8
0
  6
CONTINUOUS
 62
     1
 10
750.875
 20
249.5
 30
0.0
 40
2.0
 50
0.0
 51
90.0
  0
LINE
  8
0
  6
CONTINUOUS
 62
     1
 10
752.875
 20
249.5
 30
0.0
 11
752.875
 21
213.5
 31
0.0
  0
LINE
  8
0
  6
LTYPE3
 62
     2
 10
747.875
 20
222.52
 30
0.0
 11
747.875
 21
212.5
 31
0.0
  0
ARC
  8
0
  6
CONTINUOUS
 62
     1
 10
762.575
 20
231.5
 30
0.0
 40
6.0
 50
356.983045121
 51
183.016954879
  0
LINE
  8
0
  6
LTYPE3
 62
     2
 10
762.575
 20
240.6
 30
0.0
 11
762.575
 21
183.1
 31
0.0
  0
LINE
  8
0
  6
CONTINUOUS
 62
     1
 10
768.566683988
 20
231.184210526
 30
0.0
 11
766.569455992
 21
193.289473684
 31
0.0
  0
LINE
  8
0
  6
CONTINUOUS
 62
     1
 10
756.583316012
 20
231.184210526
 30
0.0
 11
758.580544008
 21
193.289473684
 31
0.0
  0
LINE
  8
0
  6
CONTINUOUS
 62
     2
 10
645.575
 20
256.0
 30
0.0
 11
571.575
 21
256.0
 31
0.0
  0
LINE
  8
0
  6
CONTINUOUS
 62
     2
 10
576.575
 20
256.0
 30
0.0
 11
573.986809549
 21
246.340741737
 31
0.0
  0
LINE
  8
0
  6
CONTINUOUS
 62
     2
 10
576.575
 20
256.0
 30
0.0
 11
579.163190451
 21
246.340741737
 31
0.0
  0
LINE
  8
0
  6
CONTINUOUS
 62
     2
 10
576.575
 20
256.0
 30
0.0
 11
576.575
 21
91.0
 31
0.0
  0
TEXT
  8
0
  6
CONTINUOUS
 62
     2
 10
114.078726364
 20
857.912221811
 30
0.0
 40
15.6
  1
モーター結線図
 50
0.0
 41
0.925
 51
0.0
  7
KANJI36
  0
LINE
  8
0
  6
LTYPE2
 62
     6
 10
108.983333
 20
978.533317
 30
0.0
 11
108.983333
 21
962.132460936
 31
0.0
  0
LINE
  8
0
  6
LTYPE2
 62
     6
 10
239.380262694
 20
978.533317
 30
0.0
 11
108.983333
 21
978.533317
 31
0.0
  0
TEXT
  8
0
  6
CONTINUOUS
 62
     6
 10
91.448590591
 20
965.048168681
 30
1.093390404
 40
10.933904043
  1
Ｕ
 50
0.0
 41
0.9
 51
0.0
  7
KANJI37
  0
CIRCLE
  8
0
  6
CONTINUOUS
 62
     6
 10
108.983333
 20
958.852289723
 30
0.0
 40
4.373561617
  0
LINE
  8
0
  6
CONTINUOUS
 62
     6
 10
103.95854931
 20
953.827506033
 30
0.0
 11
114.163526417
 21
964.03248314
 31
0.0
  0
TEXT
  8
0
  6
CONTINUOUS
 62
     6
 10
119.228806047
 20
987.199448352
 30
1.518597784
 40
15.185977837
  1
エコノストップモータ
 50
0.0
 41
0.66671875
 51
0.0
  7
KANJI38
  0
CIRCLE
  8
0
  6
CONTINUOUS
 62
     6
 10
153.812339575
 20
933.339846957
 30
0.0
 40
18.223173404
  0
TEXT
  8
0
  6
CONTINUOUS
 62
     6
 10
146.158606745
 20
924.592723723
 30
1.82231734
 40
18.223173404
  1
Ｍ
 50
0.0
 41
0.9
 51
0.0
  7
KANJI39
  0
LINE
  8
0
  6
CONTINUOUS
 62
     6
 10
129.757750681
 20
907.827404191
 30
0.0
 11
141.056118192
 21
920.948089042
 31
0.0
  0
LINE
  8
0
  6
CONTINUOUS
 62
     6
 10
129.757750681
 20
958.852289723
 30
0.0
 11
141.056118192
 21
945.731604872
 31
0.0
  0
LINE
  8
0
  6
CONTINUOUS
 62
     6
 10
129.757750681
 20
958.852289723
 30
0.0
 11
113.356894617
 21
958.852289723
 31
0.0
  0
LINE
  8
0
  6
CONTINUOUS
 62
     6
 10
135.953629639
 20
933.339846957
 30
0.0
 11
113.356894617
 21
933.339846957
 31
0.0
  0
LINE
  8
0
  6
CONTINUOUS
 62
     6
 10
129.757750681
 20
907.827404191
 30
0.0
 11
113.356894617
 21
907.827404191
 31
0.0
  0
TEXT
  8
0
  6
CONTINUOUS
 62
     6
 10
92.541980995
 20
939.171262446
 30
1.093390404
 40
10.933904043
  1
Ｖ
 50
0.0
 41
0.9
 51
0.0
  7
KANJI37
  0
TEXT
  8
0
  6
CONTINUOUS
 62
     6
 10
93.635371399
 20
913.294356212
 30
1.093390404
 40
10.933904043
  1
Ｗ
 50
0.0
 41
0.9
 51
0.0
  7
KANJI37
  0
CIRCLE
  8
0
  6
CONTINUOUS
 62
     6
 10
108.983333
 20
933.339846957
 30
0.0
 40
4.373561617
  0
LINE
  8
0
  6
CONTINUOUS
 62
     6
 10
103.95854931
 20
928.315063267
 30
0.0
 11
114.163526417
 21
938.520040374
 31
0.0
  0
LINE
  8
0
  6
LTYPE2
 62
     6
 10
108.983333
 20
954.843191574
 30
0.0
 11
108.983333
 21
936.62001817
 31
0.0
  0
CIRCLE
  8
0
  6
CONTINUOUS
 62
     6
 10
108.983333
 20
907.827404191
 30
0.0
 40
4.373561617
  0
LINE
  8
0
  6
CONTINUOUS
 62
     6
 10
103.95854931
 20
902.802620501
 30
0.0
 11
114.163526417
 21
913.007597607
 31
0.0
  0
LINE
  8
0
  6
LTYPE2
 62
     6
 10
108.983333
 20
929.330748808
 30
0.0
 11
108.983333
 21
912.200965808
 31
0.0
  0
LINE
  8
0
  6
LTYPE2
 62
     6
 10
239.380262694
 20
883.121584891
 30
0.0
 11
108.983333
 21
883.121584891
 31
0.0
  0
LINE
  8
0
  6
LTYPE2
 62
     6
 10
108.983333
 20
903.453842574
 30
0.0
 11
108.983333
 21
883.121584891
 31
0.0
  0
TEXT
  8
0
  6
CONTINUOUS
 62
     6
 10
180.053709277
 20
925.084749405
 30
1.457853872
 40
14.578538724
  1
Ｂ
 50
0.0
 41
0.9
 51
0.0
  7
KANJI40
  0
CIRCLE
  8
0
  6
CONTINUOUS
 62
     6
 10
186.614051703
 20
933.339846957
 30
0.0
 40
14.578538724
  0
LINE
  8
0
  6
LTYPE2
 62
     6
 10
239.380262694
 20
883.121584891
 30
0.0
 11
239.380262694
 21
978.533317
 31
0.0
  0
LINE
  8
0
  6
CONTINUOUS
 62
     2
 10
215.241667
 20
708.766683
 30
0.0
 11
213.024409397
 21
718.517773643
 31
0.0
  0
LINE
  8
0
  6
CONTINUOUS
 62
     2
 10
215.241667
 20
708.766683
 30
0.0
 11
208.445920268
 21
716.10274641
 31
0.0
  0
LINE
  8
0
  6
CONTINUOUS
 62
     2
 10
215.241667
 20
708.766683
 30
0.0
 11
167.628471571
 21
799.033366
 31
0.0
  0
ARC
  8
0
  6
CONTINUOUS
 62
     2
 10
156.075
 20
697.9
 30
0.0
 40
20.0
 50
231.952957468
 51
156.801409486
  0
LINE
  8
0
  6
CONTINUOUS
 62
     2
 10
137.6920994
 20
705.778385972
 30
0.0
 11
139.98679211
 21
715.615824749
 31
0.0
  0
LINE
  8
0
  6
CONTINUOUS
 62
     2
 10
137.6920994
 20
705.778385972
 30
0.0
 11
145.960260778
 21
710.685722507
 31
0.0
  0
TEXT
  8
0
  6
CONTINUOUS
 62
     2
 10
75.6920994
 20
688.778385972
 30
0.0
 40
15.0
  1
前進方向
 50
0.0
 41
0.9
 51
0.0
  7
KANJI30
  0
TEXT
  8
0
  6
CONTINUOUS
 62
     3
 10
73.983334
 20
804.033366
 30
1.5
 40
15.0
  1
手動軸カバー
 50
0.0
 41
0.9
 51
0.0
  7
KANJI41
  0
TEXT
  8
0
  6
CONTINUOUS
 62
     3
 10
73.983334
 20
774.033366
 30
1.5
 40
15.0
  1
手動軸□８
 50
0.0
 41
0.9
 51
0.0
  7
KANJI41
  0
LINE
  8
0
  6
CONTINUOUS
 62
     2
 10
167.628471571
 20
799.033366
 30
0.0
 11
73.983334
 21
799.033366
 31
0.0
  0
LINE
  8
0
  6
LTYPE2
 62
     2
 10
213.575
 20
635.4
 30
0.0
 11
246.575
 21
635.4
 31
0.0
  0
LINE
  8
0
  6
CONTINUOUS
 62
     1
 10
290.075
 20
660.4
 30
0.0
 11
247.075
 21
660.4
 31
0.0
  0
TEXT
  8
0
  6
CONTINUOUS
 62
     2
 10
252.075
 20
649.4
 30
5.0
 40
20.0
  1
銘板
 50
270.0
 41
0.925
 51
0.0
  7
KANJI42
  0
LINE
  8
0
  6
CONTINUOUS
 62
     1
 10
290.075
 20
590.4
 30
0.0
 11
247.075
 21
590.4
 31
0.0
  0
LINE
  8
0
  6
CONTINUOUS
 62
     1
 10
247.075
 20
660.4
 30
0.0
 11
247.075
 21
590.4
 31
0.0
  0
TEXT
  8
0
  6
CONTINUOUS
 62
     2
 10
316.475
 20
650.4
 30
0.0
 40
15.0
  1
エコノストップモータ
 50
0.0
 41
0.9
 51
0.0
  7
KANJI30
  0
TEXT
  8
0
  6
CONTINUOUS
 62
     2
 10
319.375
 20
667.4
 30
0.0
 40
15.0
  1
日本電産
 50
0.0
 41
0.9
 51
0.0
  7
KANJI30
  0
TEXT
  8
0
  6
CONTINUOUS
 62
     2
 10
434.300925263
 20
914.054873451
 30
0.0
 40
20.0
  1
ブレーキ解放装置はありません。
 50
0.0
 41
0.925
 51
0.0
  7
KANJI43
  0
TEXT
  8
0
  6
CONTINUOUS
 62
     2
 10
435.300925263
 20
889.054873451
 30
0.0
 40
20.0
  1
そのまま手動操作をして下さい．
 50
0.0
 41
0.925
 51
0.0
  7
KANJI43
  0
TEXT
  8
0
  6
CONTINUOUS
 62
     2
 10
517.153757109
 20
672.228121884
 30
0.0
 40
15.0
  1
推力リミッタの作動値は、約１１０ｋｇ（設計値）
 50
0.0
 41
0.9
 51
0.0
  7
KANJI30
  0
LINE
  8
0
  6
CONTINUOUS
 62
     2
 10
517.753757109
 20
668.028121884
 30
0.0
 11
821.0
 21
668.028121884
 31
0.0
  0
LINE
  8
0
  6
LTYPE2
 62
     2
 10
802.075
 20
163.5
 30
0.0
 11
802.075
 21
183.5
 31
0.0
  0
CIRCLE
  8
0
  6
CONTINUOUS
 62
     2
 10
802.075
 20
173.5
 30
0.0
 40
5.0
  0
CIRCLE
  8
0
  6
CONTINUOUS
 62
     2
 10
802.075
 20
173.5
 30
0.0
 40
4.0
  0
LINE
  8
0
  6
LTYPE2
 62
     2
 10
854.075
 20
173.5
 30
0.0
 11
619.230760473
 21
173.5
 31
0.0
  0
LINE
  8
7
  6
CONTINUOUS
 62
     2
 10
739.625
 20
129.65
 30
0.0
 11
798.425
 21
129.65
 31
0.0
  0
TEXT
  8
7
  6
CONTINUOUS
 62
     2
 10
739.625
 20
133.65
 30
1.2
 40
12.0
  1
ＰＦ１／２
 50
0.0
 41
0.9
 51
0.0
  7
KANJI18
  0
ARC
  8
0
  6
CONTINUOUS
 62
     1
 10
776.275
 20
220.8
 30
0.0
 40
2.0
 50
270.0
 51
0.0
  0
LINE
  8
0
  6
CONTINUOUS
 62
     1
 10
776.275
 20
218.8
 30
0.0
 11
767.913978783
 21
218.8
 31
0.0
  0
LINE
  8
0
  6
LTYPE3
 62
     2
 10
751.575
 20
193.5
 30
0.0
 11
774.575
 21
193.5
 31
0.0
  0
ARC
  8
0
  6
CONTINUOUS
 62
     1
 10
762.575
 20
193.5
 30
0.0
 40
8.75
 50
120.219855722
 51
59.780144278
  0
LINE
  8
0
  6
CONTINUOUS
 62
     1
 10
689.575
 20
189.5
 30
0.0
 11
721.575
 21
189.5
 31
0.0
  0
LINE
  8
0
  6
CONTINUOUS
 62
     1
 10
689.575
 20
157.5
 30
0.0
 11
689.575
 21
189.5
 31
0.0
  0
LINE
  8
0
  6
CONTINUOUS
 62
     1
 10
721.575
 20
157.5
 30
0.0
 11
689.575
 21
157.5
 31
0.0
  0
LINE
  8
0
  6
LTYPE3
 62
     2
 10
716.075
 20
130.6
 30
0.0
 11
726.975
 21
130.6
 31
0.0
  0
LINE
  8
0
  6
LTYPE3
 62
     2
 10
721.975
 20
124.58
 30
0.0
 11
721.975
 21
134.5
 31
0.0
  0
LINE
  8
0
  6
LTYPE3
 62
     2
 10
715.535
 20
100.4
 30
0.0
 11
726.975
 21
100.4
 31
0.0
  0
LINE
  8
0
  6
LTYPE3
 62
     2
 10
721.975
 20
96.5
 30
0.0
 11
721.975
 21
105.48
 31
0.0
  0
LINE
  8
0
  6
LTYPE3
 62
     2
 10
658.275
 20
100.4
 30
0.0
 11
668.235
 21
100.4
 31
0.0
  0
LINE
  8
0
  6
LTYPE3
 62
     2
 10
663.275
 20
96.5
 30
0.0
 11
663.275
 21
104.38
 31
0.0
  0
LINE
  8
0
  6
LTYPE3
 62
     2
 10
658.275
 20
130.6
 30
0.0
 11
668.075
 21
130.6
 31
0.0
  0
LINE
  8
0
  6
LTYPE3
 62
     2
 10
663.275
 20
124.48
 30
0.0
 11
663.275
 21
134.5
 31
0.0
  0
LINE
  8
0
  6
LTYPE3
 62
     2
 10
659.575
 20
153.5
 30
0.0
 11
636.575
 21
153.5
 31
0.0
  0
ARC
  8
0
  6
CONTINUOUS
 62
     1
 10
660.275
 20
97.5
 30
0.0
 40
2.0
 50
180.0
 51
270.0
  0
LINE
  8
0
  6
CONTINUOUS
 62
     1
 10
634.875
 20
102.8
 30
0.0
 11
658.275
 21
102.8
 31
0.0
  0
ARC
  8
0
  6
CONTINUOUS
 62
     1
 10
634.875
 20
104.8
 30
0.0
 40
2.0
 50
180.0
 51
270.0
  0
LINE
  8
0
  6
CONTINUOUS
 62
     1
 10
632.875
 20
104.8
 30
0.0
 11
632.875
 21
126.2
 31
0.0
  0
ARC
  8
0
  6
CONTINUOUS
 62
     1
 10
634.875
 20
126.2
 30
0.0
 40
2.0
 50
90.0
 51
180.0
  0
LINE
  8
0
  6
CONTINUOUS
 62
     1
 10
658.275
 20
97.5
 30
0.0
 11
658.275
 21
133.5
 31
0.0
  0
ARC
  8
0
  6
CONTINUOUS
 62
     1
 10
660.275
 20
133.5
 30
0.0
 40
2.0
 50
90.0
 51
180.0
  0
LINE
  8
0
  6
CONTINUOUS
 62
     1
 10
660.275
 20
135.5
 30
0.0
 11
724.975
 21
135.5
 31
0.0
  0
ARC
  8
0
  6
CONTINUOUS
 62
     1
 10
724.975
 20
133.5
 30
0.0
 40
2.0
 50
0.0
 51
90.0
  0
LINE
  8
0
  6
CONTINUOUS
 62
     1
 10
660.275
 20
95.5
 30
0.0
 11
724.975
 21
95.5
 31
0.0
  0
LINE
  8
0
  6
CONTINUOUS
 62
     1
 10
726.975
 20
97.5
 30
0.0
 11
726.975
 21
133.5
 31
0.0
  0
ARC
  8
0
  6
CONTINUOUS
 62
     1
 10
724.975
 20
97.5
 30
0.0
 40
2.0
 50
270.0
 51
0.0
  0
ARC
  8
0
  6
CONTINUOUS
 62
     1
 10
760.575
 20
101.0
 30
0.0
 40
10.0
 50
270.0
 51
0.0
  0
LINE
  8
0
  6
CONTINUOUS
 62
     1
 10
640.575
 20
102.8
 30
0.0
 11
640.575
 21
101.0
 31
0.0
  0
LINE
  8
0
  6
CONTINUOUS
 62
     1
 10
760.575
 20
91.0
 30
0.0
 11
650.575
 21
91.0
 31
0.0
  0
ARC
  8
0
  6
CONTINUOUS
 62
     1
 10
650.575
 20
101.0
 30
0.0
 40
10.0
 50
180.0
 51
270.0
  0
LINE
  8
0
  6
CONTINUOUS
 62
     1
 10
642.583316012
 20
115.815789474
 30
0.0
 11
644.580544008
 21
153.710526316
 31
0.0
  0
LINE
  8
0
  6
CONTINUOUS
 62
     1
 10
654.566683988
 20
115.815789474
 30
0.0
 11
652.569455992
 21
153.710526316
 31
0.0
  0
ARC
  8
0
  6
CONTINUOUS
 62
     1
 10
648.575
 20
153.5
 30
0.0
 40
4.0
 50
356.983042101
 51
183.016952287
  0
ARC
  8
0
  6
CONTINUOUS
 62
     1
 10
648.575
 20
153.5
 30
0.0
 40
8.75
 50
300.219855722
 51
239.780144278
  0
ARC
  8
0
  6
CONTINUOUS
 62
     1
 10
648.575
 20
115.5
 30
0.0
 40
6.0
 50
176.983045121
 51
3.016954879
  0
LINE
  8
0
  6
CONTINUOUS
 62
     1
 10
653.913978783
 20
128.2
 30
0.0
 11
658.275
 21
128.2
 31
0.0
  0
LINE
  8
0
  6
CONTINUOUS
 62
     1
 10
634.875
 20
128.2
 30
0.0
 11
643.236021217
 21
128.2
 31
0.0
  0
LINE
  8
0
  6
LTYPE3
 62
     2
 10
648.575
 20
106.4
 30
0.0
 11
648.575
 21
163.9
 31
0.0
  0
LINE
  8
0
  6
LTYPE3
 62
     2
 10
639.313978783
 20
115.5
 30
0.0
 11
730.575
 21
115.5
 31
0.0
  0
LINE
  8
0
  6
CONTINUOUS
 62
     1
 10
721.575
 20
157.5
 30
0.0
 11
721.575
 21
189.5
 31
0.0
  0
LINE
  8
0
  6
CONTINUOUS
 62
     1
 10
640.575
 20
149.95563828
 30
0.0
 11
640.575
 21
128.15
 31
0.0
  0
LINE
  8
0
  6
CONTINUOUS
 62
     1
 10
640.575
 20
165.5
 30
0.0
 11
640.575
 21
157.04436172
 31
0.0
  0
LINE
  8
0
  6
CONTINUOUS
 62
     1
 10
770.575
 20
197.04436172
 30
0.0
 11
770.575
 21
218.85
 31
0.0
  0
LINE
  8
0
  6
CONTINUOUS
 62
     1
 10
770.575
 20
181.5
 30
0.0
 11
770.575
 21
189.95563828
 31
0.0
  0
LINE
  8
0
  6
CONTINUOUS
 62
     1
 10
624.195942983
 20
165.5
 30
0.0
 11
689.575
 21
165.5
 31
0.0
  0
LINE
  8
0
  6
CONTINUOUS
 62
     1
 10
689.575
 20
181.5
 30
0.0
 11
624.265577963
 21
181.5
 31
0.0
  0
ARC
  8
0
  6
CONTINUOUS
 62
     1
 10
629.820468578
 20
177.5
 30
0.0
 40
6.845203412
 50
144.242860688
 51
215.757139312
  0
ARC
  8
0
  6
CONTINUOUS
 62
     1
 10
618.710687347
 20
177.5
 30
0.0
 40
6.845203412
 50
324.242860688
 51
35.757139312
  0
ARC
  8
0
  6
CONTINUOUS
 62
     1
 10
618.710687347
 20
169.5
 30
0.0
 40
6.845203412
 50
324.242860688
 51
35.757139312
  0
LINE
  8
7
  6
CONTINUOUS
 62
     2
 10
726.975
 20
115.5
 30
0.0
 11
735.342307585
 21
120.976144975
 31
0.0
  0
LINE
  8
7
  6
CONTINUOUS
 62
     2
 10
726.975
 20
115.5
 30
0.0
 11
731.483228442
 21
124.426134455
 31
0.0
  0
LINE
  8
7
  6
CONTINUOUS
 62
     2
 10
726.975
 20
115.5
 30
0.0
 11
739.625
 21
129.65
 31
0.0
  0
LINE
  8
7
  6
CONTINUOUS
 62
     2
 10
672.975
 20
218.7
 30
0.0
 11
614.175
 21
218.7
 31
0.0
  0
LINE
  8
0
  6
CONTINUOUS
 62
     1
 10
640.575
 20
181.5
 30
0.0
 11
640.575
 21
215.7
 31
0.0
  0
LINE
  8
0
  6
CONTINUOUS
 62
     1
 10
770.575
 20
126.7
 30
0.0
 11
770.575
 21
101.0
 31
0.0
  0
LINE
  8
0
  6
LTYPE3
 62
     2
 10
695.075
 20
216.4
 30
0.0
 11
684.175
 21
216.4
 31
0.0
  0
LINE
  8
0
  6
CONTINUOUS
 62
     1
 10
750.875
 20
211.5
 30
0.0
 11
686.175
 21
211.5
 31
0.0
  0
ARC
  8
0
  6
CONTINUOUS
 62
     1
 10
686.175
 20
213.5
 30
0.0
 40
2.0
 50
180.0
 51
270.0
  0
LINE
  8
0
  6
LTYPE3
 62
     2
 10
752.875
 20
216.4
 30
0.0
 11
743.075
 21
216.4
 31
0.0
  0
ARC
  8
0
  6
CONTINUOUS
 62
     1
 10
750.875
 20
213.5
 30
0.0
 40
2.0
 50
270.0
 51
0.0
  0
LINE
  8
0
  6
CONTINUOUS
 62
     1
 10
757.236021217
 20
218.8
 30
0.0
 11
752.875
 21
218.8
 31
0.0
  0
ARC
  8
0
  6
CONTINUOUS
 62
     1
 10
762.575
 20
193.5
 30
0.0
 40
4.0
 50
176.983042101
 51
3.016952287
  0
LINE
  8
0
  6
CONTINUOUS
 62
     2
 10
576.575
 20
91.0
 30
0.0
 11
579.163190451
 21
100.659258263
 31
0.0
  0
LINE
  8
0
  6
CONTINUOUS
 62
     2
 10
576.575
 20
91.0
 30
0.0
 11
573.986809549
 21
100.659258263
 31
0.0
  0
LINE
  8
0
  6
CONTINUOUS
 62
     2
 10
645.575
 20
91.0
 30
0.0
 11
571.575
 21
91.0
 31
0.0
  0
TEXT
  8
0
  6
CONTINUOUS
 62
     3
 10
571.575
 20
153.25
 30
0.0
 40
15.0
  1
１６５
 50
90.0
 41
0.9
 51
0.0
  7
KANJI30
  0
LINE
  8
0
  6
CONTINUOUS
 62
     2
 10
640.575
 20
97.8
 30
0.0
 11
640.575
 21
52.5
 31
0.0
  0
LINE
  8
0
  6
CONTINUOUS
 62
     2
 10
640.575
 20
57.5
 30
0.0
 11
650.234258263
 21
54.911809549
 31
0.0
  0
LINE
  8
0
  6
CONTINUOUS
 62
     2
 10
640.575
 20
57.5
 30
0.0
 11
650.234258263
 21
60.088190451
 31
0.0
  0
LINE
  8
0
  6
CONTINUOUS
 62
     2
 10
640.575
 20
57.5
 30
0.0
 11
770.575
 21
57.5
 31
0.0
  0
LINE
  8
0
  6
CONTINUOUS
 62
     2
 10
770.575
 20
57.5
 30
0.0
 11
760.915741737
 21
60.088190451
 31
0.0
  0
LINE
  8
0
  6
CONTINUOUS
 62
     2
 10
770.575
 20
57.5
 30
0.0
 11
760.915741737
 21
54.911809549
 31
0.0
  0
LINE
  8
0
  6
CONTINUOUS
 62
     2
 10
770.575
 20
96.000007629
 30
0.0
 11
770.575
 21
52.5
 31
0.0
  0
TEXT
  8
0
  6
CONTINUOUS
 62
     3
 10
685.325
 20
62.5
 30
0.0
 40
15.0
  1
１３０
 50
0.0
 41
0.9
 51
0.0
  7
KANJI30
  0
LINE
  8
7
  6
CONTINUOUS
 62
     2
 10
880.575
 20
543.4
 30
0.0
 11
880.575
 21
317.4
 31
0.0
  0
LINE
  8
7
  6
CONTINUOUS
 62
     2
 10
898.575
 20
569.4
 30
0.0
 11
898.575
 21
317.4
 31
0.0
  0
LINE
  8
7
  6
CONTINUOUS
 62
     2
 10
898.575
 20
323.4
 30
0.0
 11
908.234258263
 21
320.811809549
 31
0.0
  0
LINE
  8
7
  6
CONTINUOUS
 62
     2
 10
898.575
 20
323.4
 30
0.0
 11
908.234258263
 21
325.988190451
 31
0.0
  0
LINE
  8
7
  6
CONTINUOUS
 62
     2
 10
880.575
 20
323.4
 30
0.0
 11
936.375
 21
323.4
 31
0.0
  0
LINE
  8
7
  6
CONTINUOUS
 62
     2
 10
880.575
 20
329.4
 30
0.0
 11
880.575
 21
329.4
 31
0.0
  0
LINE
  8
7
  6
CONTINUOUS
 62
     2
 10
880.575
 20
323.4
 30
0.0
 11
870.915741737
 21
325.988190451
 31
0.0
  0
LINE
  8
7
  6
CONTINUOUS
 62
     2
 10
880.575
 20
323.4
 30
0.0
 11
870.915741737
 21
320.811809549
 31
0.0
  0
TEXT
  8
7
  6
CONTINUOUS
 62
     2
 10
913.575
 20
327.4
 30
0.0
 40
15.0
  1
１８
 50
0.0
 41
0.9
 51
0.0
  7
KANJI30
  0
ARC
  8
0
  6
CONTINUOUS
 62
     1
 10
843.829531422
 20
177.5
 30
0.0
 40
6.845203412
 50
324.242860688
 51
35.757139312
  0
ARC
  8
0
  6
CONTINUOUS
 62
     1
 10
854.939312653
 20
177.5
 30
0.0
 40
6.845203412
 50
144.242860688
 51
215.757139312
  0
ARC
  8
0
  6
CONTINUOUS
 62
     1
 10
854.939312653
 20
169.5
 30
0.0
 40
6.845203412
 50
144.242860688
 51
215.757139312
  0
LINE
  8
0
  6
CONTINUOUS
 62
     1
 10
940.875
 20
216.0
 30
0.0
 11
940.875
 21
151.3
 31
0.0
  0
LINE
  8
0
  6
CONTINUOUS
 62
     1
 10
942.875
 20
149.3
 30
0.0
 11
978.875
 21
149.3
 31
0.0
  0
ARC
  8
0
  6
CONTINUOUS
 62
     1
 10
942.875
 20
151.3
 30
0.0
 40
2.0
 50
180.0
 51
270.0
  0
LINE
  8
0
  6
CONTINUOUS
 62
     1
 10
980.875
 20
216.0
 30
0.0
 11
980.875
 21
151.3
 31
0.0
  0
ARC
  8
0
  6
CONTINUOUS
 62
     1
 10
978.875
 20
151.3
 30
0.0
 40
2.0
 50
270.0
 51
0.0
  0
ARC
  8
0
  6
CONTINUOUS
 62
     1
 10
942.875
 20
216.0
 30
0.0
 40
2.0
 50
90.0
 51
180.0
  0
LINE
  8
0
  6
CONTINUOUS
 62
     1
 10
948.175
 20
241.4
 30
0.0
 11
948.175
 21
218.0
 31
0.0
  0
LINE
  8
0
  6
CONTINUOUS
 62
     1
 10
942.875
 20
218.0
 30
0.0
 11
978.875
 21
218.0
 31
0.0
  0
ARC
  8
0
  6
CONTINUOUS
 62
     1
 10
978.875
 20
216.0
 30
0.0
 40
2.0
 50
0.0
 51
90.0
  0
ARC
  8
0
  6
CONTINUOUS
 62
     1
 10
950.175
 20
241.4
 30
0.0
 40
2.0
 50
90.0
 51
180.0
  0
ARC
  8
0
  6
CONTINUOUS
 62
     1
 10
960.875
 20
227.7
 30
0.0
 40
6.0
 50
131.983045121
 51
318.016954879
  0
LINE
  8
0
  6
LTYPE3
 62
     2
 10
954.440328291
 20
221.265328291
 30
0.0
 11
995.098968209
 21
261.923968209
 31
0.0
  0
LINE
  8
0
  6
CONTINUOUS
 62
     1
 10
956.8615365
 20
232.160057257
 30
0.0
 11
985.069415352
 21
257.54342919
 31
0.0
  0
LINE
  8
0
  6
CONTINUOUS
 62
     1
 10
965.335057257
 20
223.6865365
 30
0.0
 11
990.71842919
 21
251.894415352
 31
0.0
  0
LINE
  8
0
  6
LTYPE3
 62
     2
 10
995.523232278
 20
246.791883092
 30
0.0
 11
979.259776311
 21
263.055339059
 31
0.0
  0
ARC
  8
0
  6
CONTINUOUS
 62
     1
 10
987.745057685
 20
254.570057685
 30
0.0
 40
8.75
 50
255.219855722
 51
194.780144278
  0
ARC
  8
0
  6
CONTINUOUS
 62
     1
 10
987.745057685
 20
254.570057685
 30
0.0
 40
4.0
 50
311.983042101
 51
138.016952287
  0
LINE
  8
0
  6
CONTINUOUS
 62
     1
 10
973.575
 20
232.84336985
 30
0.0
 11
973.575
 21
218.0
 31
0.0
  0
LINE
  8
0
  6
CONTINUOUS
 62
     1
 10
950.175
 20
243.4
 30
0.0
 11
969.352191565
 21
243.4
 31
0.0
  0
LINE
  8
0
  6
LTYPE2
 62
     2
 10
946.0
 20
194.5
 30
0.0
 11
976.0
 21
194.5
 31
0.0
  0
LINE
  8
0
  6
LTYPE2
 62
     2
 10
976.0
 20
194.5
 30
0.0
 11
976.0
 21
204.0
 31
0.0
  0
LINE
  8
0
  6
LTYPE2
 62
     2
 10
976.0
 20
204.0
 30
0.0
 11
946.0
 21
204.0
 31
0.0
  0
LINE
  8
0
  6
LTYPE2
 62
     2
 10
946.0
 20
204.0
 30
0.0
 11
946.0
 21
194.5
 31
0.0
  0
LINE
  8
0
  6
CONTINUOUS
 62
     1
 10
946.0
 20
164.5
 30
0.0
 11
976.0
 21
164.5
 31
0.0
  0
LINE
  8
0
  6
CONTINUOUS
 62
     1
 10
976.0
 20
164.5
 30
0.0
 11
976.0
 21
174.0
 31
0.0
  0
LINE
  8
0
  6
CONTINUOUS
 62
     1
 10
976.0
 20
174.0
 30
0.0
 11
946.0
 21
174.0
 31
0.0
  0
LINE
  8
0
  6
CONTINUOUS
 62
     1
 10
946.0
 20
174.0
 30
0.0
 11
946.0
 21
164.5
 31
0.0
  0
TEXT
  8
0
  6
CONTINUOUS
 62
     2
 10
944.775
 20
207.3
 30
0.0
 40
10.0
  1
４
 50
0.0
 41
0.85
 51
0.0
  7
KANJI44
  0
TEXT
  8
0
  6
CONTINUOUS
 62
     2
 10
969.775
 20
207.3
 30
0.0
 40
10.0
  1
３
 50
0.0
 41
0.85
 51
0.0
  7
KANJI44
  0
POLYLINE
  8
0
  6
CONTINUOUS
 62
     2
 66
     1
 70
     1
  0
VERTEX
  8
0
  6
CONTINUOUS
 62
     2
 10
955.775
 20
206.55
 30
0.0
 42
0.021820078
  0
VERTEX
  8
0
  6
CONTINUOUS
 62
     2
 10
955.766438071
 20
206.746100421
 30
0.0
 42
0.021820078
  0
VERTEX
  8
0
  6
CONTINUOUS
 62
     2
 10
955.740817444
 20
206.9407084
 30
0.0
 42
0.021820078
  0
VERTEX
  8
0
  6
CONTINUOUS
 62
     2
 10
955.698333109
 20
207.132342851
 30
0.0
 42
0.021820078
  0
VERTEX
  8
0
  6
CONTINUOUS
 62
     2
 10
955.639308397
 20
207.319545322
 30
0.0
 42
0.021820078
  0
VERTEX
  8
0
  6
CONTINUOUS
 62
     2
 10
955.564192521
 20
207.500891089
 30
0.0
 42
0.021820078
  0
VERTEX
  8
0
  6
CONTINUOUS
 62
     2
 10
955.473557159
 20
207.675
 30
0.0
 42
0.021820078
  0
VERTEX
  8
0
  6
CONTINUOUS
 62
     2
 10
955.3680921
 20
207.840546982
 30
0.0
 42
0.021820078
  0
VERTEX
  8
0
  6
CONTINUOUS
 62
     2
 10
955.248599997
 20
207.996272122
 30
0.0
 42
0.021820078
  0
VERTEX
  8
0
  6
CONTINUOUS
 62
     2
 10
955.115990258
 20
208.140990258
 30
0.0
 42
0.021820078
  0
VERTEX
  8
0
  6
CONTINUOUS
 62
     2
 10
954.971272122
 20
208.273599997
 30
0.0
 42
0.021820078
  0
VERTEX
  8
0
  6
CONTINUOUS
 62
     2
 10
954.815546982
 20
208.3930921
 30
0.0
 42
0.021820078
  0
VERTEX
  8
0
  6
CONTINUOUS
 62
     2
 10
954.65
 20
208.498557159
 30
0.0
 42
0.021820078
  0
VERTEX
  8
0
  6
CONTINUOUS
 62
     2
 10
954.475891089
 20
208.589192521
 30
0.0
 42
0.021820078
  0
VERTEX
  8
0
  6
CONTINUOUS
 62
     2
 10
954.294545322
 20
208.664308397
 30
0.0
 42
0.021820078
  0
VERTEX
  8
0
  6
CONTINUOUS
 62
     2
 10
954.107342851
 20
208.723333109
 30
0.0
 42
0.021820078
  0
VERTEX
  8
0
  6
CONTINUOUS
 62
     2
 10
953.9157084
 20
208.765817444
 30
0.0
 42
0.021820078
  0
VERTEX
  8
0
  6
CONTINUOUS
 62
     2
 10
953.721100421
 20
208.791438071
 30
0.0
 42
0.021820078
  0
VERTEX
  8
0
  6
CONTINUOUS
 62
     2
 10
953.525
 20
208.8
 30
0.0
 42
0.021820078
  0
VERTEX
  8
0
  6
CONTINUOUS
 62
     2
 10
953.328899579
 20
208.791438071
 30
0.0
 42
0.021820078
  0
VERTEX
  8
0
  6
CONTINUOUS
 62
     2
 10
953.1342916
 20
208.765817444
 30
0.0
 42
0.021820078
  0
VERTEX
  8
0
  6
CONTINUOUS
 62
     2
 10
952.942657149
 20
208.723333109
 30
0.0
 42
0.021820078
  0
VERTEX
  8
0
  6
CONTINUOUS
 62
     2
 10
952.755454678
 20
208.664308397
 30
0.0
 42
0.021820078
  0
VERTEX
  8
0
  6
CONTINUOUS
 62
     2
 10
952.574108911
 20
208.589192521
 30
0.0
 42
0.021820078
  0
VERTEX
  8
0
  6
CONTINUOUS
 62
     2
 10
952.4
 20
208.498557159
 30
0.0
 42
0.021820078
  0
VERTEX
  8
0
  6
CONTINUOUS
 62
     2
 10
952.234453018
 20
208.3930921
 30
0.0
 42
0.021820078
  0
VERTEX
  8
0
  6
CONTINUOUS
 62
     2
 10
952.078727878
 20
208.273599997
 30
0.0
 42
0.021820078
  0
VERTEX
  8
0
  6
CONTINUOUS
 62
     2
 10
951.934009742
 20
208.140990258
 30
0.0
 42
0.021820078
  0
VERTEX
  8
0
  6
CONTINUOUS
 62
     2
 10
951.801400003
 20
207.996272122
 30
0.0
 42
0.021820078
  0
VERTEX
  8
0
  6
CONTINUOUS
 62
     2
 10
951.6819079
 20
207.840546982
 30
0.0
 42
0.021820078
  0
VERTEX
  8
0
  6
CONTINUOUS
 62
     2
 10
951.576442841
 20
207.675
 30
0.0
 42
0.021820078
  0
VERTEX
  8
0
  6
CONTINUOUS
 62
     2
 10
951.485807479
 20
207.500891089
 30
0.0
 42
0.021820078
  0
VERTEX
  8
0
  6
CONTINUOUS
 62
     2
 10
951.410691603
 20
207.319545322
 30
0.0
 42
0.021820078
  0
VERTEX
  8
0
  6
CONTINUOUS
 62
     2
 10
951.351666891
 20
207.132342851
 30
0.0
 42
0.021820078
  0
VERTEX
  8
0
  6
CONTINUOUS
 62
     2
 10
951.309182556
 20
206.9407084
 30
0.0
 42
0.021820078
  0
VERTEX
  8
0
  6
CONTINUOUS
 62
     2
 10
951.283561929
 20
206.746100421
 30
0.0
 42
0.021820078
  0
VERTEX
  8
0
  6
CONTINUOUS
 62
     2
 10
951.275
 20
206.55
 30
0.0
 42
0.021820078
  0
VERTEX
  8
0
  6
CONTINUOUS
 62
     2
 10
951.283561929
 20
206.353899579
 30
0.0
 42
0.021820078
  0
VERTEX
  8
0
  6
CONTINUOUS
 62
     2
 10
951.309182556
 20
206.1592916
 30
0.0
 42
0.021820078
  0
VERTEX
  8
0
  6
CONTINUOUS
 62
     2
 10
951.351666891
 20
205.967657149
 30
0.0
 42
0.021820078
  0
VERTEX
  8
0
  6
CONTINUOUS
 62
     2
 10
951.410691603
 20
205.780454678
 30
0.0
 42
0.021820078
  0
VERTEX
  8
0
  6
CONTINUOUS
 62
     2
 10
951.485807479
 20
205.599108911
 30
0.0
 42
0.021820078
  0
VERTEX
  8
0
  6
CONTINUOUS
 62
     2
 10
951.576442841
 20
205.425
 30
0.0
 42
0.021820078
  0
VERTEX
  8
0
  6
CONTINUOUS
 62
     2
 10
951.6819079
 20
205.259453018
 30
0.0
 42
0.021820078
  0
VERTEX
  8
0
  6
CONTINUOUS
 62
     2
 10
951.801400003
 20
205.103727878
 30
0.0
 42
0.021820078
  0
VERTEX
  8
0
  6
CONTINUOUS
 62
     2
 10
951.934009742
 20
204.959009742
 30
0.0
 42
0.021820078
  0
VERTEX
  8
0
  6
CONTINUOUS
 62
     2
 10
952.078727878
 20
204.826400003
 30
0.0
 42
0.021820078
  0
VERTEX
  8
0
  6
CONTINUOUS
 62
     2
 10
952.234453018
 20
204.7069079
 30
0.0
 42
0.021820078
  0
VERTEX
  8
0
  6
CONTINUOUS
 62
     2
 10
952.4
 20
204.601442841
 30
0.0
 42
0.021820078
  0
VERTEX
  8
0
  6
CONTINUOUS
 62
     2
 10
952.574108911
 20
204.510807479
 30
0.0
 42
0.021820078
  0
VERTEX
  8
0
  6
CONTINUOUS
 62
     2
 10
952.755454678
 20
204.435691603
 30
0.0
 42
0.021820078
  0
VERTEX
  8
0
  6
CONTINUOUS
 62
     2
 10
952.942657149
 20
204.376666891
 30
0.0
 42
0.021820078
  0
VERTEX
  8
0
  6
CONTINUOUS
 62
     2
 10
953.1342916
 20
204.334182556
 30
0.0
 42
0.021820078
  0
VERTEX
  8
0
  6
CONTINUOUS
 62
     2
 10
953.328899579
 20
204.308561929
 30
0.0
 42
0.021820078
  0
VERTEX
  8
0
  6
CONTINUOUS
 62
     2
 10
953.525
 20
204.3
 30
0.0
 42
0.021820078
  0
VERTEX
  8
0
  6
CONTINUOUS
 62
     2
 10
953.721100421
 20
204.308561929
 30
0.0
 42
0.021820078
  0
VERTEX
  8
0
  6
CONTINUOUS
 62
     2
 10
953.9157084
 20
204.334182556
 30
0.0
 42
0.021820078
  0
VERTEX
  8
0
  6
CONTINUOUS
 62
     2
 10
954.107342851
 20
204.376666891
 30
0.0
 42
0.021820078
  0
VERTEX
  8
0
  6
CONTINUOUS
 62
     2
 10
954.294545322
 20
204.435691603
 30
0.0
 42
0.021820078
  0
VERTEX
  8
0
  6
CONTINUOUS
 62
     2
 10
954.475891089
 20
204.510807479
 30
0.0
 42
0.021820078
  0
VERTEX
  8
0
  6
CONTINUOUS
 62
     2
 10
954.65
 20
204.601442841
 30
0.0
 42
0.021820078
  0
VERTEX
  8
0
  6
CONTINUOUS
 62
     2
 10
954.815546982
 20
204.7069079
 30
0.0
 42
0.021820078
  0
VERTEX
  8
0
  6
CONTINUOUS
 62
     2
 10
954.971272122
 20
204.826400003
 30
0.0
 42
0.021820078
  0
VERTEX
  8
0
  6
CONTINUOUS
 62
     2
 10
955.115990258
 20
204.959009742
 30
0.0
 42
0.021820078
  0
VERTEX
  8
0
  6
CONTINUOUS
 62
     2
 10
955.248599997
 20
205.103727878
 30
0.0
 42
0.021820078
  0
VERTEX
  8
0
  6
CONTINUOUS
 62
     2
 10
955.3680921
 20
205.259453018
 30
0.0
 42
0.021820078
  0
VERTEX
  8
0
  6
CONTINUOUS
 62
     2
 10
955.473557159
 20
205.425
 30
0.0
 42
0.021820078
  0
VERTEX
  8
0
  6
CONTINUOUS
 62
     2
 10
955.564192521
 20
205.599108911
 30
0.0
 42
0.021820078
  0
VERTEX
  8
0
  6
CONTINUOUS
 62
     2
 10
955.639308397
 20
205.780454678
 30
0.0
 42
0.021820078
  0
VERTEX
  8
0
  6
CONTINUOUS
 62
     2
 10
955.698333109
 20
205.967657149
 30
0.0
 42
0.021820078
  0
VERTEX
  8
0
  6
CONTINUOUS
 62
     2
 10
955.740817444
 20
206.1592916
 30
0.0
 42
0.021820078
  0
VERTEX
  8
0
  6
CONTINUOUS
 62
     2
 10
955.766438071
 20
206.353899579
 30
0.0
 42
0.021820078
  0
SEQEND
  8
0
  6
CONTINUOUS
 62
     2
  0
POLYLINE
  8
0
  6
CONTINUOUS
 62
     2
 66
     1
 70
     1
  0
VERTEX
  8
0
  6
CONTINUOUS
 62
     2
 10
970.775
 20
206.55
 30
0.0
 42
0.021820078
  0
VERTEX
  8
0
  6
CONTINUOUS
 62
     2
 10
970.766438071
 20
206.746100421
 30
0.0
 42
0.021820078
  0
VERTEX
  8
0
  6
CONTINUOUS
 62
     2
 10
970.740817444
 20
206.9407084
 30
0.0
 42
0.021820078
  0
VERTEX
  8
0
  6
CONTINUOUS
 62
     2
 10
970.698333109
 20
207.132342851
 30
0.0
 42
0.021820078
  0
VERTEX
  8
0
  6
CONTINUOUS
 62
     2
 10
970.639308397
 20
207.319545322
 30
0.0
 42
0.021820078
  0
VERTEX
  8
0
  6
CONTINUOUS
 62
     2
 10
970.564192521
 20
207.500891089
 30
0.0
 42
0.021820078
  0
VERTEX
  8
0
  6
CONTINUOUS
 62
     2
 10
970.473557159
 20
207.675
 30
0.0
 42
0.021820078
  0
VERTEX
  8
0
  6
CONTINUOUS
 62
     2
 10
970.3680921
 20
207.840546982
 30
0.0
 42
0.021820078
  0
VERTEX
  8
0
  6
CONTINUOUS
 62
     2
 10
970.248599997
 20
207.996272122
 30
0.0
 42
0.021820078
  0
VERTEX
  8
0
  6
CONTINUOUS
 62
     2
 10
970.115990258
 20
208.140990258
 30
0.0
 42
0.021820078
  0
VERTEX
  8
0
  6
CONTINUOUS
 62
     2
 10
969.971272122
 20
208.273599997
 30
0.0
 42
0.021820078
  0
VERTEX
  8
0
  6
CONTINUOUS
 62
     2
 10
969.815546982
 20
208.3930921
 30
0.0
 42
0.021820078
  0
VERTEX
  8
0
  6
CONTINUOUS
 62
     2
 10
969.65
 20
208.498557159
 30
0.0
 42
0.021820078
  0
VERTEX
  8
0
  6
CONTINUOUS
 62
     2
 10
969.475891089
 20
208.589192521
 30
0.0
 42
0.021820078
  0
VERTEX
  8
0
  6
CONTINUOUS
 62
     2
 10
969.294545322
 20
208.664308397
 30
0.0
 42
0.021820078
  0
VERTEX
  8
0
  6
CONTINUOUS
 62
     2
 10
969.107342851
 20
208.723333109
 30
0.0
 42
0.021820078
  0
VERTEX
  8
0
  6
CONTINUOUS
 62
     2
 10
968.9157084
 20
208.765817444
 30
0.0
 42
0.021820078
  0
VERTEX
  8
0
  6
CONTINUOUS
 62
     2
 10
968.721100421
 20
208.791438071
 30
0.0
 42
0.021820078
  0
VERTEX
  8
0
  6
CONTINUOUS
 62
     2
 10
968.525
 20
208.8
 30
0.0
 42
0.021820078
  0
VERTEX
  8
0
  6
CONTINUOUS
 62
     2
 10
968.328899579
 20
208.791438071
 30
0.0
 42
0.021820078
  0
VERTEX
  8
0
  6
CONTINUOUS
 62
     2
 10
968.1342916
 20
208.765817444
 30
0.0
 42
0.021820078
  0
VERTEX
  8
0
  6
CONTINUOUS
 62
     2
 10
967.942657149
 20
208.723333109
 30
0.0
 42
0.021820078
  0
VERTEX
  8
0
  6
CONTINUOUS
 62
     2
 10
967.755454678
 20
208.664308397
 30
0.0
 42
0.021820078
  0
VERTEX
  8
0
  6
CONTINUOUS
 62
     2
 10
967.574108911
 20
208.589192521
 30
0.0
 42
0.021820078
  0
VERTEX
  8
0
  6
CONTINUOUS
 62
     2
 10
967.4
 20
208.498557159
 30
0.0
 42
0.021820078
  0
VERTEX
  8
0
  6
CONTINUOUS
 62
     2
 10
967.234453018
 20
208.3930921
 30
0.0
 42
0.021820078
  0
VERTEX
  8
0
  6
CONTINUOUS
 62
     2
 10
967.078727878
 20
208.273599997
 30
0.0
 42
0.021820078
  0
VERTEX
  8
0
  6
CONTINUOUS
 62
     2
 10
966.934009742
 20
208.140990258
 30
0.0
 42
0.021820078
  0
VERTEX
  8
0
  6
CONTINUOUS
 62
     2
 10
966.801400003
 20
207.996272122
 30
0.0
 42
0.021820078
  0
VERTEX
  8
0
  6
CONTINUOUS
 62
     2
 10
966.6819079
 20
207.840546982
 30
0.0
 42
0.021820078
  0
VERTEX
  8
0
  6
CONTINUOUS
 62
     2
 10
966.576442841
 20
207.675
 30
0.0
 42
0.021820078
  0
VERTEX
  8
0
  6
CONTINUOUS
 62
     2
 10
966.485807479
 20
207.500891089
 30
0.0
 42
0.021820078
  0
VERTEX
  8
0
  6
CONTINUOUS
 62
     2
 10
966.410691603
 20
207.319545322
 30
0.0
 42
0.021820078
  0
VERTEX
  8
0
  6
CONTINUOUS
 62
     2
 10
966.351666891
 20
207.132342851
 30
0.0
 42
0.021820078
  0
VERTEX
  8
0
  6
CONTINUOUS
 62
     2
 10
966.309182556
 20
206.9407084
 30
0.0
 42
0.021820078
  0
VERTEX
  8
0
  6
CONTINUOUS
 62
     2
 10
966.283561929
 20
206.746100421
 30
0.0
 42
0.021820078
  0
VERTEX
  8
0
  6
CONTINUOUS
 62
     2
 10
966.275
 20
206.55
 30
0.0
 42
0.021820078
  0
VERTEX
  8
0
  6
CONTINUOUS
 62
     2
 10
966.283561929
 20
206.353899579
 30
0.0
 42
0.021820078
  0
VERTEX
  8
0
  6
CONTINUOUS
 62
     2
 10
966.309182556
 20
206.1592916
 30
0.0
 42
0.021820078
  0
VERTEX
  8
0
  6
CONTINUOUS
 62
     2
 10
966.351666891
 20
205.967657149
 30
0.0
 42
0.021820078
  0
VERTEX
  8
0
  6
CONTINUOUS
 62
     2
 10
966.410691603
 20
205.780454678
 30
0.0
 42
0.021820078
  0
VERTEX
  8
0
  6
CONTINUOUS
 62
     2
 10
966.485807479
 20
205.599108911
 30
0.0
 42
0.021820078
  0
VERTEX
  8
0
  6
CONTINUOUS
 62
     2
 10
966.576442841
 20
205.425
 30
0.0
 42
0.021820078
  0
VERTEX
  8
0
  6
CONTINUOUS
 62
     2
 10
966.6819079
 20
205.259453018
 30
0.0
 42
0.021820078
  0
VERTEX
  8
0
  6
CONTINUOUS
 62
     2
 10
966.801400003
 20
205.103727878
 30
0.0
 42
0.021820078
  0
VERTEX
  8
0
  6
CONTINUOUS
 62
     2
 10
966.934009742
 20
204.959009742
 30
0.0
 42
0.021820078
  0
VERTEX
  8
0
  6
CONTINUOUS
 62
     2
 10
967.078727878
 20
204.826400003
 30
0.0
 42
0.021820078
  0
VERTEX
  8
0
  6
CONTINUOUS
 62
     2
 10
967.234453018
 20
204.7069079
 30
0.0
 42
0.021820078
  0
VERTEX
  8
0
  6
CONTINUOUS
 62
     2
 10
967.4
 20
204.601442841
 30
0.0
 42
0.021820078
  0
VERTEX
  8
0
  6
CONTINUOUS
 62
     2
 10
967.574108911
 20
204.510807479
 30
0.0
 42
0.021820078
  0
VERTEX
  8
0
  6
CONTINUOUS
 62
     2
 10
967.755454678
 20
204.435691603
 30
0.0
 42
0.021820078
  0
VERTEX
  8
0
  6
CONTINUOUS
 62
     2
 10
967.942657149
 20
204.376666891
 30
0.0
 42
0.021820078
  0
VERTEX
  8
0
  6
CONTINUOUS
 62
     2
 10
968.1342916
 20
204.334182556
 30
0.0
 42
0.021820078
  0
VERTEX
  8
0
  6
CONTINUOUS
 62
     2
 10
968.328899579
 20
204.308561929
 30
0.0
 42
0.021820078
  0
VERTEX
  8
0
  6
CONTINUOUS
 62
     2
 10
968.525
 20
204.3
 30
0.0
 42
0.021820078
  0
VERTEX
  8
0
  6
CONTINUOUS
 62
     2
 10
968.721100421
 20
204.308561929
 30
0.0
 42
0.021820078
  0
VERTEX
  8
0
  6
CONTINUOUS
 62
     2
 10
968.9157084
 20
204.334182556
 30
0.0
 42
0.021820078
  0
VERTEX
  8
0
  6
CONTINUOUS
 62
     2
 10
969.107342851
 20
204.376666891
 30
0.0
 42
0.021820078
  0
VERTEX
  8
0
  6
CONTINUOUS
 62
     2
 10
969.294545322
 20
204.435691603
 30
0.0
 42
0.021820078
  0
VERTEX
  8
0
  6
CONTINUOUS
 62
     2
 10
969.475891089
 20
204.510807479
 30
0.0
 42
0.021820078
  0
VERTEX
  8
0
  6
CONTINUOUS
 62
     2
 10
969.65
 20
204.601442841
 30
0.0
 42
0.021820078
  0
VERTEX
  8
0
  6
CONTINUOUS
 62
     2
 10
969.815546982
 20
204.7069079
 30
0.0
 42
0.021820078
  0
VERTEX
  8
0
  6
CONTINUOUS
 62
     2
 10
969.971272122
 20
204.826400003
 30
0.0
 42
0.021820078
  0
VERTEX
  8
0
  6
CONTINUOUS
 62
     2
 10
970.115990258
 20
204.959009742
 30
0.0
 42
0.021820078
  0
VERTEX
  8
0
  6
CONTINUOUS
 62
     2
 10
970.248599997
 20
205.103727878
 30
0.0
 42
0.021820078
  0
VERTEX
  8
0
  6
CONTINUOUS
 62
     2
 10
970.3680921
 20
205.259453018
 30
0.0
 42
0.021820078
  0
VERTEX
  8
0
  6
CONTINUOUS
 62
     2
 10
970.473557159
 20
205.425
 30
0.0
 42
0.021820078
  0
VERTEX
  8
0
  6
CONTINUOUS
 62
     2
 10
970.564192521
 20
205.599108911
 30
0.0
 42
0.021820078
  0
VERTEX
  8
0
  6
CONTINUOUS
 62
     2
 10
970.639308397
 20
205.780454678
 30
0.0
 42
0.021820078
  0
VERTEX
  8
0
  6
CONTINUOUS
 62
     2
 10
970.698333109
 20
205.967657149
 30
0.0
 42
0.021820078
  0
VERTEX
  8
0
  6
CONTINUOUS
 62
     2
 10
970.740817444
 20
206.1592916
 30
0.0
 42
0.021820078
  0
VERTEX
  8
0
  6
CONTINUOUS
 62
     2
 10
970.766438071
 20
206.353899579
 30
0.0
 42
0.021820078
  0
SEQEND
  8
0
  6
CONTINUOUS
 62
     2
  0
POLYLINE
  8
0
  6
CONTINUOUS
 62
     2
 66
     1
 70
     1
  0
VERTEX
  8
0
  6
CONTINUOUS
 62
     2
 10
955.775
 20
162.2
 30
0.0
 42
-0.021820078
  0
VERTEX
  8
0
  6
CONTINUOUS
 62
     2
 10
955.766438071
 20
162.003899579
 30
0.0
 42
-0.021820078
  0
VERTEX
  8
0
  6
CONTINUOUS
 62
     2
 10
955.740817444
 20
161.8092916
 30
0.0
 42
-0.021820078
  0
VERTEX
  8
0
  6
CONTINUOUS
 62
     2
 10
955.698333109
 20
161.617657149
 30
0.0
 42
-0.021820078
  0
VERTEX
  8
0
  6
CONTINUOUS
 62
     2
 10
955.639308397
 20
161.430454678
 30
0.0
 42
-0.021820078
  0
VERTEX
  8
0
  6
CONTINUOUS
 62
     2
 10
955.564192521
 20
161.249108911
 30
0.0
 42
-0.021820078
  0
VERTEX
  8
0
  6
CONTINUOUS
 62
     2
 10
955.473557159
 20
161.075
 30
0.0
 42
-0.021820078
  0
VERTEX
  8
0
  6
CONTINUOUS
 62
     2
 10
955.3680921
 20
160.909453018
 30
0.0
 42
-0.021820078
  0
VERTEX
  8
0
  6
CONTINUOUS
 62
     2
 10
955.248599997
 20
160.753727878
 30
0.0
 42
-0.021820078
  0
VERTEX
  8
0
  6
CONTINUOUS
 62
     2
 10
955.115990258
 20
160.609009742
 30
0.0
 42
-0.021820078
  0
VERTEX
  8
0
  6
CONTINUOUS
 62
     2
 10
954.971272122
 20
160.476400003
 30
0.0
 42
-0.021820078
  0
VERTEX
  8
0
  6
CONTINUOUS
 62
     2
 10
954.815546982
 20
160.3569079
 30
0.0
 42
-0.021820078
  0
VERTEX
  8
0
  6
CONTINUOUS
 62
     2
 10
954.65
 20
160.251442841
 30
0.0
 42
-0.021820078
  0
VERTEX
  8
0
  6
CONTINUOUS
 62
     2
 10
954.475891089
 20
160.160807479
 30
0.0
 42
-0.021820078
  0
VERTEX
  8
0
  6
CONTINUOUS
 62
     2
 10
954.294545322
 20
160.085691603
 30
0.0
 42
-0.021820078
  0
VERTEX
  8
0
  6
CONTINUOUS
 62
     2
 10
954.107342851
 20
160.026666891
 30
0.0
 42
-0.021820078
  0
VERTEX
  8
0
  6
CONTINUOUS
 62
     2
 10
953.9157084
 20
159.984182556
 30
0.0
 42
-0.021820078
  0
VERTEX
  8
0
  6
CONTINUOUS
 62
     2
 10
953.721100421
 20
159.958561929
 30
0.0
 42
-0.021820078
  0
VERTEX
  8
0
  6
CONTINUOUS
 62
     2
 10
953.525
 20
159.95
 30
0.0
 42
-0.021820078
  0
VERTEX
  8
0
  6
CONTINUOUS
 62
     2
 10
953.328899579
 20
159.958561929
 30
0.0
 42
-0.021820078
  0
VERTEX
  8
0
  6
CONTINUOUS
 62
     2
 10
953.1342916
 20
159.984182556
 30
0.0
 42
-0.021820078
  0
VERTEX
  8
0
  6
CONTINUOUS
 62
     2
 10
952.942657149
 20
160.026666891
 30
0.0
 42
-0.021820078
  0
VERTEX
  8
0
  6
CONTINUOUS
 62
     2
 10
952.755454678
 20
160.085691603
 30
0.0
 42
-0.021820078
  0
VERTEX
  8
0
  6
CONTINUOUS
 62
     2
 10
952.574108911
 20
160.160807479
 30
0.0
 42
-0.021820078
  0
VERTEX
  8
0
  6
CONTINUOUS
 62
     2
 10
952.4
 20
160.251442841
 30
0.0
 42
-0.021820078
  0
VERTEX
  8
0
  6
CONTINUOUS
 62
     2
 10
952.234453018
 20
160.3569079
 30
0.0
 42
-0.021820078
  0
VERTEX
  8
0
  6
CONTINUOUS
 62
     2
 10
952.078727878
 20
160.476400003
 30
0.0
 42
-0.021820078
  0
VERTEX
  8
0
  6
CONTINUOUS
 62
     2
 10
951.934009742
 20
160.609009742
 30
0.0
 42
-0.021820078
  0
VERTEX
  8
0
  6
CONTINUOUS
 62
     2
 10
951.801400003
 20
160.753727878
 30
0.0
 42
-0.021820078
  0
VERTEX
  8
0
  6
CONTINUOUS
 62
     2
 10
951.6819079
 20
160.909453018
 30
0.0
 42
-0.021820078
  0
VERTEX
  8
0
  6
CONTINUOUS
 62
     2
 10
951.576442841
 20
161.075
 30
0.0
 42
-0.021820078
  0
VERTEX
  8
0
  6
CONTINUOUS
 62
     2
 10
951.485807479
 20
161.249108911
 30
0.0
 42
-0.021820078
  0
VERTEX
  8
0
  6
CONTINUOUS
 62
     2
 10
951.410691603
 20
161.430454678
 30
0.0
 42
-0.021820078
  0
VERTEX
  8
0
  6
CONTINUOUS
 62
     2
 10
951.351666891
 20
161.617657149
 30
0.0
 42
-0.021820078
  0
VERTEX
  8
0
  6
CONTINUOUS
 62
     2
 10
951.309182556
 20
161.8092916
 30
0.0
 42
-0.021820078
  0
VERTEX
  8
0
  6
CONTINUOUS
 62
     2
 10
951.283561929
 20
162.003899579
 30
0.0
 42
-0.021820078
  0
VERTEX
  8
0
  6
CONTINUOUS
 62
     2
 10
951.275
 20
162.2
 30
0.0
 42
-0.021820078
  0
VERTEX
  8
0
  6
CONTINUOUS
 62
     2
 10
951.283561929
 20
162.396100421
 30
0.0
 42
-0.021820078
  0
VERTEX
  8
0
  6
CONTINUOUS
 62
     2
 10
951.309182556
 20
162.5907084
 30
0.0
 42
-0.021820078
  0
VERTEX
  8
0
  6
CONTINUOUS
 62
     2
 10
951.351666891
 20
162.782342851
 30
0.0
 42
-0.021820078
  0
VERTEX
  8
0
  6
CONTINUOUS
 62
     2
 10
951.410691603
 20
162.969545322
 30
0.0
 42
-0.021820078
  0
VERTEX
  8
0
  6
CONTINUOUS
 62
     2
 10
951.485807479
 20
163.150891089
 30
0.0
 42
-0.021820078
  0
VERTEX
  8
0
  6
CONTINUOUS
 62
     2
 10
951.576442841
 20
163.325
 30
0.0
 42
-0.021820078
  0
VERTEX
  8
0
  6
CONTINUOUS
 62
     2
 10
951.6819079
 20
163.490546982
 30
0.0
 42
-0.021820078
  0
VERTEX
  8
0
  6
CONTINUOUS
 62
     2
 10
951.801400003
 20
163.646272122
 30
0.0
 42
-0.021820078
  0
VERTEX
  8
0
  6
CONTINUOUS
 62
     2
 10
951.934009742
 20
163.790990258
 30
0.0
 42
-0.021820078
  0
VERTEX
  8
0
  6
CONTINUOUS
 62
     2
 10
952.078727878
 20
163.923599997
 30
0.0
 42
-0.021820078
  0
VERTEX
  8
0
  6
CONTINUOUS
 62
     2
 10
952.234453018
 20
164.0430921
 30
0.0
 42
-0.021820078
  0
VERTEX
  8
0
  6
CONTINUOUS
 62
     2
 10
952.4
 20
164.148557159
 30
0.0
 42
-0.021820078
  0
VERTEX
  8
0
  6
CONTINUOUS
 62
     2
 10
952.574108911
 20
164.239192521
 30
0.0
 42
-0.021820078
  0
VERTEX
  8
0
  6
CONTINUOUS
 62
     2
 10
952.755454678
 20
164.314308397
 30
0.0
 42
-0.021820078
  0
VERTEX
  8
0
  6
CONTINUOUS
 62
     2
 10
952.942657149
 20
164.373333109
 30
0.0
 42
-0.021820078
  0
VERTEX
  8
0
  6
CONTINUOUS
 62
     2
 10
953.1342916
 20
164.415817444
 30
0.0
 42
-0.021820078
  0
VERTEX
  8
0
  6
CONTINUOUS
 62
     2
 10
953.328899579
 20
164.441438071
 30
0.0
 42
-0.021820078
  0
VERTEX
  8
0
  6
CONTINUOUS
 62
     2
 10
953.525
 20
164.45
 30
0.0
 42
-0.021820078
  0
VERTEX
  8
0
  6
CONTINUOUS
 62
     2
 10
953.721100421
 20
164.441438071
 30
0.0
 42
-0.021820078
  0
VERTEX
  8
0
  6
CONTINUOUS
 62
     2
 10
953.9157084
 20
164.415817444
 30
0.0
 42
-0.021820078
  0
VERTEX
  8
0
  6
CONTINUOUS
 62
     2
 10
954.107342851
 20
164.373333109
 30
0.0
 42
-0.021820078
  0
VERTEX
  8
0
  6
CONTINUOUS
 62
     2
 10
954.294545322
 20
164.314308397
 30
0.0
 42
-0.021820078
  0
VERTEX
  8
0
  6
CONTINUOUS
 62
     2
 10
954.475891089
 20
164.239192521
 30
0.0
 42
-0.021820078
  0
VERTEX
  8
0
  6
CONTINUOUS
 62
     2
 10
954.65
 20
164.148557159
 30
0.0
 42
-0.021820078
  0
VERTEX
  8
0
  6
CONTINUOUS
 62
     2
 10
954.815546982
 20
164.0430921
 30
0.0
 42
-0.021820078
  0
VERTEX
  8
0
  6
CONTINUOUS
 62
     2
 10
954.971272122
 20
163.923599997
 30
0.0
 42
-0.021820078
  0
VERTEX
  8
0
  6
CONTINUOUS
 62
     2
 10
955.115990258
 20
163.790990258
 30
0.0
 42
-0.021820078
  0
VERTEX
  8
0
  6
CONTINUOUS
 62
     2
 10
955.248599997
 20
163.646272122
 30
0.0
 42
-0.021820078
  0
VERTEX
  8
0
  6
CONTINUOUS
 62
     2
 10
955.3680921
 20
163.490546982
 30
0.0
 42
-0.021820078
  0
VERTEX
  8
0
  6
CONTINUOUS
 62
     2
 10
955.473557159
 20
163.325
 30
0.0
 42
-0.021820078
  0
VERTEX
  8
0
  6
CONTINUOUS
 62
     2
 10
955.564192521
 20
163.150891089
 30
0.0
 42
-0.021820078
  0
VERTEX
  8
0
  6
CONTINUOUS
 62
     2
 10
955.639308397
 20
162.969545322
 30
0.0
 42
-0.021820078
  0
VERTEX
  8
0
  6
CONTINUOUS
 62
     2
 10
955.698333109
 20
162.782342851
 30
0.0
 42
-0.021820078
  0
VERTEX
  8
0
  6
CONTINUOUS
 62
     2
 10
955.740817444
 20
162.5907084
 30
0.0
 42
-0.021820078
  0
VERTEX
  8
0
  6
CONTINUOUS
 62
     2
 10
955.766438071
 20
162.396100421
 30
0.0
 42
-0.021820078
  0
SEQEND
  8
0
  6
CONTINUOUS
 62
     2
  0
POLYLINE
  8
0
  6
CONTINUOUS
 62
     2
 66
     1
 70
     1
  0
VERTEX
  8
0
  6
CONTINUOUS
 62
     2
 10
970.775
 20
162.2
 30
0.0
 42
-0.021820078
  0
VERTEX
  8
0
  6
CONTINUOUS
 62
     2
 10
970.766438071
 20
162.003899579
 30
0.0
 42
-0.021820078
  0
VERTEX
  8
0
  6
CONTINUOUS
 62
     2
 10
970.740817444
 20
161.8092916
 30
0.0
 42
-0.021820078
  0
VERTEX
  8
0
  6
CONTINUOUS
 62
     2
 10
970.698333109
 20
161.617657149
 30
0.0
 42
-0.021820078
  0
VERTEX
  8
0
  6
CONTINUOUS
 62
     2
 10
970.639308397
 20
161.430454678
 30
0.0
 42
-0.021820078
  0
VERTEX
  8
0
  6
CONTINUOUS
 62
     2
 10
970.564192521
 20
161.249108911
 30
0.0
 42
-0.021820078
  0
VERTEX
  8
0
  6
CONTINUOUS
 62
     2
 10
970.473557159
 20
161.075
 30
0.0
 42
-0.021820078
  0
VERTEX
  8
0
  6
CONTINUOUS
 62
     2
 10
970.3680921
 20
160.909453018
 30
0.0
 42
-0.021820078
  0
VERTEX
  8
0
  6
CONTINUOUS
 62
     2
 10
970.248599997
 20
160.753727878
 30
0.0
 42
-0.021820078
  0
VERTEX
  8
0
  6
CONTINUOUS
 62
     2
 10
970.115990258
 20
160.609009742
 30
0.0
 42
-0.021820078
  0
VERTEX
  8
0
  6
CONTINUOUS
 62
     2
 10
969.971272122
 20
160.476400003
 30
0.0
 42
-0.021820078
  0
VERTEX
  8
0
  6
CONTINUOUS
 62
     2
 10
969.815546982
 20
160.3569079
 30
0.0
 42
-0.021820078
  0
VERTEX
  8
0
  6
CONTINUOUS
 62
     2
 10
969.65
 20
160.251442841
 30
0.0
 42
-0.021820078
  0
VERTEX
  8
0
  6
CONTINUOUS
 62
     2
 10
969.475891089
 20
160.160807479
 30
0.0
 42
-0.021820078
  0
VERTEX
  8
0
  6
CONTINUOUS
 62
     2
 10
969.294545322
 20
160.085691603
 30
0.0
 42
-0.021820078
  0
VERTEX
  8
0
  6
CONTINUOUS
 62
     2
 10
969.107342851
 20
160.026666891
 30
0.0
 42
-0.021820078
  0
VERTEX
  8
0
  6
CONTINUOUS
 62
     2
 10
968.9157084
 20
159.984182556
 30
0.0
 42
-0.021820078
  0
VERTEX
  8
0
  6
CONTINUOUS
 62
     2
 10
968.721100421
 20
159.958561929
 30
0.0
 42
-0.021820078
  0
VERTEX
  8
0
  6
CONTINUOUS
 62
     2
 10
968.525
 20
159.95
 30
0.0
 42
-0.021820078
  0
VERTEX
  8
0
  6
CONTINUOUS
 62
     2
 10
968.328899579
 20
159.958561929
 30
0.0
 42
-0.021820078
  0
VERTEX
  8
0
  6
CONTINUOUS
 62
     2
 10
968.1342916
 20
159.984182556
 30
0.0
 42
-0.021820078
  0
VERTEX
  8
0
  6
CONTINUOUS
 62
     2
 10
967.942657149
 20
160.026666891
 30
0.0
 42
-0.021820078
  0
VERTEX
  8
0
  6
CONTINUOUS
 62
     2
 10
967.755454678
 20
160.085691603
 30
0.0
 42
-0.021820078
  0
VERTEX
  8
0
  6
CONTINUOUS
 62
     2
 10
967.574108911
 20
160.160807479
 30
0.0
 42
-0.021820078
  0
VERTEX
  8
0
  6
CONTINUOUS
 62
     2
 10
967.4
 20
160.251442841
 30
0.0
 42
-0.021820078
  0
VERTEX
  8
0
  6
CONTINUOUS
 62
     2
 10
967.234453018
 20
160.3569079
 30
0.0
 42
-0.021820078
  0
VERTEX
  8
0
  6
CONTINUOUS
 62
     2
 10
967.078727878
 20
160.476400003
 30
0.0
 42
-0.021820078
  0
VERTEX
  8
0
  6
CONTINUOUS
 62
     2
 10
966.934009742
 20
160.609009742
 30
0.0
 42
-0.021820078
  0
VERTEX
  8
0
  6
CONTINUOUS
 62
     2
 10
966.801400003
 20
160.753727878
 30
0.0
 42
-0.021820078
  0
VERTEX
  8
0
  6
CONTINUOUS
 62
     2
 10
966.6819079
 20
160.909453018
 30
0.0
 42
-0.021820078
  0
VERTEX
  8
0
  6
CONTINUOUS
 62
     2
 10
966.576442841
 20
161.075
 30
0.0
 42
-0.021820078
  0
VERTEX
  8
0
  6
CONTINUOUS
 62
     2
 10
966.485807479
 20
161.249108911
 30
0.0
 42
-0.021820078
  0
VERTEX
  8
0
  6
CONTINUOUS
 62
     2
 10
966.410691603
 20
161.430454678
 30
0.0
 42
-0.021820078
  0
VERTEX
  8
0
  6
CONTINUOUS
 62
     2
 10
966.351666891
 20
161.617657149
 30
0.0
 42
-0.021820078
  0
VERTEX
  8
0
  6
CONTINUOUS
 62
     2
 10
966.309182556
 20
161.8092916
 30
0.0
 42
-0.021820078
  0
VERTEX
  8
0
  6
CONTINUOUS
 62
     2
 10
966.283561929
 20
162.003899579
 30
0.0
 42
-0.021820078
  0
VERTEX
  8
0
  6
CONTINUOUS
 62
     2
 10
966.275
 20
162.2
 30
0.0
 42
-0.021820078
  0
VERTEX
  8
0
  6
CONTINUOUS
 62
     2
 10
966.283561929
 20
162.396100421
 30
0.0
 42
-0.021820078
  0
VERTEX
  8
0
  6
CONTINUOUS
 62
     2
 10
966.309182556
 20
162.5907084
 30
0.0
 42
-0.021820078
  0
VERTEX
  8
0
  6
CONTINUOUS
 62
     2
 10
966.351666891
 20
162.782342851
 30
0.0
 42
-0.021820078
  0
VERTEX
  8
0
  6
CONTINUOUS
 62
     2
 10
966.410691603
 20
162.969545322
 30
0.0
 42
-0.021820078
  0
VERTEX
  8
0
  6
CONTINUOUS
 62
     2
 10
966.485807479
 20
163.150891089
 30
0.0
 42
-0.021820078
  0
VERTEX
  8
0
  6
CONTINUOUS
 62
     2
 10
966.576442841
 20
163.325
 30
0.0
 42
-0.021820078
  0
VERTEX
  8
0
  6
CONTINUOUS
 62
     2
 10
966.6819079
 20
163.490546982
 30
0.0
 42
-0.021820078
  0
VERTEX
  8
0
  6
CONTINUOUS
 62
     2
 10
966.801400003
 20
163.646272122
 30
0.0
 42
-0.021820078
  0
VERTEX
  8
0
  6
CONTINUOUS
 62
     2
 10
966.934009742
 20
163.790990258
 30
0.0
 42
-0.021820078
  0
VERTEX
  8
0
  6
CONTINUOUS
 62
     2
 10
967.078727878
 20
163.923599997
 30
0.0
 42
-0.021820078
  0
VERTEX
  8
0
  6
CONTINUOUS
 62
     2
 10
967.234453018
 20
164.0430921
 30
0.0
 42
-0.021820078
  0
VERTEX
  8
0
  6
CONTINUOUS
 62
     2
 10
967.4
 20
164.148557159
 30
0.0
 42
-0.021820078
  0
VERTEX
  8
0
  6
CONTINUOUS
 62
     2
 10
967.574108911
 20
164.239192521
 30
0.0
 42
-0.021820078
  0
VERTEX
  8
0
  6
CONTINUOUS
 62
     2
 10
967.755454678
 20
164.314308397
 30
0.0
 42
-0.021820078
  0
VERTEX
  8
0
  6
CONTINUOUS
 62
     2
 10
967.942657149
 20
164.373333109
 30
0.0
 42
-0.021820078
  0
VERTEX
  8
0
  6
CONTINUOUS
 62
     2
 10
968.1342916
 20
164.415817444
 30
0.0
 42
-0.021820078
  0
VERTEX
  8
0
  6
CONTINUOUS
 62
     2
 10
968.328899579
 20
164.441438071
 30
0.0
 42
-0.021820078
  0
VERTEX
  8
0
  6
CONTINUOUS
 62
     2
 10
968.525
 20
164.45
 30
0.0
 42
-0.021820078
  0
VERTEX
  8
0
  6
CONTINUOUS
 62
     2
 10
968.721100421
 20
164.441438071
 30
0.0
 42
-0.021820078
  0
VERTEX
  8
0
  6
CONTINUOUS
 62
     2
 10
968.9157084
 20
164.415817444
 30
0.0
 42
-0.021820078
  0
VERTEX
  8
0
  6
CONTINUOUS
 62
     2
 10
969.107342851
 20
164.373333109
 30
0.0
 42
-0.021820078
  0
VERTEX
  8
0
  6
CONTINUOUS
 62
     2
 10
969.294545322
 20
164.314308397
 30
0.0
 42
-0.021820078
  0
VERTEX
  8
0
  6
CONTINUOUS
 62
     2
 10
969.475891089
 20
164.239192521
 30
0.0
 42
-0.021820078
  0
VERTEX
  8
0
  6
CONTINUOUS
 62
     2
 10
969.65
 20
164.148557159
 30
0.0
 42
-0.021820078
  0
VERTEX
  8
0
  6
CONTINUOUS
 62
     2
 10
969.815546982
 20
164.0430921
 30
0.0
 42
-0.021820078
  0
VERTEX
  8
0
  6
CONTINUOUS
 62
     2
 10
969.971272122
 20
163.923599997
 30
0.0
 42
-0.021820078
  0
VERTEX
  8
0
  6
CONTINUOUS
 62
     2
 10
970.115990258
 20
163.790990258
 30
0.0
 42
-0.021820078
  0
VERTEX
  8
0
  6
CONTINUOUS
 62
     2
 10
970.248599997
 20
163.646272122
 30
0.0
 42
-0.021820078
  0
VERTEX
  8
0
  6
CONTINUOUS
 62
     2
 10
970.3680921
 20
163.490546982
 30
0.0
 42
-0.021820078
  0
VERTEX
  8
0
  6
CONTINUOUS
 62
     2
 10
970.473557159
 20
163.325
 30
0.0
 42
-0.021820078
  0
VERTEX
  8
0
  6
CONTINUOUS
 62
     2
 10
970.564192521
 20
163.150891089
 30
0.0
 42
-0.021820078
  0
VERTEX
  8
0
  6
CONTINUOUS
 62
     2
 10
970.639308397
 20
162.969545322
 30
0.0
 42
-0.021820078
  0
VERTEX
  8
0
  6
CONTINUOUS
 62
     2
 10
970.698333109
 20
162.782342851
 30
0.0
 42
-0.021820078
  0
VERTEX
  8
0
  6
CONTINUOUS
 62
     2
 10
970.740817444
 20
162.5907084
 30
0.0
 42
-0.021820078
  0
VERTEX
  8
0
  6
CONTINUOUS
 62
     2
 10
970.766438071
 20
162.396100421
 30
0.0
 42
-0.021820078
  0
SEQEND
  8
0
  6
CONTINUOUS
 62
     2
  0
TEXT
  8
0
  6
CONTINUOUS
 62
     2
 10
944.775
 20
151.8
 30
0.0
 40
10.0
  1
１
 50
0.0
 41
0.85
 51
0.0
  7
KANJI44
  0
TEXT
  8
0
  6
CONTINUOUS
 62
     2
 10
969.775
 20
151.8
 30
0.0
 40
10.0
  1
２
 50
0.0
 41
0.85
 51
0.0
  7
KANJI44
  0
TEXT
  8
0
  6
CONTINUOUS
 62
     2
 10
912.875
 20
206.5
 30
0.0
 40
10.0
  1
（ＮＯ）
 50
0.0
 41
0.75
 51
0.0
  7
KANJI45
  0
TEXT
  8
0
  6
CONTINUOUS
 62
     2
 10
978.875
 20
206.5
 30
0.0
 40
10.0
  1
（ＮＯ）
 50
0.0
 41
0.75
 51
0.0
  7
KANJI45
  0
TEXT
  8
0
  6
CONTINUOUS
 62
     2
 10
912.875
 20
149.0
 30
0.0
 40
10.0
  1
（ＮＣ）
 50
0.0
 41
0.75
 51
0.0
  7
KANJI45
  0
TEXT
  8
0
  6
CONTINUOUS
 62
     2
 10
978.875
 20
149.0
 30
0.0
 40
10.0
  1
（ＮＣ）
 50
0.0
 41
0.75
 51
0.0
  7
KANJI45
  0
TEXT
  8
0
  6
CONTINUOUS
 62
     2
 10
896.75
 20
120.0
 30
0.0
 40
15.0
  1
外部ＬＳリミットＳＷ
 50
0.0
 41
0.9
 51
0.0
  7
KANJI30
  0
TEXT
  8
0
  6
CONTINUOUS
 62
     2
 10
934.0
 20
101.0
 30
0.0
 40
15.0
  1
端子符号
 50
0.0
 41
0.9
 51
0.0
  7
KANJI30
  0
LINE
  8
0
  6
CONTINUOUS
 62
     2
 10
1038.5
 20
107.5
 30
0.0
 11
1038.5
 21
277.25
 31
0.0
  0
LINE
  8
0
  6
CONTINUOUS
 62
     2
 10
1038.5
 20
277.25
 30
0.0
 11
885.25
 21
277.25
 31
0.0
  0
LINE
  8
0
  6
CONTINUOUS
 62
     2
 10
885.25
 20
277.25
 30
0.0
 11
885.25
 21
107.5
 31
0.0
  0
LINE
  8
0
  6
CONTINUOUS
 62
     2
 10
993.5
 20
107.5
 30
0.0
 11
1038.5
 21
107.5
 31
0.0
  0
LINE
  8
0
  6
CONTINUOUS
 62
     2
 10
885.25
 20
107.5
 30
0.0
 11
924.25
 21
107.5
 31
0.0
  0
LINE
  8
0
  6
CONTINUOUS
 62
     1
 10
898.575
 20
765.4
 30
0.0
 11
898.575
 21
777.4
 31
0.0
  0
LINE
  8
0
  6
CONTINUOUS
 62
     1
 10
855.575
 20
765.4
 30
0.0
 11
898.575
 21
765.4
 31
0.0
  0
LINE
  8
0
  6
CONTINUOUS
 62
     1
 10
845.575
 20
737.4
 30
0.0
 11
898.575
 21
737.4
 31
0.0
  0
LINE
  8
0
  6
CONTINUOUS
 62
     1
 10
898.575
 20
749.4
 30
0.0
 11
898.575
 21
737.4
 31
0.0
  0
LINE
  8
0
  6
CONTINUOUS
 62
     1
 10
855.575
 20
749.4
 30
0.0
 11
898.575
 21
749.4
 31
0.0
  0
LINE
  8
0
  6
CONTINUOUS
 62
     1
 10
855.575
 20
749.4
 30
0.0
 11
855.575
 21
765.4
 31
0.0
  0
LINE
  8
0
  6
CONTINUOUS
 62
     1
 10
872.575
 20
749.4
 30
0.0
 11
872.575
 21
765.4
 31
0.0
  0
LINE
  8
0
  6
CONTINUOUS
 62
     1
 10
888.575
 20
749.4
 30
0.0
 11
888.575
 21
765.4
 31
0.0
  0
LINE
  8
7
  6
CONTINUOUS
 62
     2
 10
904.575
 20
765.4
 30
0.0
 11
940.075
 21
765.4
 31
0.0
  0
LINE
  8
7
  6
CONTINUOUS
 62
     2
 10
904.575
 20
749.4
 30
0.0
 11
940.075
 21
749.4
 31
0.0
  0
LINE
  8
7
  6
CONTINUOUS
 62
     2
 10
904.575
 20
777.4
 30
0.0
 11
986.075
 21
777.4
 31
0.0
  0
LINE
  8
7
  6
CONTINUOUS
 62
     2
 10
904.575
 20
737.4
 30
0.0
 11
986.075
 21
737.4
 31
0.0
  0
LINE
  8
7
  6
CONTINUOUS
 62
     2
 10
931.575
 20
777.4
 30
0.0
 11
934.163190451
 21
787.059258263
 31
0.0
  0
LINE
  8
7
  6
CONTINUOUS
 62
     2
 10
931.575
 20
777.4
 30
0.0
 11
928.986809549
 21
787.059258263
 31
0.0
  0
LINE
  8
7
  6
CONTINUOUS
 62
     2
 10
931.575
 20
737.4
 30
0.0
 11
928.986809549
 21
727.740741737
 31
0.0
  0
LINE
  8
7
  6
CONTINUOUS
 62
     2
 10
931.575
 20
737.4
 30
0.0
 11
934.163190451
 21
727.740741737
 31
0.0
  0
LINE
  8
7
  6
CONTINUOUS
 62
     2
 10
935.575
 20
737.4
 30
0.0
 11
937.575
 21
737.4
 31
0.0
  0
LINE
  8
7
  6
CONTINUOUS
 62
     2
 10
931.575
 20
815.2
 30
0.0
 11
931.575
 21
749.4
 31
0.0
  0
LINE
  8
7
  6
CONTINUOUS
 62
     2
 10
931.575
 20
749.4
 30
0.0
 11
931.575
 21
699.6
 31
0.0
  0
LINE
  8
7
  6
CONTINUOUS
 62
     2
 10
872.575
 20
721.9
 30
0.0
 11
872.575
 21
666.4
 31
0.0
  0
LINE
  8
7
  6
CONTINUOUS
 62
     2
 10
872.575
 20
672.4
 30
0.0
 11
862.915741737
 21
674.988190451
 31
0.0
  0
LINE
  8
7
  6
CONTINUOUS
 62
     2
 10
872.575
 20
672.4
 30
0.0
 11
862.915741737
 21
669.811809549
 31
0.0
  0
LINE
  8
7
  6
CONTINUOUS
 62
     2
 10
857.575
 20
672.4
 30
0.0
 11
959.255
 21
672.4
 31
0.0
  0
LINE
  8
7
  6
CONTINUOUS
 62
     2
 10
888.575
 20
672.4
 30
0.0
 11
898.234258263
 21
669.811809549
 31
0.0
  0
LINE
  8
7
  6
CONTINUOUS
 62
     2
 10
888.575
 20
672.4
 30
0.0
 11
898.234258263
 21
674.988190451
 31
0.0
  0
LINE
  8
7
  6
CONTINUOUS
 62
     2
 10
888.575
 20
721.9
 30
0.0
 11
888.575
 21
666.4
 31
0.0
  0
LINE
  8
0
  6
LTYPE2
 62
     2
 10
880.575
 20
549.4
 30
0.0
 11
880.575
 21
794.4
 31
0.0
  0
LINE
  8
7
  6
CONTINUOUS
 62
     2
 10
880.575
 20
643.4
 30
0.0
 11
880.575
 21
645.4
 31
0.0
  0
LINE
  8
7
  6
CONTINUOUS
 62
     2
 10
880.575
 20
639.4
 30
0.0
 11
870.915741737
 21
641.988190451
 31
0.0
  0
LINE
  8
7
  6
CONTINUOUS
 62
     2
 10
880.575
 20
639.4
 30
0.0
 11
870.915741737
 21
636.811809549
 31
0.0
  0
LINE
  8
7
  6
CONTINUOUS
 62
     2
 10
880.575
 20
639.4
 30
0.0
 11
855.575
 21
639.4
 31
0.0
  0
LINE
  8
7
  6
CONTINUOUS
 62
     2
 10
855.575
 20
639.4
 30
0.0
 11
865.234258263
 21
636.811809549
 31
0.0
  0
LINE
  8
7
  6
CONTINUOUS
 62
     2
 10
855.575
 20
639.4
 30
0.0
 11
865.234258263
 21
641.988190451
 31
0.0
  0
LINE
  8
7
  6
CONTINUOUS
 62
     2
 10
855.575
 20
743.4
 30
0.0
 11
855.575
 21
633.4
 31
0.0
  0
LINE
  8
0
  6
CONTINUOUS
 62
     1
 10
829.575
 20
722.4
 30
0.0
 11
845.575
 21
722.4
 31
0.0
  0
LINE
  8
0
  6
CONTINUOUS
 62
     1
 10
829.575
 20
792.4
 30
0.0
 11
829.575
 21
722.4
 31
0.0
  0
LINE
  8
0
  6
CONTINUOUS
 62
     1
 10
829.575
 20
792.4
 30
0.0
 11
845.575
 21
792.4
 31
0.0
  0
LINE
  8
0
  6
CONTINUOUS
 62
     1
 10
845.575
 20
792.4
 30
0.0
 11
845.575
 21
722.4
 31
0.0
  0
LINE
  8
0
  6
LTYPE2
 62
     2
 10
837.575
 20
790.4
 30
0.0
 11
837.575
 21
776.4
 31
0.0
  0
LINE
  8
0
  6
LTYPE2
 62
     2
 10
831.575
 20
783.4
 30
0.0
 11
843.575
 21
783.4
 31
0.0
  0
LINE
  8
0
  6
LTYPE2
 62
     2
 10
837.575
 20
724.4
 30
0.0
 11
837.575
 21
738.4
 31
0.0
  0
LINE
  8
0
  6
LTYPE2
 62
     2
 10
831.575
 20
731.4
 30
0.0
 11
843.575
 21
731.4
 31
0.0
  0
LINE
  8
7
  6
CONTINUOUS
 62
     2
 10
980.075
 20
777.4
 30
0.0
 11
977.486809549
 21
767.740741737
 31
0.0
  0
LINE
  8
7
  6
CONTINUOUS
 62
     2
 10
980.075
 20
777.4
 30
0.0
 11
982.663190451
 21
767.740741737
 31
0.0
  0
LINE
  8
7
  6
CONTINUOUS
 62
     2
 10
980.075
 20
777.4
 30
0.0
 11
980.075
 21
737.4
 31
0.0
  0
LINE
  8
7
  6
CONTINUOUS
 62
     2
 10
980.075
 20
737.4
 30
0.0
 11
982.663190451
 21
747.059258263
 31
0.0
  0
LINE
  8
7
  6
CONTINUOUS
 62
     2
 10
980.075
 20
737.4
 30
0.0
 11
977.486809549
 21
747.059258263
 31
0.0
  0
TEXT
  8
7
  6
CONTINUOUS
 62
     2
 10
976.075
 20
746.0
 30
0.0
 40
15.0
  1
４０
 50
90.0
 41
0.9
 51
0.0
  7
KANJI30
  0
TEXT
  8
7
  6
CONTINUOUS
 62
     2
 10
955.075
 20
746.0
 30
0.0
 40
15.0
  1
１６
 50
90.0
 41
0.9
 51
0.0
  7
KANJI30
  0
TEXT
  8
7
  6
CONTINUOUS
 62
     2
 10
927.575
 20
792.4
 30
0.0
 40
15.0
  1
１２
 50
90.0
 41
0.9
 51
0.0
  7
KANJI30
  0
TEXT
  8
7
  6
CONTINUOUS
 62
     2
 10
927.575
 20
699.6
 30
0.0
 40
15.0
  1
１２
 50
90.0
 41
0.9
 51
0.0
  7
KANJI30
  0
TEXT
  8
0
  6
CONTINUOUS
 62
     2
 10
936.325
 20
685.06
 30
0.84
 40
8.4
  1
Ｈ１０
 50
0.0
 41
0.9
 51
0.0
  7
KANJI46
  0
TEXT
  8
0
  6
CONTINUOUS
 62
     2
 10
936.325
 20
676.66
 30
0.84
 40
8.4
  1
ｄ９
 50
0.0
 41
0.9
 51
0.0
  7
KANJI46
  0
TEXT
  8
0
  6
CONTINUOUS
 62
     2
 10
897.575
 20
677.4
 30
0.0
 40
15.0
  1
φ１６
 50
0.0
 41
0.9
 51
0.0
  7
KANJI30
  0
TEXT
  8
7
  6
CONTINUOUS
 62
     2
 10
854.175
 20
643.4
 30
0.0
 40
15.0
  1
２５
 50
0.0
 41
0.9
 51
0.0
  7
KANJI30
  0
LINE
  8
0
  6
CONTINUOUS
 62
     1
 10
810.575
 20
776.4
 30
0.0
 11
829.575
 21
776.4
 31
0.0
  0
LINE
  8
0
  6
CONTINUOUS
 62
     1
 10
810.575
 20
738.4
 30
0.0
 11
829.575
 21
738.4
 31
0.0
  0
LINE
  8
0
  6
CONTINUOUS
 62
     1
 10
845.575
 20
777.4
 30
0.0
 11
898.575
 21
777.4
 31
0.0
  0
LINE
  8
0
  6
LTYPE1
 62
     2
 10
855.575
 20
565.4
 30
0.0
 11
855.575
 21
605.4
 31
0.0
  0
LINE
  8
0
  6
CONTINUOUS
 62
     1
 10
845.575
 20
605.4
 30
0.0
 11
888.575
 21
605.4
 31
0.0
  0
LINE
  8
0
  6
CONTINUOUS
 62
     1
 10
888.575
 20
605.4
 30
0.0
 11
898.575
 21
595.4
 31
0.0
  0
LINE
  8
7
  6
CONTINUOUS
 62
     2
 10
894.575
 20
605.4
 30
0.0
 11
940.075
 21
605.4
 31
0.0
  0
LINE
  8
7
  6
CONTINUOUS
 62
     2
 10
934.075
 20
605.4
 30
0.0
 11
931.486809549
 21
595.740741737
 31
0.0
  0
LINE
  8
7
  6
CONTINUOUS
 62
     2
 10
934.075
 20
605.4
 30
0.0
 11
936.663190451
 21
595.740741737
 31
0.0
  0
LINE
  8
7
  6
CONTINUOUS
 62
     2
 10
934.075
 20
605.4
 30
0.0
 11
934.075
 21
565.4
 31
0.0
  0
LINE
  8
0
  6
CONTINUOUS
 62
     1
 10
845.575
 20
435.4
 30
0.0
 11
845.575
 21
611.4
 31
0.0
  0
LINE
  8
0
  6
CONTINUOUS
 62
     1
 10
810.575
 20
553.65
 30
0.0
 11
810.575
 21
617.15
 31
0.0
  0
LINE
  8
0
  6
CONTINUOUS
 62
     1
 10
810.575
 20
604.4
 30
0.0
 11
829.575
 21
604.4
 31
0.0
  0
LINE
  8
0
  6
CONTINUOUS
 62
     1
 10
829.575
 20
611.4
 30
0.0
 11
829.575
 21
585.4
 31
0.0
  0
LINE
  8
0
  6
CONTINUOUS
 62
     1
 10
829.575
 20
611.4
 30
0.0
 11
845.575
 21
611.4
 31
0.0
  0
CIRCLE
  8
0
  6
CONTINUOUS
 62
     1
 10
880.575
 20
585.4
 30
0.0
 40
15.0
  0
CIRCLE
  8
0
  6
CONTINUOUS
 62
     1
 10
880.574984741
 20
596.4
 30
0.0
 40
3.0
  0
TEXT
  8
7
  6
CONTINUOUS
 62
     2
 10
930.075
 20
574.0
 30
0.0
 40
15.0
  1
４０
 50
90.0
 41
0.9
 51
0.0
  7
KANJI30
  0
LINE
  8
0
  6
CONTINUOUS
 62
     1
 10
845.575
 20
565.4
 30
0.0
 11
888.575
 21
565.4
 31
0.0
  0
LINE
  8
0
  6
CONTINUOUS
 62
     1
 10
888.575
 20
565.4
 30
0.0
 11
898.575
 21
575.4
 31
0.0
  0
LINE
  8
7
  6
CONTINUOUS
 62
     2
 10
934.075
 20
565.4
 30
0.0
 11
936.663190451
 21
575.059258263
 31
0.0
  0
LINE
  8
7
  6
CONTINUOUS
 62
     2
 10
934.075
 20
565.4
 30
0.0
 11
931.486809549
 21
575.059258263
 31
0.0
  0
LINE
  8
7
  6
CONTINUOUS
 62
     2
 10
894.575
 20
565.4
 30
0.0
 11
940.075
 21
565.4
 31
0.0
  0
LINE
  8
0
  6
CONTINUOUS
 62
     1
 10
810.575
 20
566.4
 30
0.0
 11
829.575
 21
566.4
 31
0.0
  0
LINE
  8
7
  6
CONTINUOUS
 62
     2
 10
810.575
 20
547.65
 30
0.0
 11
810.575
 21
373.4
 31
0.0
  0
LINE
  8
0
  6
CONTINUOUS
 62
     1
 10
829.575
 20
435.4
 30
0.0
 11
829.575
 21
585.4
 31
0.0
  0
LINE
  8
0
  6
CONTINUOUS
 62
     1
 10
876.375
 20
573.1
 30
0.0
 11
878.375
 21
572.8
 31
0.0
  0
LINE
  8
0
  6
CONTINUOUS
 62
     1
 10
878.639615385
 20
575.930769231
 30
0.0
 11
876.375
 21
573.1
 31
0.0
  0
LINE
  8
0
  6
CONTINUOUS
 62
     1
 10
880.575
 20
575.5
 30
0.0
 11
878.375
 21
572.8
 31
0.0
  0
LINE
  8
0
  6
CONTINUOUS
 62
     1
 10
884.775
 20
573.1
 30
0.0
 11
882.775
 21
572.8
 31
0.0
  0
LINE
  8
0
  6
CONTINUOUS
 62
     1
 10
882.510384615
 20
575.930769231
 30
0.0
 11
884.775
 21
573.1
 31
0.0
  0
LINE
  8
0
  6
CONTINUOUS
 62
     1
 10
880.575
 20
575.5
 30
0.0
 11
882.775
 21
572.8
 31
0.0
  0
CIRCLE
  8
0
  6
CONTINUOUS
 62
     1
 10
880.575
 20
585.4
 30
0.0
 40
8.0
  0
LINE
  8
0
  6
CONTINUOUS
 62
     1
 10
898.575
 20
575.4
 30
0.0
 11
898.575
 21
595.4
 31
0.0
  0
LINE
  8
0
  6
CONTINUOUS
 62
     1
 10
878.875
 20
577.5
 30
0.0
 11
878.639615385
 21
575.930769231
 31
0.0
  0
LINE
  8
0
  6
CONTINUOUS
 62
     1
 10
882.275
 20
577.5
 30
0.0
 11
882.510384615
 21
575.930769231
 31
0.0
  0
LINE
  8
7
  6
CONTINUOUS
 62
     2
 10
845.575
 20
431.4
 30
0.0
 11
845.575
 21
373.4
 31
0.0
  0
LINE
  8
0
  6
CONTINUOUS
 62
     1
 10
829.575
 20
435.4
 30
0.0
 11
845.575
 21
435.4
 31
0.0
  0
LINE
  8
0
  6
CONTINUOUS
 62
     1
 10
848.575
 20
448.4
 30
0.0
 11
848.575
 21
459.34954
 31
0.0
  0
LINE
  8
0
  6
CONTINUOUS
 62
     1
 10
848.575
 20
448.4
 30
0.0
 11
848.575
 21
437.45046
 31
0.0
  0
LINE
  8
0
  6
CONTINUOUS
 62
     1
 10
856.5961
 20
456.66802
 30
0.0
 11
855.047923706
 21
459.34954
 31
0.0
  0
LINE
  8
0
  6
CONTINUOUS
 62
     1
 10
856.5961
 20
448.4
 30
0.0
 11
856.5961
 21
456.66802
 31
0.0
  0
LINE
  8
0
  6
CONTINUOUS
 62
     1
 10
856.5961
 20
440.13198
 30
0.0
 11
855.047923706
 21
437.45046
 31
0.0
  0
LINE
  8
0
  6
CONTINUOUS
 62
     1
 10
856.5961
 20
448.4
 30
0.0
 11
856.5961
 21
440.13198
 31
0.0
  0
ARC
  8
0
  6
CONTINUOUS
 62
     1
 10
846.141878307
 20
448.4
 30
0.0
 40
10.454221693
 50
328.419912243
 51
31.580087757
  0
ARC
  8
0
  6
CONTINUOUS
 62
     1
 10
853.402986394
 20
456.612155
 30
0.0
 40
3.193602261
 50
301.002313915
 51
2.989498403
  0
LINE
  8
0
  6
CONTINUOUS
 62
     1
 10
856.5961
 20
440.13198
 30
0.0
 11
855.047923706
 21
437.45046
 31
0.0
  0
ARC
  8
0
  6
CONTINUOUS
 62
     1
 10
853.402986394
 20
440.187845
 30
0.0
 40
3.193602261
 50
357.010501597
 51
58.997686085
  0
LINE
  8
0
  6
CONTINUOUS
 62
     1
 10
848.575
 20
459.34954
 30
0.0
 11
855.047923706
 21
459.34954
 31
0.0
  0
LINE
  8
0
  6
CONTINUOUS
 62
     1
 10
848.575
 20
453.87477
 30
0.0
 11
855.047923706
 21
453.87477
 31
0.0
  0
LINE
  8
0
  6
CONTINUOUS
 62
     1
 10
848.575
 20
442.92523
 30
0.0
 11
855.047923706
 21
442.92523
 31
0.0
  0
LINE
  8
0
  6
CONTINUOUS
 62
     1
 10
848.575
 20
437.45046
 30
0.0
 11
855.047923706
 21
437.45046
 31
0.0
  0
LINE
  8
0
  6
CONTINUOUS
 62
     1
 10
845.575
 20
459.15
 30
0.0
 11
848.575
 21
459.15
 31
0.0
  0
LINE
  8
0
  6
CONTINUOUS
 62
     1
 10
845.575
 20
448.4
 30
0.0
 11
848.575254073
 21
451.400254073
 31
0.0
  0
LINE
  8
0
  6
CONTINUOUS
 62
     1
 10
848.575254073
 20
448.4
 30
0.0
 11
845.575
 21
445.399745927
 31
0.0
  0
LINE
  8
0
  6
CONTINUOUS
 62
     1
 10
845.575
 20
437.65
 30
0.0
 11
848.575
 21
437.65
 31
0.0
  0
LINE
  8
0
  6
CONTINUOUS
 62
     1
 10
856.5961
 20
442.4
 30
0.0
 11
869.575
 21
442.4
 31
0.0
  0
LINE
  8
0
  6
CONTINUOUS
 62
     1
 10
856.5961
 20
454.4
 30
0.0
 11
869.575
 21
454.4
 31
0.0
  0
LINE
  8
0
  6
CONTINUOUS
 62
     1
 10
869.575
 20
442.4
 30
0.0
 11
869.575
 21
454.4
 31
0.0
  0
TEXT
  8
7
  6
CONTINUOUS
 62
     2
 10
822.675
 20
383.4
 30
0.0
 40
15.0
  1
Ｐ
 50
0.0
 41
0.9
 51
0.0
  7
KANJI30
  0
TEXT
  8
7
  6
CONTINUOUS
 62
     2
 10
851.675
 20
383.4
 30
0.0
 40
15.0
  1
３５
 50
0.0
 41
0.9
 51
0.0
  7
KANJI30
  0
TEXT
  8
7
  6
CONTINUOUS
 62
     2
 10
811.175
 20
398.9
 30
-1.5
 40
15.0
  1
ｍｉｎ
 50
0.0
 41
0.833333333
 51
0.0
  7
KANJI47
  0
LINE
  8
0
  6
CONTINUOUS
 62
     1
 10
821.575
 20
440.4
 30
0.0
 11
829.575
 21
440.4
 31
0.0
  0
LINE
  8
0
  6
CONTINUOUS
 62
     1
 10
821.575
 20
456.4
 30
0.0
 11
829.575
 21
456.4
 31
0.0
  0
LINE
  8
7
  6
CONTINUOUS
 62
     2
 10
880.575
 20
351.4
 30
0.0
 11
870.915741737
 21
353.988190451
 31
0.0
  0
LINE
  8
7
  6
CONTINUOUS
 62
     2
 10
880.575
 20
351.4
 30
0.0
 11
870.915741737
 21
348.811809549
 31
0.0
  0
LINE
  8
7
  6
CONTINUOUS
 62
     2
 10
810.575
 20
379.4
 30
0.0
 11
820.234258263
 21
376.811809549
 31
0.0
  0
LINE
  8
7
  6
CONTINUOUS
 62
     2
 10
810.575
 20
379.4
 30
0.0
 11
820.234258263
 21
381.988190451
 31
0.0
  0
LINE
  8
7
  6
CONTINUOUS
 62
     2
 10
810.575
 20
379.4
 30
0.0
 11
845.575
 21
379.4
 31
0.0
  0
LINE
  8
7
  6
CONTINUOUS
 62
     2
 10
845.575
 20
379.4
 30
0.0
 11
835.915741737
 21
381.988190451
 31
0.0
  0
LINE
  8
7
  6
CONTINUOUS
 62
     2
 10
845.575
 20
379.4
 30
0.0
 11
835.915741737
 21
376.811809549
 31
0.0
  0
POINT
  8
7
  6
CONTINUOUS
 62
     2
 10
845.575
 20
373.4
 30
0.0
  0
LINE
  8
7
  6
CONTINUOUS
 62
     2
 10
845.575
 20
379.4
 30
0.0
 11
855.234258263
 21
376.811809549
 31
0.0
  0
LINE
  8
7
  6
CONTINUOUS
 62
     2
 10
845.575
 20
379.4
 30
0.0
 11
855.234258263
 21
381.988190451
 31
0.0
  0
LINE
  8
7
  6
CONTINUOUS
 62
     2
 10
845.575
 20
379.4
 30
0.0
 11
880.575
 21
379.4
 31
0.0
  0
LINE
  8
7
  6
CONTINUOUS
 62
     2
 10
880.575
 20
379.4
 30
0.0
 11
870.915741737
 21
381.988190451
 31
0.0
  0
LINE
  8
7
  6
CONTINUOUS
 62
     2
 10
880.575
 20
379.4
 30
0.0
 11
870.915741737
 21
376.811809549
 31
0.0
  0
LINE
  8
7
  6
CONTINUOUS
 62
     2
 10
880.575
 20
374.4
 30
0.0
 11
880.575
 21
373.4
 31
0.0
  0
LINE
  8
0
  6
CONTINUOUS
 62
     2
 10
987.5
 20
585.4
 30
0.0
 11
984.911809549
 21
575.740741737
 31
0.0
  0
LINE
  8
0
  6
CONTINUOUS
 62
     2
 10
987.5
 20
585.4
 30
0.0
 11
990.088190451
 21
575.740741737
 31
0.0
  0
LINE
  8
0
  6
CONTINUOUS
 62
     2
 10
987.5
 20
585.4
 30
0.0
 11
987.5
 21
432.4
 31
0.0
  0
LINE
  8
0
  6
CONTINUOUS
 62
     2
 10
987.5
 20
432.4
 30
0.0
 11
990.088190451
 21
442.059258263
 31
0.0
  0
LINE
  8
0
  6
CONTINUOUS
 62
     2
 10
987.5
 20
432.4
 30
0.0
 11
984.911809549
 21
442.059258263
 31
0.0
  0
LINE
  8
0
  6
CONTINUOUS
 62
     2
 10
817.925
 20
432.4
 30
0.0
 11
992.5
 21
432.4
 31
0.0
  0
TEXT
  8
0
  6
CONTINUOUS
 62
     3
 10
982.5
 20
488.65
 30
0.0
 40
15.0
  1
１５３
 50
90.0
 41
0.9
 51
0.0
  7
KANJI30
  0
LINE
  8
0
  6
CONTINUOUS
 62
     2
 10
930.075
 20
585.4
 30
0.0
 11
992.5
 21
585.4
 31
0.0
  0
LINE
  8
0
  6
CONTINUOUS
 62
     2
 10
903.575
 20
585.4
 30
0.0
 11
909.344424461
 21
585.4
 31
0.0
  0
TEXT
  8
7
  6
CONTINUOUS
 62
     2
 10
991.649126767
 20
711.465188182
 30
0.0
 40
15.0
  1
ＬＳユニット組付位置
 50
0.0
 41
0.9
 51
0.0
  7
KANJI30
  0
LINE
  8
0
  6
CONTINUOUS
 62
     1
 10
888.575
 20
788.4
 30
0.0
 11
872.575
 21
788.4
 31
0.0
  0
LINE
  8
0
  6
CONTINUOUS
 62
     1
 10
865.575
 20
780.4
 30
0.0
 11
895.575
 21
780.4
 31
0.0
  0
LINE
  8
0
  6
LTYPE2
 62
     2
 10
876.175
 20
783.05
 30
0.0
 11
884.575
 21
783.05
 31
0.0
  0
CIRCLE
  8
0
  6
CONTINUOUS
 62
     1
 10
880.575
 20
783.05
 30
0.0
 40
2.0
  0
LINE
  8
0
  6
CONTINUOUS
 62
     1
 10
865.575
 20
777.4
 30
0.0
 11
865.575
 21
780.4
 31
0.0
  0
LINE
  8
0
  6
CONTINUOUS
 62
     1
 10
872.575
 20
780.4
 30
0.0
 11
872.575
 21
788.4
 31
0.0
  0
LINE
  8
0
  6
LTYPE1
 62
     2
 10
872.575
 20
780.4
 30
0.0
 11
872.575
 21
765.4
 31
0.0
  0
LINE
  8
0
  6
CONTINUOUS
 62
     1
 10
895.575
 20
777.4
 30
0.0
 11
895.575
 21
780.4
 31
0.0
  0
LINE
  8
0
  6
CONTINUOUS
 62
     1
 10
888.575
 20
780.4
 30
0.0
 11
888.575
 21
788.4
 31
0.0
  0
LINE
  8
0
  6
LTYPE1
 62
     2
 10
888.575
 20
765.4
 30
0.0
 11
888.575
 21
780.4
 31
0.0
  0
LINE
  8
0
  6
CONTINUOUS
 62
     1
 10
888.575
 20
726.4
 30
0.0
 11
872.575
 21
726.4
 31
0.0
  0
LINE
  8
0
  6
CONTINUOUS
 62
     1
 10
888.575
 20
726.4
 30
0.0
 11
872.575
 21
726.4
 31
0.0
  0
LINE
  8
0
  6
CONTINUOUS
 62
     1
 10
865.575
 20
734.4
 30
0.0
 11
895.575
 21
734.4
 31
0.0
  0
LINE
  8
0
  6
LTYPE2
 62
     2
 10
876.175
 20
731.75
 30
0.0
 11
884.575
 21
731.75
 31
0.0
  0
LINE
  8
0
  6
CONTINUOUS
 62
     1
 10
895.575
 20
737.4
 30
0.0
 11
895.575
 21
734.4
 31
0.0
  0
LINE
  8
0
  6
CONTINUOUS
 62
     1
 10
888.575
 20
734.4
 30
0.0
 11
888.575
 21
726.4
 31
0.0
  0
LINE
  8
0
  6
CONTINUOUS
 62
     1
 10
888.575
 20
734.4
 30
0.0
 11
888.575
 21
726.4
 31
0.0
  0
LINE
  8
0
  6
LTYPE1
 62
     2
 10
888.575
 20
749.4
 30
0.0
 11
888.575
 21
734.4
 31
0.0
  0
CIRCLE
  8
0
  6
CONTINUOUS
 62
     1
 10
880.575
 20
731.75
 30
0.0
 40
2.0
  0
LINE
  8
0
  6
CONTINUOUS
 62
     1
 10
872.575
 20
726.4
 30
0.0
 11
872.575
 21
734.4
 31
0.0
  0
LINE
  8
0
  6
CONTINUOUS
 62
     1
 10
872.575
 20
726.4
 30
0.0
 11
872.575
 21
734.4
 31
0.0
  0
LINE
  8
0
  6
CONTINUOUS
 62
     1
 10
865.575
 20
737.4
 30
0.0
 11
865.575
 21
734.4
 31
0.0
  0
LINE
  8
0
  6
LTYPE1
 62
     2
 10
872.575
 20
734.4
 30
0.0
 11
872.575
 21
749.4
 31
0.0
  0
LINE
  8
0
  6
LTYPE3
 62
     2
 10
1110.254371872
 20
681.437122298
 30
0.0
 11
1166.278069796
 21
666.425617682
 31
0.0
  0
LINE
  8
0
  6
LTYPE3
 62
     2
 10
1129.617352673
 20
691.881497553
 30
0.0
 11
1175.015866509
 21
679.717002433
 31
0.0
  0
LINE
  8
0
  6
CONTINUOUS
 62
     1
 10
1172.034006194
 20
685.58884278
 30
0.0
 11
1133.396973143
 21
695.941604584
 31
0.0
  0
CIRCLE
  8
0
  6
CONTINUOUS
 62
     1
 10
1145.993627444
 20
671.860817629
 30
0.0
 40
9.36
  0
CIRCLE
  8
0
  6
CONTINUOUS
 62
     2
 10
1145.993627444
 20
671.860817629
 30
0.0
 40
10.47
  0
LINE
  8
7
  6
CONTINUOUS
 62
     2
 10
1083.699404429
 20
456.25050745
 30
0.0
 11
1093.358662692
 21
458.838697901
 31
0.0
  0
LINE
  8
7
  6
CONTINUOUS
 62
     2
 10
1083.699404429
 20
554.695896098
 30
0.0
 11
1083.699404429
 21
450.25050745
 31
0.0
  0
LINE
  8
7
  6
CONTINUOUS
 62
     2
 10
1095.04968209
 20
625.465188182
 30
0.0
 11
1093.456105843
 21
635.337397395
 31
0.0
  0
LINE
  8
7
  6
CONTINUOUS
 62
     2
 10
1095.04968209
 20
625.465188182
 30
0.0
 11
1088.733499971
 21
633.217984028
 31
0.0
  0
LINE
  8
7
  6
CONTINUOUS
 62
     2
 10
1095.04968209
 20
625.465188182
 30
0.0
 11
1058.24968209
 21
707.465188182
 31
0.0
  0
LINE
  8
7
  6
CONTINUOUS
 62
     2
 10
1089.254127133
 20
627.018102452
 30
0.0
 11
1074.536415972
 21
630.961701272
 31
0.0
  0
LINE
  8
7
  6
CONTINUOUS
 62
     2
 10
1080.33197093
 20
629.408787002
 30
0.0
 11
1075.33197093
 21
620.748532964
 31
0.0
  0
LINE
  8
7
  6
CONTINUOUS
 62
     2
 10
1080.33197093
 20
629.408787002
 30
0.0
 11
1080.33197093
 21
619.408787002
 31
0.0
  0
ARC
  8
7
  6
CONTINUOUS
 62
     2
 10
1244.575
 20
585.4
 30
0.0
 40
170.036895795
 50
165.0
 51
180.0
  0
LINE
  8
7
  6
CONTINUOUS
 62
     2
 10
1074.538104205
 20
585.4
 30
0.0
 11
1077.126294656
 21
595.059258263
 31
0.0
  0
LINE
  8
7
  6
CONTINUOUS
 62
     2
 10
1074.538104205
 20
585.4
 30
0.0
 11
1071.949913754
 21
595.059258263
 31
0.0
  0
LINE
  8
7
  6
CONTINUOUS
 62
     2
 10
1152.24968209
 20
585.4
 30
0.0
 11
1068.538104205
 21
585.4
 31
0.0
  0
LINE
  8
7
  6
CONTINUOUS
 62
     2
 10
1244.575
 20
456.25050745
 30
0.0
 11
1083.699404429
 21
456.25050745
 31
0.0
  0
LINE
  8
7
  6
CONTINUOUS
 62
     2
 10
1083.699404429
 20
456.25050745
 30
0.0
 11
1093.358662692
 21
453.662316999
 31
0.0
  0
TEXT
  8
7
  6
CONTINUOUS
 62
     2
 10
1069.75585823
 20
590.865232726
 30
0.0
 40
15.0
  1
約１５゜
 50
82.5
 41
0.9
 51
0.0
  7
KANJI30
  0
LINE
  8
0
  6
LTYPE4
 62
     2
 10
1105.565630435
 20
595.937322861
 30
0.0
 11
1118.50658269
 21
644.233614175
 31
0.0
  0
ARC
  8
0
  6
LTYPE1
 62
     1
 10
1112.243161798
 20
620.858209179
 30
0.0
 40
16.0
 50
255.0
 51
129.340912304
  0
ARC
  8
0
  6
CONTINUOUS
 62
     1
 10
1112.243161798
 20
620.858209179
 30
0.0
 40
16.0
 50
129.340912304
 51
200.659087696
  0
LINE
  8
0
  6
CONTINUOUS
 62
     1
 10
1104.4166651
 20
605.172287425
 30
0.0
 11
1101.42137386
 21
593.993708331
 31
0.0
  0
LINE
  8
0
  6
CONTINUOUS
 62
     1
 10
1096.454330495
 20
608.297928225
 30
0.0
 11
1083.699404429
 21
560.695896098
 31
0.0
  0
LINE
  8
0
  6
CONTINUOUS
 62
     1
 10
1103.728803777
 20
604.537005668
 30
0.0
 11
1100.938410947
 21
594.123117854
 31
0.0
  0
LINE
  8
0
  6
LTYPE3
 62
     2
 10
1094.316559989
 20
604.956104049
 30
0.0
 11
1112.862335854
 21
599.986778383
 31
0.0
  0
LINE
  8
0
  6
LTYPE1
 62
     2
 10
1105.950707149
 20
610.897410291
 30
0.0
 11
1112.712187933
 21
609.085676975
 31
0.0
  0
LINE
  8
0
  6
LTYPE1
 62
     2
 10
1112.712187933
 20
609.085676975
 30
0.0
 11
1110.762957
 21
601.811048096
 31
0.0
  0
ARC
  8
0
  6
LTYPE1
 62
     1
 10
1112.243161798
 20
620.858209179
 30
0.0
 40
16.0
 50
200.659087696
 51
255.0
  0
LINE
  8
0
  6
LTYPE1
 62
     2
 10
1105.950707149
 20
610.897410291
 30
0.0
 11
1104.4166651
 21
605.172287425
 31
0.0
  0
LINE
  8
0
  6
LTYPE1
 62
     1
 10
1096.769766206
 20
609.475150326
 30
0.0
 11
1096.454330495
 21
608.297928225
 31
0.0
  0
LINE
  8
0
  6
LTYPE1
 62
     1
 10
1104.497172817
 20
607.404597965
 30
0.0
 11
1103.728803777
 21
604.537005668
 31
0.0
  0
LINE
  8
0
  6
LTYPE4
 62
     2
 10
1095.04968209
 20
625.465188182
 30
0.0
 11
1251.738497148
 21
583.480546724
 31
0.0
  0
LINE
  8
0
  6
CONTINUOUS
 62
     1
 10
1096.32147847
 20
611.665821024
 30
0.0
 11
1216.646104632
 21
554.578306284
 31
0.0
  0
LINE
  8
0
  6
CONTINUOUS
 62
     1
 10
1096.32147847
 20
611.665821024
 30
0.0
 11
1103.050773643
 21
636.779892507
 31
0.0
  0
LINE
  8
0
  6
LTYPE1
 62
     1
 10
1096.769766206
 20
609.475150326
 30
0.0
 11
1106.34853065
 21
606.908528129
 31
0.0
  0
CIRCLE
  8
0
  6
CONTINUOUS
 62
     1
 10
1112.243161798
 20
620.858209179
 30
0.0
 40
6.49995
  0
LINE
  8
0
  6
CONTINUOUS
 62
     1
 10
1110.306119602
 20
628.10648148
 30
0.0
 11
1105.004455701
 21
622.797814632
 31
0.0
  0
CIRCLE
  8
0
  6
LTYPE1
 62
     2
 10
1112.243161798
 20
620.858209179
 30
0.0
 40
3.2
  0
CIRCLE
  8
0
  6
CONTINUOUS
 62
     1
 10
1112.243161798
 20
620.858209179
 30
0.0
 40
4.0
  0
LINE
  8
0
  6
CONTINUOUS
 62
     1
 10
1117.544825699
 20
626.166876027
 30
0.0
 11
1119.481867896
 21
618.918603726
 31
0.0
  0
LINE
  8
0
  6
CONTINUOUS
 62
     1
 10
1117.544825699
 20
626.166876027
 30
0.0
 11
1110.306119602
 21
628.10648148
 31
0.0
  0
LINE
  8
0
  6
LTYPE1
 62
     1
 10
1104.534337559
 20
638.452925115
 30
0.0
 11
1104.849773271
 21
639.630147215
 31
0.0
  0
LINE
  8
0
  6
LTYPE3
 62
     2
 10
1102.35109981
 20
644.214302808
 30
0.0
 11
1123.215097658
 21
638.623811434
 31
0.0
  0
LINE
  8
0
  6
LTYPE1
 62
     2
 10
1111.774135664
 20
632.630741383
 30
0.0
 11
1118.535616448
 21
630.819008067
 31
0.0
  0
LINE
  8
0
  6
LTYPE1
 62
     2
 10
1120.484847381
 20
638.093636946
 30
0.0
 11
1118.535616448
 21
630.819008067
 31
0.0
  0
LINE
  8
0
  6
CONTINUOUS
 62
     1
 10
1113.03011321
 20
639.249965051
 30
0.0
 11
1115.82050604
 21
649.663852865
 31
0.0
  0
LINE
  8
0
  6
CONTINUOUS
 62
     1
 10
1104.849773271
 20
639.630147215
 30
0.0
 11
1117.604699337
 21
687.232179342
 31
0.0
  0
LINE
  8
0
  6
LTYPE1
 62
     1
 10
1112.26174417
 20
636.382372754
 30
0.0
 11
1113.03011321
 21
639.249965051
 31
0.0
  0
LINE
  8
0
  6
CONTINUOUS
 62
     1
 10
1114.180203995
 20
613.609936878
 30
0.0
 11
1106.941497897
 21
615.549542331
 31
0.0
  0
LINE
  8
0
  6
CONTINUOUS
 62
     1
 10
1106.941497897
 20
615.549542331
 30
0.0
 11
1105.004455701
 21
622.797814632
 31
0.0
  0
LINE
  8
0
  6
CONTINUOUS
 62
     1
 10
1114.180203995
 20
613.609936878
 30
0.0
 11
1119.481867896
 21
618.918603726
 31
0.0
  0
LINE
  8
0
  6
LTYPE1
 62
     1
 10
1104.534337559
 20
638.452925115
 30
0.0
 11
1114.113102004
 21
635.886302917
 31
0.0
  0
LINE
  8
0
  6
CONTINUOUS
 62
     1
 10
1116.303468953
 20
649.534443343
 30
0.0
 11
1112.744707083
 21
636.252963231
 31
0.0
  0
LINE
  8
0
  6
LTYPE1
 62
     2
 10
1113.308177712
 20
638.355864249
 30
0.0
 11
1112.744707083
 21
636.252963231
 31
0.0
  0
LINE
  8
0
  6
CONTINUOUS
 62
     1
 10
1101.42137386
 20
593.993708331
 30
0.0
 11
1108.182854644
 21
592.181975015
 31
0.0
  0
LINE
  8
0
  6
CONTINUOUS
 62
     1
 10
1100.841818364
 20
594.148999758
 30
0.0
 11
1100.476186432
 21
584.67066587
 31
0.0
  0
LINE
  8
0
  6
CONTINUOUS
 62
     1
 10
1130.493549455
 20
530.557747661
 30
0.0
 11
1136.289104413
 21
529.00483339
 31
0.0
  0
LINE
  8
0
  6
LTYPE3
 62
     2
 10
1136.210596289
 20
538.757465675
 30
0.0
 11
1090.812082453
 21
550.921960795
 31
0.0
  0
LINE
  8
0
  6
LTYPE3
 62
     2
 10
1099.594343441
 20
579.834101703
 30
0.0
 11
1144.992857277
 21
567.669606584
 31
0.0
  0
LINE
  8
0
  6
CONTINUOUS
 62
     1
 10
1142.010996962
 20
573.541446931
 30
0.0
 11
1131.658235158
 21
534.904413879
 31
0.0
  0
LINE
  8
0
  6
CONTINUOUS
 62
     1
 10
1131.658235158
 20
534.904413879
 30
0.0
 11
1131.754827741
 21
534.878531975
 31
0.0
  0
LINE
  8
0
  6
CONTINUOUS
 62
     1
 10
1093.021202107
 20
545.257175683
 30
0.0
 11
1131.658235158
 21
534.904413879
 31
0.0
  0
LINE
  8
0
  6
CONTINUOUS
 62
     1
 10
1142.010996962
 20
573.541446931
 30
0.0
 11
1103.373963911
 21
583.894208735
 31
0.0
  0
LINE
  8
0
  6
LTYPE3
 62
     2
 10
1082.163214292
 20
568.872088358
 30
0.0
 11
1138.186912217
 21
553.860583742
 31
0.0
  0
LINE
  8
0
  6
CONTINUOUS
 62
     1
 10
1100.476186432
 20
584.67066587
 30
0.0
 11
1097.240948368
 21
572.596593042
 31
0.0
  0
LINE
  8
0
  6
CONTINUOUS
 62
     1
 10
1114.683093525
 20
571.23586811
 30
0.0
 11
1109.144365959
 21
550.565055427
 31
0.0
  0
ARC
  8
0
  6
CONTINUOUS
 62
     1
 10
1116.614945177
 20
570.71823002
 30
0.0
 40
2.0
 50
75.0
 51
165.0
  0
LINE
  8
0
  6
CONTINUOUS
 62
     1
 10
1110.558579522
 20
548.115565685
 30
0.0
 11
1131.229392204
 21
542.576838119
 31
0.0
  0
ARC
  8
0
  6
CONTINUOUS
 62
     1
 10
1131.747030295
 20
544.508689772
 30
0.0
 40
2.0
 50
255.0
 51
345.0
  0
LINE
  8
0
  6
LTYPE3
 62
     2
 10
1120.5316392
 20
543.993905745
 30
0.0
 11
1127.882100081
 21
571.426199212
 31
0.0
  0
LINE
  8
0
  6
CONTINUOUS
 62
     1
 10
1087.581690105
 20
575.184783493
 30
0.0
 11
1113.85487258
 21
568.144905466
 31
0.0
  0
LINE
  8
0
  6
CONTINUOUS
 62
     1
 10
1108.203593042
 20
582.600113509
 30
0.0
 11
1104.942473074
 21
570.429448098
 31
0.0
  0
LINE
  8
0
  6
CONTINUOUS
 62
     1
 10
1103.373963911
 20
583.894208735
 30
0.0
 11
1100.138725847
 21
571.820135906
 31
0.0
  0
LINE
  8
0
  6
CONTINUOUS
 62
     1
 10
1110.762957
 20
601.811048096
 30
0.0
 11
1108.182854644
 21
592.181975015
 31
0.0
  0
LINE
  8
0
  6
CONTINUOUS
 62
     1
 10
1117.132583267
 20
572.650081672
 30
0.0
 11
1137.80339595
 21
567.111354107
 31
0.0
  0
LINE
  8
0
  6
CONTINUOUS
 62
     1
 10
1139.217609512
 20
564.661864364
 30
0.0
 11
1133.678881947
 21
543.991051682
 31
0.0
  0
LINE
  8
0
  6
CONTINUOUS
 62
     1
 10
1151.431994269
 20
585.518867708
 30
0.0
 11
1136.289104413
 21
529.00483339
 31
0.0
  0
LINE
  8
0
  6
CONTINUOUS
 62
     1
 10
1130.493549455
 20
530.557747661
 30
0.0
 11
1145.92094269
 21
588.133563039
 31
0.0
  0
LINE
  8
0
  6
CONTINUOUS
 62
     1
 10
1235.798713969
 20
626.05681743
 30
0.0
 11
1103.050773643
 21
636.779892507
 31
0.0
  0
LINE
  8
0
  6
CONTINUOUS
 62
     1
 10
1096.32147847
 20
611.665821024
 30
0.0
 11
1103.050773643
 21
636.779892507
 31
0.0
  0
LINE
  8
0
  6
CONTINUOUS
 62
     1
 10
1116.303468953
 20
649.534443343
 30
0.0
 11
1123.064949737
 21
647.722710027
 31
0.0
  0
LINE
  8
0
  6
CONTINUOUS
 62
     1
 10
1115.723913457
 20
649.68973477
 30
0.0
 11
1120.14643386
 21
658.081028668
 31
0.0
  0
LINE
  8
0
  6
CONTINUOUS
 62
     1
 10
1123.064949737
 20
647.722710027
 30
0.0
 11
1119.770934066
 21
635.429276181
 31
0.0
  0
LINE
  8
0
  6
CONTINUOUS
 62
     1
 10
1113.722413661
 20
672.743291948
 30
0.0
 11
1126.279449402
 21
669.378644362
 31
0.0
  0
LINE
  8
0
  6
CONTINUOUS
 62
     1
 10
1120.14643386
 20
658.081028668
 30
0.0
 11
1123.381671923
 21
670.155101497
 31
0.0
  0
LINE
  8
0
  6
CONTINUOUS
 62
     1
 10
1097.240948368
 20
572.596593042
 30
0.0
 11
1093.358662692
 21
558.107705647
 31
0.0
  0
ARC
  8
0
  6
CONTINUOUS
 62
     1
 10
1111.076217612
 20
550.047417337
 30
0.0
 40
2.0
 50
165.0
 51
255.0
  0
LINE
  8
0
  6
CONTINUOUS
 62
     1
 10
1101.086069302
 20
556.037153286
 30
0.0
 11
1097.850831238
 21
543.963080458
 31
0.0
  0
LINE
  8
0
  6
CONTINUOUS
 62
     1
 10
1096.230558266
 20
557.234655929
 30
0.0
 11
1093.021202107
 21
545.257175683
 31
0.0
  0
LINE
  8
0
  6
CONTINUOUS
 62
     1
 10
1083.699404429
 20
560.695896098
 30
0.0
 11
1109.972586904
 21
553.656018072
 31
0.0
  0
LINE
  8
0
  6
CONTINUOUS
 62
     1
 10
1138.226602274
 20
694.647509359
 30
0.0
 11
1127.87384047
 21
656.010476307
 31
0.0
  0
LINE
  8
0
  6
CONTINUOUS
 62
     1
 10
1136.914254054
 20
689.749759125
 30
0.0
 11
1127.87384047
 21
656.010476307
 31
0.0
  0
LINE
  8
0
  6
CONTINUOUS
 62
     1
 10
1133.396973143
 20
695.941604584
 30
0.0
 11
1123.044211339
 21
657.304571533
 31
0.0
  0
LINE
  8
0
  6
CONTINUOUS
 62
     1
 10
1117.604699337
 20
687.232179342
 30
0.0
 11
1130.161735079
 21
683.867531756
 31
0.0
  0
LINE
  8
0
  6
LTYPE3
 62
     2
 10
1166.233605521
 20
650.804861524
 30
0.0
 11
1120.835091685
 21
662.969356644
 31
0.0
  0
LINE
  8
0
  6
CONTINUOUS
 62
     1
 10
1123.044211339
 20
657.304571533
 30
0.0
 11
1161.68124439
 21
646.951809729
 31
0.0
  0
LINE
  8
0
  6
CONTINUOUS
 62
     1
 10
1305.575
 20
639.4
 30
0.0
 11
1305.575
 21
751.4
 31
0.0
  0
CIRCLE
  8
0
  6
CONTINUOUS
 62
     1
 10
1244.575
 20
695.4
 30
0.0
 40
57.0
  0
CIRCLE
  8
0
  6
CONTINUOUS
 62
     1
 10
1244.575
 20
695.4
 30
0.0
 40
42.0
  0
CIRCLE
  8
0
  6
CONTINUOUS
 62
     1
 10
1244.575
 20
695.4
 30
0.0
 40
36.5
  0
CIRCLE
  8
0
  6
CONTINUOUS
 62
     1
 10
1244.575
 20
695.4
 30
0.0
 40
15.5
  0
LINE
  8
0
  6
CONTINUOUS
 62
     1
 10
1249.527830189
 20
712.184500979
 30
0.0
 11
1273.905188679
 21
704.991143417
 31
0.0
  0
LINE
  8
0
  6
CONTINUOUS
 62
     1
 10
1249.527830189
 20
678.615499021
 30
0.0
 11
1273.905188679
 21
685.808856583
 31
0.0
  0
ARC
  8
0
  6
CONTINUOUS
 62
     1
 10
1271.075
 20
695.4
 30
0.0
 40
10.0
 50
0.0
 51
150.0
  0
ARC
  8
0
  6
CONTINUOUS
 62
     1
 10
1271.075
 20
695.4
 30
0.0
 40
10.0
 50
210.0
 51
0.0
  0
LINE
  8
0
  6
CONTINUOUS
 62
     1
 10
1259.246400751
 20
690.4
 30
0.0
 11
1262.414745962
 21
690.4
 31
0.0
  0
LINE
  8
0
  6
CONTINUOUS
 62
     1
 10
1259.246400751
 20
700.4
 30
0.0
 11
1262.414745962
 21
700.4
 31
0.0
  0
ARC
  8
0
  6
LTYPE2
 62
     2
 10
1244.575
 20
695.4
 30
0.0
 40
26.5
 50
345.963756532
 51
14.715071651
  0
LINE
  8
0
  6
CONTINUOUS
 62
     1
 10
1239.622169811
 20
712.184500979
 30
0.0
 11
1215.244811321
 21
704.991143417
 31
0.0
  0
LINE
  8
0
  6
CONTINUOUS
 62
     1
 10
1239.622169811
 20
678.615499021
 30
0.0
 11
1215.244811321
 21
685.808856583
 31
0.0
  0
ARC
  8
0
  6
CONTINUOUS
 62
     1
 10
1218.075
 20
695.4
 30
0.0
 40
10.0
 50
30.0
 51
180.0
  0
ARC
  8
0
  6
CONTINUOUS
 62
     1
 10
1218.075
 20
695.4
 30
0.0
 40
10.0
 50
180.0
 51
330.0
  0
LINE
  8
0
  6
CONTINUOUS
 62
     1
 10
1229.903599249
 20
690.4
 30
0.0
 11
1226.735254038
 21
690.4
 31
0.0
  0
LINE
  8
0
  6
CONTINUOUS
 62
     1
 10
1229.903599249
 20
700.4
 30
0.0
 11
1226.735254038
 21
700.4
 31
0.0
  0
ARC
  8
0
  6
LTYPE2
 62
     2
 10
1244.575
 20
695.4
 30
0.0
 40
26.5
 50
165.284928349
 51
194.036243468
  0
ARC
  8
0
  6
CONTINUOUS
 62
     1
 10
1244.575
 20
695.4
 30
0.0
 40
17.5
 50
16.601549599
 51
163.398450401
  0
ARC
  8
0
  6
CONTINUOUS
 62
     1
 10
1244.575
 20
695.4
 30
0.0
 40
17.5
 50
196.601549599
 51
343.398450401
  0
ARC
  8
0
  6
LTYPE2
 62
     2
 10
1244.575
 20
695.4
 30
0.0
 40
25.0
 50
63.434948823
 51
114.623564786
  0
ARC
  8
0
  6
LTYPE2
 62
     2
 10
1244.575
 20
695.4
 30
0.0
 40
25.0
 50
245.376435214
 51
296.565051177
  0
ARC
  8
0
  6
LTYPE2
 62
     2
 10
1244.575
 20
695.4
 30
0.0
 40
51.0
 50
307.303948278
 51
325.097504384
  0
LINE
  8
0
  6
LTYPE2
 62
     2
 10
1276.575
 20
663.4
 30
0.0
 11
1285.575
 21
654.4
 31
0.0
  0
ARC
  8
0
  6
LTYPE2
 62
     2
 10
1244.575
 20
695.4
 30
0.0
 40
51.0
 50
217.303948278
 51
235.097504384
  0
LINE
  8
0
  6
LTYPE2
 62
     2
 10
1212.575
 20
663.4
 30
0.0
 11
1203.575
 21
654.4
 31
0.0
  0
CIRCLE
  8
0
  6
CONTINUOUS
 62
     6
 10
1244.575
 20
720.4
 30
0.0
 40
3.999998
  0
LINE
  8
0
  6
CONTINUOUS
 62
     6
 10
1248.574998
 20
722.7058812
 30
0.0
 11
1248.574998
 21
718.0941188
 31
0.0
  0
LINE
  8
0
  6
CONTINUOUS
 62
     6
 10
1248.574998
 20
718.0941188
 30
0.0
 11
1244.575
 21
715.7882376
 31
0.0
  0
LINE
  8
0
  6
CONTINUOUS
 62
     6
 10
1240.575002
 20
722.7058812
 30
0.0
 11
1240.575002
 21
718.0941188
 31
0.0
  0
LINE
  8
0
  6
CONTINUOUS
 62
     6
 10
1240.575002
 20
718.0941188
 30
0.0
 11
1244.575
 21
715.7882376
 31
0.0
  0
LINE
  8
0
  6
CONTINUOUS
 62
     6
 10
1248.574998
 20
722.7058812
 30
0.0
 11
1244.575
 21
725.0117624
 31
0.0
  0
LINE
  8
0
  6
CONTINUOUS
 62
     6
 10
1240.575002
 20
722.7058812
 30
0.0
 11
1244.575
 21
725.0117624
 31
0.0
  0
CIRCLE
  8
0
  6
CONTINUOUS
 62
     6
 10
1244.575
 20
670.4
 30
0.0
 40
3.999998
  0
LINE
  8
0
  6
CONTINUOUS
 62
     6
 10
1248.574998
 20
668.0941188
 30
0.0
 11
1248.574998
 21
672.7058812
 31
0.0
  0
LINE
  8
0
  6
CONTINUOUS
 62
     6
 10
1248.574998
 20
672.7058812
 30
0.0
 11
1244.575
 21
675.0117624
 31
0.0
  0
LINE
  8
0
  6
CONTINUOUS
 62
     6
 10
1240.575002
 20
668.0941188
 30
0.0
 11
1240.575002
 21
672.7058812
 31
0.0
  0
LINE
  8
0
  6
CONTINUOUS
 62
     6
 10
1240.575002
 20
672.7058812
 30
0.0
 11
1244.575
 21
675.0117624
 31
0.0
  0
LINE
  8
0
  6
CONTINUOUS
 62
     6
 10
1248.574998
 20
668.0941188
 30
0.0
 11
1244.575
 21
665.7882376
 31
0.0
  0
LINE
  8
0
  6
CONTINUOUS
 62
     6
 10
1240.575002
 20
668.0941188
 30
0.0
 11
1244.575
 21
665.7882376
 31
0.0
  0
CIRCLE
  8
0
  6
CONTINUOUS
 62
     6
 10
1218.075
 20
695.4
 30
0.0
 40
3.5
  0
LINE
  8
0
  6
CONTINUOUS
 62
     6
 10
1214.567597115
 20
697.425
 30
0.0
 11
1218.075
 21
699.45
 31
0.0
  0
LINE
  8
0
  6
CONTINUOUS
 62
     6
 10
1218.075
 20
699.45
 30
0.0
 11
1221.582402885
 21
697.425
 31
0.0
  0
LINE
  8
0
  6
CONTINUOUS
 62
     6
 10
1221.582402885
 20
697.425
 30
0.0
 11
1221.582402885
 21
693.375
 31
0.0
  0
LINE
  8
0
  6
CONTINUOUS
 62
     6
 10
1214.567597115
 20
693.375
 30
0.0
 11
1214.567597115
 21
697.425
 31
0.0
  0
LINE
  8
0
  6
CONTINUOUS
 62
     6
 10
1221.582402885
 20
693.375
 30
0.0
 11
1218.075
 21
691.35
 31
0.0
  0
LINE
  8
0
  6
CONTINUOUS
 62
     6
 10
1218.075
 20
691.35
 30
0.0
 11
1214.567597115
 21
693.375
 31
0.0
  0
CIRCLE
  8
0
  6
CONTINUOUS
 62
     6
 10
1271.075
 20
695.4
 30
0.0
 40
3.5
  0
LINE
  8
0
  6
CONTINUOUS
 62
     6
 10
1274.582402885
 20
697.425
 30
0.0
 11
1271.075
 21
699.45
 31
0.0
  0
LINE
  8
0
  6
CONTINUOUS
 62
     6
 10
1271.075
 20
699.45
 30
0.0
 11
1267.567597115
 21
697.425
 31
0.0
  0
LINE
  8
0
  6
CONTINUOUS
 62
     6
 10
1267.567597115
 20
697.425
 30
0.0
 11
1267.567597115
 21
693.375
 31
0.0
  0
LINE
  8
0
  6
CONTINUOUS
 62
     6
 10
1267.567597115
 20
693.375
 30
0.0
 11
1271.075
 21
691.35
 31
0.0
  0
LINE
  8
0
  6
CONTINUOUS
 62
     6
 10
1271.075
 20
691.35
 30
0.0
 11
1274.582402885
 21
693.375
 31
0.0
  0
LINE
  8
0
  6
CONTINUOUS
 62
     6
 10
1274.582402885
 20
693.375
 30
0.0
 11
1274.582402885
 21
697.425
 31
0.0
  0
LINE
  8
0
  6
CONTINUOUS
 62
     6
 10
1276.637447841
 20
657.031672959
 30
0.0
 11
1276.637447841
 21
661.643435359
 31
0.0
  0
LINE
  8
0
  6
CONTINUOUS
 62
     6
 10
1284.637443841
 20
661.643435359
 30
0.0
 11
1280.637445841
 21
663.949316559
 31
0.0
  0
LINE
  8
0
  6
CONTINUOUS
 62
     6
 10
1276.637447841
 20
661.643435359
 30
0.0
 11
1280.637445841
 21
663.949316559
 31
0.0
  0
LINE
  8
0
  6
CONTINUOUS
 62
     6
 10
1284.637443841
 20
657.031672959
 30
0.0
 11
1284.637443841
 21
661.643435359
 31
0.0
  0
CIRCLE
  8
0
  6
CONTINUOUS
 62
     6
 10
1280.637445841
 20
659.337554159
 30
0.0
 40
3.999998
  0
LINE
  8
0
  6
CONTINUOUS
 62
     6
 10
1210.818435359
 20
655.337556159
 30
0.0
 11
1213.124316559
 21
659.337554159
 31
0.0
  0
LINE
  8
0
  6
CONTINUOUS
 62
     6
 10
1210.818435359
 20
663.337552159
 30
0.0
 11
1213.124316559
 21
659.337554159
 31
0.0
  0
LINE
  8
0
  6
CONTINUOUS
 62
     6
 10
1206.206672959
 20
663.337552159
 30
0.0
 11
1210.818435359
 21
663.337552159
 31
0.0
  0
LINE
  8
0
  6
CONTINUOUS
 62
     6
 10
1206.206672959
 20
655.337556159
 30
0.0
 11
1203.900791759
 21
659.337554159
 31
0.0
  0
LINE
  8
0
  6
CONTINUOUS
 62
     6
 10
1206.206672959
 20
663.337552159
 30
0.0
 11
1203.900791759
 21
659.337554159
 31
0.0
  0
CIRCLE
  8
0
  6
CONTINUOUS
 62
     6
 10
1208.512554159
 20
659.337554159
 30
0.0
 40
3.999998
  0
LINE
  8
0
  6
LTYPE3
 62
     2
 10
1172.575
 20
695.4
 30
0.0
 11
1312.092857143
 21
695.4
 31
0.0
  0
LINE
  8
0
  6
LTYPE2
 62
     2
 10
1244.575
 20
484.353571429
 30
0.0
 11
1244.575
 21
828.353571429
 31
0.0
  0
LINE
  8
7
  6
CONTINUOUS
 62
     2
 10
1358.575
 20
708.4
 30
0.0
 11
1358.575
 21
562.4
 31
0.0
  0
LINE
  8
7
  6
CONTINUOUS
 62
     2
 10
1361.575
 20
695.4
 30
0.0
 11
1396.575
 21
695.4
 31
0.0
  0
ARC
  8
0
  6
CONTINUOUS
 62
     1
 10
1300.575
 20
751.4
 30
0.0
 40
5.0
 50
0.0
 51
90.0
  0
ARC
  8
0
  6
CONTINUOUS
 62
     1
 10
1188.575
 20
751.4
 30
0.0
 40
5.0
 50
90.0
 51
180.0
  0
ARC
  8
0
  6
LTYPE2
 62
     2
 10
1244.575
 20
695.4
 30
0.0
 40
51.0
 50
34.902495616
 51
52.696051722
  0
LINE
  8
0
  6
LTYPE2
 62
     2
 10
1276.575
 20
727.4
 30
0.0
 11
1285.575
 21
736.4
 31
0.0
  0
ARC
  8
0
  6
LTYPE2
 62
     2
 10
1244.575
 20
695.4
 30
0.0
 40
51.0
 50
124.902495616
 51
142.696051722
  0
LINE
  8
0
  6
LTYPE2
 62
     2
 10
1212.575
 20
727.4
 30
0.0
 11
1203.575
 21
736.4
 31
0.0
  0
LINE
  8
0
  6
LTYPE2
 62
     2
 10
1286.575
 20
746.4
 30
0.0
 11
1303.575
 21
746.4
 31
0.0
  0
LINE
  8
0
  6
LTYPE2
 62
     2
 10
1295.575
 20
754.4
 30
0.0
 11
1295.575
 21
737.9
 31
0.0
  0
LINE
  8
0
  6
LTYPE2
 62
     2
 10
1202.575
 20
746.4
 30
0.0
 11
1185.575
 21
746.4
 31
0.0
  0
LINE
  8
0
  6
LTYPE2
 62
     2
 10
1193.575
 20
754.4
 30
0.0
 11
1193.575
 21
737.9
 31
0.0
  0
LINE
  8
0
  6
CONTINUOUS
 62
     1
 10
1274.575
 20
765.4
 30
0.0
 11
1274.575
 21
768.4
 31
0.0
  0
ARC
  8
0
  6
CONTINUOUS
 62
     1
 10
1270.575
 20
762.4
 30
0.0
 40
3.0
 50
90.0
 51
180.0
  0
LINE
  8
0
  6
CONTINUOUS
 62
     1
 10
1267.575
 20
751.553619242
 30
0.0
 11
1267.575
 21
762.4
 31
0.0
  0
ARC
  8
0
  6
CONTINUOUS
 62
     1
 10
1263.575
 20
751.553619242
 30
0.0
 40
4.0
 50
304.936144888
 51
0.0
  0
ARC
  8
0
  6
CONTINUOUS
 62
     1
 10
1218.575
 20
762.4
 30
0.0
 40
3.0
 50
0.0
 51
90.0
  0
LINE
  8
0
  6
CONTINUOUS
 62
     1
 10
1221.575
 20
751.553619242
 30
0.0
 11
1221.575
 21
762.4
 31
0.0
  0
ARC
  8
0
  6
CONTINUOUS
 62
     1
 10
1225.575
 20
751.553619242
 30
0.0
 40
4.0
 50
180.0
 51
235.063855112
  0
LINE
  8
0
  6
CONTINUOUS
 62
     1
 10
1267.575
 20
756.4
 30
0.0
 11
1300.575
 21
756.4
 31
0.0
  0
LINE
  8
0
  6
CONTINUOUS
 62
     1
 10
1188.575
 20
756.4
 30
0.0
 11
1221.575
 21
756.4
 31
0.0
  0
CIRCLE
  8
0
  6
CONTINUOUS
 62
     1
 10
1244.575
 20
790.4
 30
0.0
 40
17.0
  0
LINE
  8
0
  6
LTYPE2
 62
     2
 10
1221.575
 20
790.4
 30
0.0
 11
1267.575
 21
790.4
 31
0.0
  0
ARC
  8
0
  6
CONTINUOUS
 62
     1
 10
1202.575
 20
812.420045888
 30
0.0
 40
2.0
 50
90.0
 51
180.0
  0
ARC
  8
0
  6
CONTINUOUS
 62
     1
 10
1210.575
 20
818.4
 30
0.0
 40
2.0
 50
90.0
 51
180.0
  0
LINE
  8
0
  6
CONTINUOUS
 62
     1
 10
1210.575
 20
820.4
 30
0.0
 11
1278.575
 21
820.4
 31
0.0
  0
ARC
  8
0
  6
CONTINUOUS
 62
     1
 10
1278.575
 20
818.4
 30
0.0
 40
2.0
 50
0.0
 51
90.0
  0
LINE
  8
0
  6
CONTINUOUS
 62
     1
 10
1286.575
 20
814.420045888
 30
0.0
 11
1202.575
 21
814.420045888
 31
0.0
  0
ARC
  8
0
  6
CONTINUOUS
 62
     1
 10
1286.575
 20
812.420045888
 30
0.0
 40
2.0
 50
0.0
 51
90.0
  0
ARC
  8
0
  6
CONTINUOUS
 62
     1
 10
1202.575
 20
816.420045888
 30
0.0
 40
2.0
 50
90.0
 51
180.0
  0
ARC
  8
0
  6
CONTINUOUS
 62
     1
 10
1210.575
 20
809.4
 30
0.0
 40
2.0
 50
90.0
 51
180.0
  0
LINE
  8
0
  6
CONTINUOUS
 62
     1
 10
1210.575
 20
811.4
 30
0.0
 11
1278.575
 21
811.4
 31
0.0
  0
ARC
  8
0
  6
CONTINUOUS
 62
     1
 10
1278.575
 20
809.4
 30
0.0
 40
2.0
 50
0.0
 51
90.0
  0
LINE
  8
0
  6
CONTINUOUS
 62
     1
 10
1286.575
 20
818.420045888
 30
0.0
 11
1202.575
 21
818.420045888
 31
0.0
  0
ARC
  8
0
  6
CONTINUOUS
 62
     1
 10
1286.575
 20
816.420045888
 30
0.0
 40
2.0
 50
0.0
 51
90.0
  0
LINE
  8
0
  6
CONTINUOUS
 62
     1
 10
1214.575
 20
765.4
 30
0.0
 11
1274.575
 21
765.4
 31
0.0
  0
LINE
  8
0
  6
CONTINUOUS
 62
     1
 10
1214.575
 20
765.4
 30
0.0
 11
1214.575
 21
768.4
 31
0.0
  0
LINE
  8
0
  6
CONTINUOUS
 62
     1
 10
1280.575
 20
770.4
 30
0.0
 11
1286.575
 21
770.4
 31
0.0
  0
LINE
  8
0
  6
CONTINUOUS
 62
     1
 10
1288.575
 20
772.4
 30
0.0
 11
1288.575
 21
816.420045888
 31
0.0
  0
ARC
  8
0
  6
CONTINUOUS
 62
     1
 10
1286.575
 20
772.4
 30
0.0
 40
2.0
 50
270.0
 51
0.0
  0
LINE
  8
0
  6
CONTINUOUS
 62
     1
 10
1280.575
 20
770.4
 30
0.0
 11
1280.575
 21
809.4
 31
0.0
  0
ARC
  8
0
  6
CONTINUOUS
 62
     1
 10
1278.575
 20
770.4
 30
0.0
 40
2.0
 50
270.0
 51
0.0
  0
LINE
  8
0
  6
CONTINUOUS
 62
     1
 10
1208.575
 20
770.4
 30
0.0
 11
1208.575
 21
809.4
 31
0.0
  0
LINE
  8
0
  6
CONTINUOUS
 62
     1
 10
1210.575
 20
768.4
 30
0.0
 11
1278.575
 21
768.4
 31
0.0
  0
ARC
  8
0
  6
CONTINUOUS
 62
     1
 10
1210.575
 20
770.4
 30
0.0
 40
2.0
 50
180.0
 51
270.0
  0
LINE
  8
0
  6
CONTINUOUS
 62
     1
 10
1208.575
 20
770.4
 30
0.0
 11
1202.575
 21
770.4
 31
0.0
  0
LINE
  8
0
  6
CONTINUOUS
 62
     1
 10
1200.575
 20
772.4
 30
0.0
 11
1200.575
 21
816.420045888
 31
0.0
  0
ARC
  8
0
  6
CONTINUOUS
 62
     1
 10
1202.575
 20
772.4
 30
0.0
 40
2.0
 50
180.0
 51
270.0
  0
CIRCLE
  8
0
  6
CONTINUOUS
 62
     2
 10
1244.575
 20
790.4
 30
0.0
 40
15.0
  0
LINE
  8
0
  6
CONTINUOUS
 62
     6
 10
1187.07505
 20
750.14703
 30
0.0
 11
1187.07505
 21
742.65297
 31
0.0
  0
LINE
  8
0
  6
CONTINUOUS
 62
     6
 10
1200.07495
 20
750.14703
 30
0.0
 11
1200.07495
 21
742.65297
 31
0.0
  0
LINE
  8
0
  6
CONTINUOUS
 62
     6
 10
1187.07505
 20
750.14703
 30
0.0
 11
1193.575
 21
753.89406
 31
0.0
  0
LINE
  8
0
  6
CONTINUOUS
 62
     6
 10
1200.07495
 20
750.14703
 30
0.0
 11
1193.575
 21
753.89406
 31
0.0
  0
LINE
  8
0
  6
CONTINUOUS
 62
     6
 10
1187.07505
 20
742.65297
 30
0.0
 11
1193.575
 21
738.90594
 31
0.0
  0
CIRCLE
  8
0
  6
CONTINUOUS
 62
     6
 10
1193.575
 20
746.4
 30
0.0
 40
6.49995
  0
LINE
  8
0
  6
CONTINUOUS
 62
     6
 10
1200.07495
 20
742.65297
 30
0.0
 11
1193.575
 21
738.90594
 31
0.0
  0
LINE
  8
0
  6
CONTINUOUS
 62
     6
 10
1206.206672959
 20
735.462443841
 30
0.0
 11
1210.818435359
 21
735.462443841
 31
0.0
  0
LINE
  8
0
  6
CONTINUOUS
 62
     6
 10
1210.818435359
 20
735.462443841
 30
0.0
 11
1213.124316559
 21
731.462445841
 31
0.0
  0
LINE
  8
0
  6
CONTINUOUS
 62
     6
 10
1210.818435359
 20
727.462447841
 30
0.0
 11
1213.124316559
 21
731.462445841
 31
0.0
  0
LINE
  8
0
  6
CONTINUOUS
 62
     6
 10
1206.206672959
 20
735.462443841
 30
0.0
 11
1203.900791759
 21
731.462445841
 31
0.0
  0
LINE
  8
0
  6
CONTINUOUS
 62
     6
 10
1206.206672959
 20
727.462447841
 30
0.0
 11
1203.900791759
 21
731.462445841
 31
0.0
  0
LINE
  8
0
  6
CONTINUOUS
 62
     6
 10
1206.206672959
 20
727.462447841
 30
0.0
 11
1210.818435359
 21
727.462447841
 31
0.0
  0
CIRCLE
  8
0
  6
CONTINUOUS
 62
     6
 10
1208.512554159
 20
731.462445841
 30
0.0
 40
3.999998
  0
LINE
  8
0
  6
CONTINUOUS
 62
     6
 10
1284.637443841
 20
733.768327041
 30
0.0
 11
1280.637445841
 21
736.074208241
 31
0.0
  0
LINE
  8
0
  6
CONTINUOUS
 62
     6
 10
1276.637447841
 20
733.768327041
 30
0.0
 11
1280.637445841
 21
736.074208241
 31
0.0
  0
LINE
  8
0
  6
CONTINUOUS
 62
     6
 10
1284.637443841
 20
733.768327041
 30
0.0
 11
1284.637443841
 21
729.156564641
 31
0.0
  0
LINE
  8
0
  6
CONTINUOUS
 62
     6
 10
1284.637443841
 20
729.156564641
 30
0.0
 11
1280.637445841
 21
726.850683441
 31
0.0
  0
LINE
  8
0
  6
CONTINUOUS
 62
     6
 10
1276.637447841
 20
729.156564641
 30
0.0
 11
1280.637445841
 21
726.850683441
 31
0.0
  0
LINE
  8
0
  6
CONTINUOUS
 62
     6
 10
1276.637447841
 20
733.768327041
 30
0.0
 11
1276.637447841
 21
729.156564641
 31
0.0
  0
CIRCLE
  8
0
  6
CONTINUOUS
 62
     6
 10
1280.637445841
 20
731.462445841
 30
0.0
 40
3.999998
  0
LINE
  8
0
  6
CONTINUOUS
 62
     6
 10
1289.07505
 20
750.14703
 30
0.0
 11
1289.07505
 21
742.65297
 31
0.0
  0
LINE
  8
0
  6
CONTINUOUS
 62
     6
 10
1289.07505
 20
742.65297
 30
0.0
 11
1295.575
 21
738.90594
 31
0.0
  0
LINE
  8
0
  6
CONTINUOUS
 62
     6
 10
1302.07495
 20
750.14703
 30
0.0
 11
1302.07495
 21
742.65297
 31
0.0
  0
LINE
  8
0
  6
CONTINUOUS
 62
     6
 10
1302.07495
 20
750.14703
 30
0.0
 11
1295.575
 21
753.89406
 31
0.0
  0
LINE
  8
0
  6
CONTINUOUS
 62
     6
 10
1289.07505
 20
750.14703
 30
0.0
 11
1295.575
 21
753.89406
 31
0.0
  0
LINE
  8
0
  6
CONTINUOUS
 62
     6
 10
1302.07495
 20
742.65297
 30
0.0
 11
1295.575
 21
738.90594
 31
0.0
  0
CIRCLE
  8
0
  6
CONTINUOUS
 62
     6
 10
1295.575
 20
746.4
 30
0.0
 40
6.49995
  0
LINE
  8
7
  6
CONTINUOUS
 62
     2
 10
1284.575
 20
820.4
 30
0.0
 11
1428.575
 21
820.4
 31
0.0
  0
LINE
  8
7
  6
CONTINUOUS
 62
     2
 10
1183.575
 20
757.400015259
 30
0.0
 11
1183.575
 21
851.4
 31
0.0
  0
LINE
  8
7
  6
CONTINUOUS
 62
     2
 10
1183.575
 20
845.4
 30
0.0
 11
1193.234258263
 21
842.811809549
 31
0.0
  0
LINE
  8
7
  6
CONTINUOUS
 62
     2
 10
1183.575
 20
845.4
 30
0.0
 11
1193.234258263
 21
847.988190451
 31
0.0
  0
LINE
  8
7
  6
CONTINUOUS
 62
     2
 10
1183.575
 20
845.4
 30
0.0
 11
1305.575
 21
845.4
 31
0.0
  0
LINE
  8
7
  6
CONTINUOUS
 62
     2
 10
1305.575
 20
845.4
 30
0.0
 11
1295.915741737
 21
847.988190451
 31
0.0
  0
LINE
  8
7
  6
CONTINUOUS
 62
     2
 10
1305.575
 20
845.4
 30
0.0
 11
1295.915741737
 21
842.811809549
 31
0.0
  0
LINE
  8
7
  6
CONTINUOUS
 62
     2
 10
1305.575
 20
757.400015259
 30
0.0
 11
1305.575
 21
851.4
 31
0.0
  0
TEXT
  8
7
  6
CONTINUOUS
 62
     2
 10
1354.575
 20
603.4
 30
0.0
 40
15.0
  1
φ１６Ｈ１０深２２
 50
90.0
 41
0.9
 51
0.0
  7
KANJI30
  0
TEXT
  8
7
  6
CONTINUOUS
 62
     2
 10
1227.175
 20
849.4
 30
0.0
 40
15.0
  1
１２２
 50
0.0
 41
0.9
 51
0.0
  7
KANJI30
  0
LINE
  8
0
  6
LTYPE3
 62
     2
 10
1149.358275031
 20
684.417853371
 30
0.0
 11
1142.628979858
 21
659.303781887
 31
0.0
  0
LINE
  8
0
  6
CONTINUOUS
 62
     1
 10
1148.495743407
 20
663.425806324
 30
0.0
 11
1161.052779149
 21
660.061158738
 31
0.0
  0
LINE
  8
0
  6
CONTINUOUS
 62
     1
 10
1157.771298663
 20
632.35969362
 30
0.0
 11
1173.198691897
 21
689.935508999
 31
0.0
  0
LINE
  8
0
  6
CONTINUOUS
 62
     1
 10
1173.198691897
 20
689.935508999
 30
0.0
 11
1178.994246855
 21
688.382594728
 31
0.0
  0
LINE
  8
0
  6
CONTINUOUS
 62
     1
 10
1178.994246855
 20
688.382594728
 30
0.0
 11
1163.851356999
 21
631.868560411
 31
0.0
  0
LINE
  8
0
  6
CONTINUOUS
 62
     1
 10
1168.170302889
 20
686.624118961
 30
0.0
 11
1157.817541085
 21
647.987085909
 31
0.0
  0
LINE
  8
0
  6
CONTINUOUS
 62
     1
 10
1152.378029084
 20
677.914693719
 30
0.0
 11
1164.935064825
 21
674.550046132
 31
0.0
  0
LINE
  8
0
  6
CONTINUOUS
 62
     1
 10
1154.919763606
 20
648.763543045
 30
0.0
 11
1158.15500167
 21
660.837615873
 31
0.0
  0
ARC
  8
0
  6
CONTINUOUS
 62
     1
 10
1298.575
 20
531.4
 30
0.0
 40
6.0
 50
270.0
 51
0.0
  0
ARC
  8
0
  6
CONTINUOUS
 62
     1
 10
1190.575
 20
531.4
 30
0.0
 40
6.0
 50
180.0
 51
270.0
  0
LINE
  8
0
  6
CONTINUOUS
 62
     1
 10
1199.575
 20
562.4
 30
0.0
 11
1199.575
 21
540.4
 31
0.0
  0
LINE
  8
0
  6
CONTINUOUS
 62
     1
 10
1199.575
 20
562.612516539
 30
0.0
 11
1184.575
 21
565.4
 31
0.0
  0
LINE
  8
0
  6
CONTINUOUS
 62
     1
 10
1289.575
 20
562.4
 30
0.0
 11
1289.575
 21
540.4
 31
0.0
  0
LINE
  8
0
  6
CONTINUOUS
 62
     1
 10
1289.575
 20
562.612516539
 30
0.0
 11
1304.575
 21
565.4
 31
0.0
  0
ARC
  8
0
  6
CONTINUOUS
 62
     1
 10
1203.453679656
 20
626.521320344
 30
0.0
 40
7.0
 50
172.721057981
 51
180.0
  0
CIRCLE
  8
0
  6
CONTINUOUS
 62
     1
 10
1283.575
 20
624.4
 30
0.0
 40
5.0
  0
ARC
  8
0
  6
CONTINUOUS
 62
     1
 10
1285.696320344
 20
626.521320344
 30
0.0
 40
7.0
 50
0.0
 51
7.278942019
  0
ARC
  8
0
  6
CONTINUOUS
 62
     1
 10
1285.696320344
 20
626.521320344
 30
0.0
 40
7.0
 50
7.278942019
 51
74.724135925
  0
LINE
  8
0
  6
CONTINUOUS
 62
     1
 10
1292.639907874
 20
627.408220679
 30
0.0
 11
1295.252546324
 21
606.953742279
 31
0.0
  0
ARC
  8
0
  6
CONTINUOUS
 62
     1
 10
1203.453679656
 20
544.278679656
 30
0.0
 40
7.0
 50
180.0
 51
187.278942019
  0
LINE
  8
0
  6
CONTINUOUS
 62
     1
 10
1196.510092126
 20
543.391779321
 30
0.0
 11
1193.897453676
 21
563.846257721
 31
0.0
  0
ARC
  8
0
  6
CONTINUOUS
 62
     1
 10
1285.696320344
 20
544.278679656
 30
0.0
 40
7.0
 50
352.721057981
 51
0.0
  0
LINE
  8
0
  6
CONTINUOUS
 62
     1
 10
1292.639907874
 20
543.391779321
 30
0.0
 11
1295.252546324
 21
563.846257721
 31
0.0
  0
LINE
  8
0
  6
CONTINUOUS
 62
     1
 10
1224.575
 20
605.4
 30
0.0
 11
1264.575
 21
605.4
 31
0.0
  0
LINE
  8
0
  6
CONTINUOUS
 62
     1
 10
1264.575
 20
565.4
 30
0.0
 11
1264.575
 21
605.4
 31
0.0
  0
LINE
  8
0
  6
CONTINUOUS
 62
     1
 10
1224.575
 20
565.4
 30
0.0
 11
1264.575
 21
565.4
 31
0.0
  0
LINE
  8
0
  6
CONTINUOUS
 62
     1
 10
1224.575
 20
565.4
 30
0.0
 11
1224.575
 21
605.4
 31
0.0
  0
LINE
  8
0
  6
CONTINUOUS
 62
     1
 10
1236.575
 20
565.4
 30
0.0
 11
1236.575
 21
605.4
 31
0.0
  0
LINE
  8
0
  6
CONTINUOUS
 62
     1
 10
1252.575
 20
565.4
 30
0.0
 11
1252.575
 21
605.4
 31
0.0
  0
LINE
  8
0
  6
CONTINUOUS
 62
     1
 10
1236.575
 20
577.4
 30
0.0
 11
1252.575
 21
577.4
 31
0.0
  0
LINE
  8
0
  6
CONTINUOUS
 62
     1
 10
1224.575
 20
575.4
 30
0.0
 11
1236.575
 21
575.4
 31
0.0
  0
LINE
  8
0
  6
CONTINUOUS
 62
     1
 10
1236.575
 20
593.4
 30
0.0
 11
1252.575
 21
593.4
 31
0.0
  0
LINE
  8
0
  6
CONTINUOUS
 62
     1
 10
1224.575
 20
595.4
 30
0.0
 11
1236.575
 21
595.4
 31
0.0
  0
LINE
  8
0
  6
CONTINUOUS
 62
     1
 10
1264.575
 20
575.4
 30
0.0
 11
1252.575
 21
575.4
 31
0.0
  0
LINE
  8
0
  6
CONTINUOUS
 62
     1
 10
1264.575
 20
595.4
 30
0.0
 11
1252.575
 21
595.4
 31
0.0
  0
ARC
  8
0
  6
CONTINUOUS
 62
     1
 10
1294.575
 20
535.9
 30
0.0
 40
3.0
 50
0.0
 51
90.0
  0
LINE
  8
0
  6
CONTINUOUS
 62
     1
 10
1294.575
 20
540.4
 30
0.0
 11
1294.575
 21
538.9
 31
0.0
  0
LINE
  8
0
  6
CONTINUOUS
 62
     1
 10
1297.575
 20
488.4
 30
0.0
 11
1297.575
 21
535.9
 31
0.0
  0
LINE
  8
0
  6
CONTINUOUS
 62
     1
 10
1191.575
 20
488.4
 30
0.0
 11
1191.575
 21
535.9
 31
0.0
  0
LINE
  8
0
  6
CONTINUOUS
 62
     1
 10
1191.575
 20
488.4
 30
0.0
 11
1297.575
 21
488.4
 31
0.0
  0
LINE
  8
0
  6
CONTINUOUS
 62
     1
 10
1191.575
 20
495.9
 30
0.0
 11
1297.575
 21
495.9
 31
0.0
  0
LINE
  8
0
  6
CONTINUOUS
 62
     1
 10
1191.575
 20
494.4
 30
0.0
 11
1297.575
 21
494.4
 31
0.0
  0
LINE
  8
0
  6
CONTINUOUS
 62
     1
 10
1297.575
 20
525.4
 30
0.0
 11
1298.575
 21
525.4
 31
0.0
  0
LINE
  8
0
  6
CONTINUOUS
 62
     1
 10
1190.575
 20
525.4
 30
0.0
 11
1191.575
 21
525.4
 31
0.0
  0
ARC
  8
0
  6
CONTINUOUS
 62
     1
 10
1285.696320344
 20
544.278679656
 30
0.0
 40
7.0
 50
326.35145266
 51
352.721057981
  0
ARC
  8
0
  6
CONTINUOUS
 62
     1
 10
1203.453679656
 20
544.278679656
 30
0.0
 40
7.0
 50
187.278942019
 51
213.64854734
  0
ARC
  8
0
  6
CONTINUOUS
 62
     1
 10
1300.575
 20
639.4
 30
0.0
 40
5.0
 50
270.0
 51
0.0
  0
LINE
  8
0
  6
LTYPE2
 62
     2
 10
1286.575
 20
644.4
 30
0.0
 11
1303.575
 21
644.4
 31
0.0
  0
LINE
  8
0
  6
LTYPE2
 62
     2
 10
1295.575
 20
636.4
 30
0.0
 11
1295.575
 21
652.9
 31
0.0
  0
LINE
  8
0
  6
LTYPE2
 62
     2
 10
1202.575
 20
644.4
 30
0.0
 11
1185.575
 21
644.4
 31
0.0
  0
LINE
  8
0
  6
LTYPE2
 62
     2
 10
1193.575
 20
636.4
 30
0.0
 11
1193.575
 21
652.9
 31
0.0
  0
LINE
  8
0
  6
CONTINUOUS
 62
     6
 10
1284.637443841
 20
657.031672959
 30
0.0
 11
1280.637445841
 21
654.725791759
 31
0.0
  0
LINE
  8
0
  6
CONTINUOUS
 62
     6
 10
1276.637447841
 20
657.031672959
 30
0.0
 11
1280.637445841
 21
654.725791759
 31
0.0
  0
LINE
  8
0
  6
CONTINUOUS
 62
     6
 10
1206.206672959
 20
655.337556159
 30
0.0
 11
1210.818435359
 21
655.337556159
 31
0.0
  0
LINE
  8
0
  6
CONTINUOUS
 62
     6
 10
1200.07495
 20
640.65297
 30
0.0
 11
1200.07495
 21
648.14703
 31
0.0
  0
LINE
  8
0
  6
CONTINUOUS
 62
     6
 10
1200.07495
 20
648.14703
 30
0.0
 11
1193.575
 21
651.89406
 31
0.0
  0
LINE
  8
0
  6
CONTINUOUS
 62
     6
 10
1187.07505
 20
640.65297
 30
0.0
 11
1193.575
 21
636.90594
 31
0.0
  0
LINE
  8
0
  6
CONTINUOUS
 62
     6
 10
1200.07495
 20
640.65297
 30
0.0
 11
1193.575
 21
636.90594
 31
0.0
  0
LINE
  8
0
  6
CONTINUOUS
 62
     6
 10
1187.07505
 20
648.14703
 30
0.0
 11
1193.575
 21
651.89406
 31
0.0
  0
LINE
  8
0
  6
CONTINUOUS
 62
     6
 10
1187.07505
 20
640.65297
 30
0.0
 11
1187.07505
 21
648.14703
 31
0.0
  0
CIRCLE
  8
0
  6
CONTINUOUS
 62
     6
 10
1193.575
 20
644.4
 30
0.0
 40
6.49995
  0
LINE
  8
0
  6
CONTINUOUS
 62
     6
 10
1289.07505
 20
640.65297
 30
0.0
 11
1289.07505
 21
648.14703
 31
0.0
  0
LINE
  8
0
  6
CONTINUOUS
 62
     6
 10
1289.07505
 20
640.65297
 30
0.0
 11
1295.575
 21
636.90594
 31
0.0
  0
LINE
  8
0
  6
CONTINUOUS
 62
     6
 10
1302.07495
 20
640.65297
 30
0.0
 11
1302.07495
 21
648.14703
 31
0.0
  0
LINE
  8
0
  6
CONTINUOUS
 62
     6
 10
1302.07495
 20
640.65297
 30
0.0
 11
1295.575
 21
636.90594
 31
0.0
  0
LINE
  8
0
  6
CONTINUOUS
 62
     6
 10
1302.07495
 20
648.14703
 30
0.0
 11
1295.575
 21
651.89406
 31
0.0
  0
LINE
  8
0
  6
CONTINUOUS
 62
     6
 10
1289.07505
 20
648.14703
 30
0.0
 11
1295.575
 21
651.89406
 31
0.0
  0
CIRCLE
  8
0
  6
CONTINUOUS
 62
     6
 10
1295.575
 20
644.4
 30
0.0
 40
6.49995
  0
LINE
  8
0
  6
CONTINUOUS
 62
     1
 10
1304.575
 20
531.4
 30
0.0
 11
1304.575
 21
636.4
 31
0.0
  0
LINE
  8
0
  6
CONTINUOUS
 62
     1
 10
1286.583220679
 20
633.464907874
 30
0.0
 11
1279.26233719
 21
634.4
 31
0.0
  0
LINE
  8
0
  6
LTYPE2
 62
     2
 10
1275.490102543
 20
624.4
 30
0.0
 11
1291.990102543
 21
624.4
 31
0.0
  0
LINE
  8
0
  6
LTYPE2
 62
     2
 10
1283.575
 20
632.072877017
 30
0.0
 11
1283.575
 21
615.772877017
 31
0.0
  0
LINE
  8
0
  6
LTYPE2
 62
     2
 10
1213.659897457
 20
624.4
 30
0.0
 11
1197.159897457
 21
624.4
 31
0.0
  0
LINE
  8
0
  6
LTYPE2
 62
     2
 10
1205.575
 20
632.072877017
 30
0.0
 11
1205.575
 21
615.772877017
 31
0.0
  0
LINE
  8
0
  6
LTYPE1
 62
     2
 10
1282.575
 20
577.4
 30
0.0
 11
1282.575
 21
593.4
 31
0.0
  0
LINE
  8
0
  6
LTYPE1
 62
     2
 10
1282.575
 20
577.4
 30
0.0
 11
1304.575
 21
577.4
 31
0.0
  0
LINE
  8
0
  6
LTYPE1
 62
     2
 10
1282.575
 20
593.4
 30
0.0
 11
1304.575
 21
593.4
 31
0.0
  0
LINE
  8
0
  6
LTYPE1
 62
     2
 10
1206.575
 20
577.4
 30
0.0
 11
1206.575
 21
593.4
 31
0.0
  0
LINE
  8
0
  6
LTYPE1
 62
     2
 10
1206.575
 20
577.4
 30
0.0
 11
1184.575
 21
577.4
 31
0.0
  0
LINE
  8
0
  6
LTYPE1
 62
     2
 10
1206.575
 20
593.4
 30
0.0
 11
1184.575
 21
593.4
 31
0.0
  0
LINE
  8
7
  6
CONTINUOUS
 62
     2
 10
1310.575
 20
593.4
 30
0.0
 11
1364.575
 21
593.4
 31
0.0
  0
LINE
  8
7
  6
CONTINUOUS
 62
     2
 10
1358.575
 20
593.4
 30
0.0
 11
1361.163190451
 21
603.059258263
 31
0.0
  0
LINE
  8
7
  6
CONTINUOUS
 62
     2
 10
1358.575
 20
593.4
 30
0.0
 11
1355.986809549
 21
603.059258263
 31
0.0
  0
LINE
  8
7
  6
CONTINUOUS
 62
     2
 10
1358.575
 20
577.4
 30
0.0
 11
1355.986809549
 21
567.740741737
 31
0.0
  0
LINE
  8
7
  6
CONTINUOUS
 62
     2
 10
1358.575
 20
577.4
 30
0.0
 11
1361.163190451
 21
567.740741737
 31
0.0
  0
LINE
  8
7
  6
CONTINUOUS
 62
     2
 10
1310.575
 20
577.4
 30
0.0
 11
1364.575
 21
577.4
 31
0.0
  0
LINE
  8
7
  6
CONTINUOUS
 62
     2
 10
1321.575
 20
585.4
 30
0.0
 11
1396.575
 21
585.4
 31
0.0
  0
LINE
  8
7
  6
CONTINUOUS
 62
     2
 10
1301.927902
 20
482.90039
 30
0.0
 11
1428.575
 21
482.90039
 31
0.0
  0
LINE
  8
0
  6
CONTINUOUS
 62
     1
 10
1264.575
 20
495.9
 30
0.0
 11
1264.575
 21
538.9
 31
0.0
  0
LINE
  8
0
  6
CONTINUOUS
 62
     1
 10
1224.575
 20
495.9
 30
0.0
 11
1224.575
 21
538.9
 31
0.0
  0
LINE
  8
0
  6
LTYPE2
 62
     2
 10
1228.575
 20
512.9
 30
0.0
 11
1259.575
 21
512.9
 31
0.0
  0
CIRCLE
  8
0
  6
CONTINUOUS
 62
     2
 10
1244.575
 20
512.9
 30
0.0
 40
11.0
  0
CIRCLE
  8
0
  6
CONTINUOUS
 62
     2
 10
1244.575
 20
512.9
 30
0.0
 40
9.5
  0
LINE
  8
0
  6
CONTINUOUS
 62
     1
 10
1199.575
 20
562.4
 30
0.0
 11
1200.023423881
 21
564.175969408
 31
0.0
  0
LINE
  8
0
  6
LTYPE1
 62
     2
 10
1196.510092126
 20
627.408220679
 30
0.0
 11
1193.897453676
 21
606.953742279
 31
0.0
  0
LINE
  8
0
  6
LTYPE1
 62
     2
 10
1203.059603014
 20
608.480767169
 30
0.0
 11
1184.575
 21
605.4
 31
0.0
  0
LINE
  8
0
  6
CONTINUOUS
 62
     1
 10
1184.575
 20
531.4
 30
0.0
 11
1184.575
 21
571.25050745
 31
0.0
  0
LINE
  8
7
  6
CONTINUOUS
 62
     2
 10
1244.575
 20
478.353571429
 30
0.0
 11
1244.575
 21
450.25050745
 31
0.0
  0
LINE
  8
7
  6
CONTINUOUS
 62
     2
 10
1244.575
 20
456.25050745
 30
0.0
 11
1234.915741737
 21
458.838697901
 31
0.0
  0
LINE
  8
0
  6
LTYPE3
 62
     2
 10
1158.24968209
 20
585.4
 30
0.0
 11
1315.575
 21
585.4
 31
0.0
  0
LINE
  8
7
  6
CONTINUOUS
 62
     2
 10
1244.575
 20
456.25050745
 30
0.0
 11
1234.915741737
 21
453.662316999
 31
0.0
  0
LINE
  8
7
  6
CONTINUOUS
 62
     2
 10
1304.575
 20
428.25050745
 30
0.0
 11
1294.915741737
 21
430.838697901
 31
0.0
  0
LINE
  8
7
  6
CONTINUOUS
 62
     2
 10
1304.575
 20
428.25050745
 30
0.0
 11
1294.915741737
 21
425.662316999
 31
0.0
  0
LINE
  8
7
  6
CONTINUOUS
 62
     2
 10
1304.575
 20
428.25050745
 30
0.0
 11
1184.575
 21
428.25050745
 31
0.0
  0
LINE
  8
7
  6
CONTINUOUS
 62
     2
 10
1184.575
 20
428.25050745
 30
0.0
 11
1194.234258263
 21
425.662316999
 31
0.0
  0
LINE
  8
7
  6
CONTINUOUS
 62
     2
 10
1184.575
 20
428.25050745
 30
0.0
 11
1194.234258263
 21
430.838697901
 31
0.0
  0
LINE
  8
0
  6
CONTINUOUS
 62
     1
 10
1278.056489322
 20
609.81975178
 30
0.0
 11
1304.575
 21
605.4
 31
0.0
  0
LINE
  8
0
  6
CONTINUOUS
 62
     1
 10
1289.575
 20
562.4
 30
0.0
 11
1283.767608718
 21
585.4
 31
0.0
  0
LINE
  8
0
  6
CONTINUOUS
 62
     1
 10
1194.575
 20
540.4
 30
0.0
 11
1194.575
 21
538.9
 31
0.0
  0
LINE
  8
0
  6
CONTINUOUS
 62
     1
 10
1194.575
 20
540.4
 30
0.0
 11
1294.575
 21
540.4
 31
0.0
  0
LINE
  8
0
  6
CONTINUOUS
 62
     1
 10
1194.575015259
 20
538.9
 30
0.0
 11
1294.575
 21
538.9
 31
0.0
  0
ARC
  8
0
  6
CONTINUOUS
 62
     1
 10
1194.575
 20
535.9
 30
0.0
 40
3.0
 50
89.999708579
 51
180.0
  0
TEXT
  8
7
  6
CONTINUOUS
 62
     2
 10
1227.175
 20
432.25050745
 30
0.0
 40
15.0
  1
１２０
 50
0.0
 41
0.9
 51
0.0
  7
KANJI30
  0
TEXT
  8
7
  6
CONTINUOUS
 62
     2
 10
1140.237202214
 20
460.25050745
 30
0.0
 40
15.0
  1
１６５
 50
0.0
 41
0.9
 51
0.0
  7
KANJI30
  0
LINE
  8
0
  6
CONTINUOUS
 62
     1
 10
1213.575
 20
593.4
 30
0.0
 11
1213.575
 21
577.4
 31
0.0
  0
LINE
  8
0
  6
CONTINUOUS
 62
     1
 10
1221.575
 20
570.4
 30
0.0
 11
1221.575
 21
600.4
 31
0.0
  0
LINE
  8
0
  6
LTYPE2
 62
     2
 10
1218.925
 20
581.0
 30
0.0
 11
1218.925
 21
589.4
 31
0.0
  0
CIRCLE
  8
0
  6
CONTINUOUS
 62
     1
 10
1218.925
 20
585.4
 30
0.0
 40
2.0
  0
LINE
  8
0
  6
CONTINUOUS
 62
     1
 10
1224.575
 20
570.4
 30
0.0
 11
1221.575
 21
570.4
 31
0.0
  0
LINE
  8
0
  6
LTYPE1
 62
     2
 10
1221.575
 20
577.4
 30
0.0
 11
1236.575
 21
577.4
 31
0.0
  0
LINE
  8
0
  6
CONTINUOUS
 62
     1
 10
1224.575
 20
600.4
 30
0.0
 11
1221.575
 21
600.4
 31
0.0
  0
LINE
  8
0
  6
CONTINUOUS
 62
     1
 10
1221.575
 20
593.4
 30
0.0
 11
1213.575
 21
593.4
 31
0.0
  0
LINE
  8
0
  6
LTYPE1
 62
     2
 10
1236.575
 20
593.4
 30
0.0
 11
1221.575
 21
593.4
 31
0.0
  0
LINE
  8
0
  6
CONTINUOUS
 62
     1
 10
1275.575
 20
593.4
 30
0.0
 11
1275.575
 21
577.4
 31
0.0
  0
LINE
  8
0
  6
CONTINUOUS
 62
     1
 10
1275.575
 20
593.4
 30
0.0
 11
1275.575
 21
577.4
 31
0.0
  0
LINE
  8
0
  6
CONTINUOUS
 62
     1
 10
1267.575
 20
570.4
 30
0.0
 11
1267.575
 21
600.4
 31
0.0
  0
LINE
  8
0
  6
LTYPE2
 62
     2
 10
1270.225
 20
581.0
 30
0.0
 11
1270.225
 21
589.4
 31
0.0
  0
LINE
  8
0
  6
CONTINUOUS
 62
     1
 10
1264.575
 20
600.4
 30
0.0
 11
1267.575
 21
600.4
 31
0.0
  0
LINE
  8
0
  6
CONTINUOUS
 62
     1
 10
1267.575
 20
593.4
 30
0.0
 11
1275.575
 21
593.4
 31
0.0
  0
LINE
  8
0
  6
CONTINUOUS
 62
     1
 10
1267.575
 20
593.4
 30
0.0
 11
1275.575
 21
593.4
 31
0.0
  0
LINE
  8
0
  6
LTYPE1
 62
     2
 10
1252.575
 20
593.4
 30
0.0
 11
1267.575
 21
593.4
 31
0.0
  0
LINE
  8
0
  6
CONTINUOUS
 62
     1
 10
1264.575
 20
570.4
 30
0.0
 11
1267.575
 21
570.4
 31
0.0
  0
LINE
  8
0
  6
CONTINUOUS
 62
     1
 10
1275.575
 20
577.4
 30
0.0
 11
1267.575
 21
577.4
 31
0.0
  0
LINE
  8
0
  6
CONTINUOUS
 62
     1
 10
1275.575
 20
577.4
 30
0.0
 11
1267.575
 21
577.4
 31
0.0
  0
LINE
  8
0
  6
LTYPE1
 62
     2
 10
1267.575
 20
577.4
 30
0.0
 11
1252.575
 21
577.4
 31
0.0
  0
CIRCLE
  8
0
  6
CONTINUOUS
 62
     1
 10
1270.225
 20
585.4
 30
0.0
 40
2.0
  0
LINE
  8
0
  6
CONTINUOUS
 62
     1
 10
1221.575
 20
577.4
 30
0.0
 11
1213.575
 21
577.4
 31
0.0
  0
LINE
  8
0
  6
CONTINUOUS
 62
     1
 10
1280.533003449
 20
568.681088913
 30
0.0
 11
1277.033003449
 21
562.618911087
 31
0.0
  0
LINE
  8
0
  6
CONTINUOUS
 62
     1
 10
1277.033003449
 20
562.618911087
 30
0.0
 11
1279.506057782
 21
561.191092502
 31
0.0
  0
LINE
  8
0
  6
CONTINUOUS
 62
     1
 10
1280.533003449
 20
568.681088913
 30
0.0
 11
1283.006057782
 21
567.253270329
 31
0.0
  0
ARC
  8
0
  6
CONTINUOUS
 62
     1
 10
1244.575
 20
585.4
 30
0.0
 40
42.5
 50
292.717212358
 51
325.276174241
  0
ARC
  8
0
  6
CONTINUOUS
 62
     1
 10
1244.575
 20
585.4
 30
0.0
 40
42.5
 50
40.43967822
 51
85.276174241
  0
ARC
  8
0
  6
CONTINUOUS
 62
     1
 10
1244.575
 20
585.4
 30
0.0
 40
42.5
 50
334.723825759
 51
36.105172094
  0
ARC
  8
0
  6
CONTINUOUS
 62
     1
 10
1244.575
 20
585.4
 30
0.0
 40
31.75
 50
309.974594833
 51
20.025405167
  0
ARC
  8
0
  6
CONTINUOUS
 62
     1
 10
1137.28575786
 20
565.179502455
 30
0.0
 40
2.0
 50
345.0
 51
75.0
  0
LINE
  8
0
  6
CONTINUOUS
 62
     1
 10
1148.583009055
 20
574.886310139
 30
0.0
 11
1176.111895105
 21
567.509967354
 31
0.0
  0
ARC
  8
0
  6
CONTINUOUS
 62
     1
 10
1176.629533195
 20
569.441819006
 30
0.0
 40
2.0
 50
255.0
 51
345.0
  0
LINE
  8
0
  6
CONTINUOUS
 62
     1
 10
1179.337841983
 20
571.821958395
 30
0.0
 11
1178.561384847
 21
568.924180916
 31
0.0
  0
LINE
  8
0
  6
CONTINUOUS
 62
     1
 10
1166.700342213
 20
642.501117979
 30
0.0
 11
1194.229228262
 21
635.124775194
 31
0.0
  0
ARC
  8
0
  6
CONTINUOUS
 62
     1
 10
1193.711590172
 20
633.192923541
 30
0.0
 40
2.0
 50
345.0
 51
75.0
  0
LINE
  8
0
  6
CONTINUOUS
 62
     1
 10
1194.866984689
 20
629.777507972
 30
0.0
 11
1195.643441824
 21
632.675285451
 31
0.0
  0
LINE
  8
0
  6
CONTINUOUS
 62
     1
 10
1225.08808672
 20
638.244206975
 30
0.0
 11
1240.542899941
 21
634.103102253
 31
0.0
  0
ARC
  8
0
  6
CONTINUOUS
 62
     1
 10
1224.57044863
 20
636.312355323
 30
0.0
 40
2.0
 50
75.0
 51
165.0
  0
LINE
  8
0
  6
CONTINUOUS
 62
     1
 10
1220.105509936
 20
627.376383874
 30
0.0
 11
1222.638596978
 21
636.829993413
 31
0.0
  0
LINE
  8
0
  6
CONTINUOUS
 62
     1
 10
1240.145380188
 20
624.892131727
 30
0.0
 11
1241.957113503
 21
631.653612511
 31
0.0
  0
LINE
  8
0
  6
CONTINUOUS
 62
     1
 10
1252.702415929
 20
621.52748414
 30
0.0
 11
1235.798713969
 21
626.05681743
 31
0.0
  0
ARC
  8
0
  6
CONTINUOUS
 62
     1
 10
1240.025261851
 20
632.171250601
 30
0.0
 40
2.0
 50
345.0
 51
75.0
  0
LINE
  8
0
  6
CONTINUOUS
 62
     1
 10
1240.986542084
 20
628.031390662
 30
0.0
 11
1254.992466565
 21
624.278514508
 31
0.0
  0
LINE
  8
0
  6
LTYPE1
 62
     2
 10
1220.99277085
 20
553.413620581
 30
0.0
 11
1240.254491277
 21
625.299339855
 31
0.0
  0
LINE
  8
0
  6
LTYPE1
 62
     2
 10
1238.915989723
 20
620.303984052
 30
0.0
 11
1252.921943682
 21
616.551099999
 31
0.0
  0
ARC
  8
0
  6
CONTINUOUS
 62
     1
 10
1244.575
 20
585.4
 30
0.0
 40
40.25
 50
51.817360174
 51
75.0
  0
ARC
  8
0
  6
CONTINUOUS
 62
     1
 10
1244.575
 20
585.4
 30
0.0
 40
32.0
 50
309.340912304
 51
19.457045617
  0
ARC
  8
0
  6
CONTINUOUS
 62
     1
 10
1244.575
 20
585.4
 30
0.0
 40
40.25
 50
295.237896308
 51
34.762103692
  0
ARC
  8
0
  6
CONTINUOUS
 62
     1
 10
1244.575
 20
585.4
 30
0.0
 40
40.25
 50
255.000030718
 51
278.182639826
  0
LINE
  8
0
  6
CONTINUOUS
 62
     1
 10
1219.181037534
 20
546.652139797
 30
0.0
 11
1220.99277085
 21
553.413620581
 31
0.0
  0
LINE
  8
0
  6
CONTINUOUS
 62
     1
 10
1220.151608953
 20
550.274361646
 30
0.0
 11
1234.157554279
 21
546.521479907
 31
0.0
  0
LINE
  8
0
  6
CONTINUOUS
 62
     1
 10
1233.549806592
 20
550.048972995
 30
0.0
 11
1216.646104632
 21
554.578306284
 31
0.0
  0
LINE
  8
0
  6
LTYPE1
 62
     2
 10
1222.222161314
 20
558.001768256
 30
0.0
 11
1236.228085795
 21
554.248892102
 31
0.0
  0
LINE
  8
0
  6
CONTINUOUS
 62
     1
 10
1201.276734571
 20
549.379030957
 30
0.0
 11
1216.731547792
 21
545.237926235
 31
0.0
  0
ARC
  8
0
  6
CONTINUOUS
 62
     1
 10
1217.249185882
 20
547.169777887
 30
0.0
 40
2.0
 50
255.0
 51
345.0
  0
LINE
  8
0
  6
CONTINUOUS
 62
     1
 10
1202.311311518
 20
560.967531297
 30
0.0
 11
1199.862521009
 21
551.828520699
 31
0.0
  0
ARC
  8
0
  6
CONTINUOUS
 62
     1
 10
1201.794372661
 20
551.310882609
 30
0.0
 40
2.0
 50
165.0
 51
255.0
  0
LINE
  8
0
  6
CONTINUOUS
 62
     1
 10
1279.265376152
 20
614.4099604
 30
0.0
 11
1255.600193408
 21
620.751027005
 31
0.0
  0
LINE
  8
0
  6
CONTINUOUS
 62
     1
 10
1279.265376152
 20
614.4099604
 30
0.0
 11
1260.112766815
 21
542.931449255
 31
0.0
  0
LINE
  8
0
  6
CONTINUOUS
 62
     1
 10
1260.112766815
 20
542.931449255
 30
0.0
 11
1236.447584071
 21
549.27251586
 31
0.0
  0
LINE
  8
0
  6
CONTINUOUS
 62
     1
 10
1240.542899941
 20
634.4
 30
0.0
 11
1300.575
 21
634.4
 31
0.0
  0
LINE
  8
0
  6
LTYPE1
 62
     2
 10
1222.487482205
 20
634.4
 30
0.0
 11
1240.025261851
 21
634.4
 31
0.0
  0
ARC
  8
0
  6
CONTINUOUS
 62
     1
 10
1244.575
 20
585.4
 30
0.0
 40
42.5
 50
235.188522858
 51
284.472931658
  0
LINE
  8
0
  6
CONTINUOUS
 62
     1
 10
1248.075
 20
626.132044088
 30
0.0
 11
1248.075
 21
627.755637169
 31
0.0
  0
LINE
  8
0
  6
CONTINUOUS
 62
     1
 10
1252.702415929
 20
621.52748414
 30
0.0
 11
1248.381069578
 21
605.4
 31
0.0
  0
LINE
  8
0
  6
CONTINUOUS
 62
     1
 10
1255.600193408
 20
620.751027005
 30
0.0
 11
1251.486898119
 21
605.4
 31
0.0
  0
LINE
  8
0
  6
CONTINUOUS
 62
     1
 10
1240.768930422
 20
565.4
 30
0.0
 11
1236.447584071
 21
549.27251586
 31
0.0
  0
LINE
  8
0
  6
CONTINUOUS
 62
     1
 10
1237.663101881
 20
565.4
 30
0.0
 11
1233.549806592
 21
550.048972995
 31
0.0
  0
LINE
  8
0
  6
CONTINUOUS
 62
     1
 10
1202.875
 20
488.4
 30
0.0
 11
1192.275
 21
488.4
 31
0.0
  0
ARC
  8
0
  6
CONTINUOUS
 62
     1
 10
1197.975
 20
489.4
 30
0.0
 40
5.0
 50
272.3
 51
348.5
  0
ARC
  8
0
  6
CONTINUOUS
 62
     1
 10
1197.175
 20
489.4
 30
0.0
 40
5.0
 50
191.5
 51
267.7
  0
LINE
  8
0
  6
CONTINUOUS
 62
     1
 10
1198.175
 20
484.4
 30
0.0
 11
1196.975
 21
484.4
 31
0.0
  0
LINE
  8
0
  6
LTYPE6
 62
     2
 10
1197.575
 20
481.0
 30
0.0
 11
1197.575
 21
494.4
 31
0.0
  0
LINE
  8
0
  6
CONTINUOUS
 62
     1
 10
1296.875
 20
488.4
 30
0.0
 11
1286.275
 21
488.4
 31
0.0
  0
ARC
  8
0
  6
CONTINUOUS
 62
     1
 10
1291.975
 20
489.4
 30
0.0
 40
5.0
 50
272.3
 51
348.5
  0
ARC
  8
0
  6
CONTINUOUS
 62
     1
 10
1291.175
 20
489.4
 30
0.0
 40
5.0
 50
191.5
 51
267.7
  0
LINE
  8
0
  6
CONTINUOUS
 62
     1
 10
1292.175
 20
484.4
 30
0.0
 11
1290.975
 21
484.4
 31
0.0
  0
LINE
  8
0
  6
LTYPE6
 62
     2
 10
1291.575
 20
481.0
 30
0.0
 11
1291.575
 21
494.4
 31
0.0
  0
LINE
  8
0
  6
CONTINUOUS
 62
     2
 10
1436.5
 20
569.5
 30
0.0
 11
1556.5
 21
569.5
 31
0.0
  0
TEXT
  8
0
  6
CONTINUOUS
 62
     2
 10
1447.0
 20
576.5
 30
10.0
 40
20.0
  1
特記事項
 50
0.0
 41
0.9
 51
0.0
  7
KANJI48
  0
TEXT
  8
0
  6
CONTINUOUS
 62
     2
 10
1442.0
 20
476.75
 30
1.5
 40
17.5
  1
３．ＬＳユニット
 50
0.0
 41
0.857142857
 51
0.0
  7
KANJI49
  0
TEXT
  8
0
  6
CONTINUOUS
 62
     2
 10
1442.0
 20
539.25
 30
1.5
 40
17.5
  1
１．運転時は必ずピストンロッドの回転防止を行って下さい。
 50
0.0
 41
0.857142857
 51
0.0
  7
KANJI49
  0
TEXT
  8
0
  6
CONTINUOUS
 62
     2
 10
1442.0
 20
508.0
 30
1.5
 40
17.5
  1
２．モートル：全閉自冷かご形３０分定格
 50
0.0
 41
0.857142857
 51
0.0
  7
KANJI49
  0
LINE
  8
7
  6
CONTINUOUS
 62
     2
 10
1390.575
 20
585.4
 30
0.0
 11
1390.575
 21
695.4
 31
0.0
  0
LINE
  8
7
  6
CONTINUOUS
 62
     2
 10
1390.575
 20
695.4
 30
0.0
 11
1387.986809549
 21
685.740741737
 31
0.0
  0
LINE
  8
7
  6
CONTINUOUS
 62
     2
 10
1390.575
 20
695.4
 30
0.0
 11
1393.163190451
 21
685.740741737
 31
0.0
  0
LINE
  8
7
  6
CONTINUOUS
 62
     2
 10
1422.575
 20
820.4
 30
0.0
 11
1422.575
 21
482.90039
 31
0.0
  0
LINE
  8
7
  6
CONTINUOUS
 62
     2
 10
1390.575
 20
695.4
 30
0.0
 11
1393.163190451
 21
705.059258263
 31
0.0
  0
LINE
  8
7
  6
CONTINUOUS
 62
     2
 10
1390.575
 20
695.4
 30
0.0
 11
1387.986809549
 21
705.059258263
 31
0.0
  0
LINE
  8
7
  6
CONTINUOUS
 62
     2
 10
1390.575
 20
695.4
 30
0.0
 11
1390.575
 21
820.4
 31
0.0
  0
LINE
  8
7
  6
CONTINUOUS
 62
     2
 10
1422.575
 20
820.4
 30
0.0
 11
1419.986809549
 21
810.740741737
 31
0.0
  0
LINE
  8
7
  6
CONTINUOUS
 62
     2
 10
1422.575
 20
820.4
 30
0.0
 11
1425.163190451
 21
810.740741737
 31
0.0
  0
LINE
  8
7
  6
CONTINUOUS
 62
     2
 10
1390.575
 20
820.4
 30
0.0
 11
1387.986809549
 21
810.740741737
 31
0.0
  0
LINE
  8
7
  6
CONTINUOUS
 62
     2
 10
1390.575
 20
820.4
 30
0.0
 11
1393.163190451
 21
810.740741737
 31
0.0
  0
LINE
  8
7
  6
CONTINUOUS
 62
     2
 10
1385.575
 20
820.4
 30
0.0
 11
1384.575
 21
820.4
 31
0.0
  0
TEXT
  8
7
  6
CONTINUOUS
 62
     2
 10
1386.575
 20
623.0
 30
0.0
 40
15.0
  1
１１０
 50
90.0
 41
0.9
 51
0.0
  7
KANJI30
  0
TEXT
  8
7
  6
CONTINUOUS
 62
     2
 10
1418.575
 20
634.250195
 30
0.0
 40
15.0
  1
３３８
 50
90.0
 41
0.9
 51
0.0
  7
KANJI30
  0
TEXT
  8
7
  6
CONTINUOUS
 62
     2
 10
1386.575
 20
740.5
 30
0.0
 40
15.0
  1
１２５
 50
90.0
 41
0.9
 51
0.0
  7
KANJI30
  0
LINE
  8
7
  6
CONTINUOUS
 62
     2
 10
1390.575
 20
585.4
 30
0.0
 11
1393.163190451
 21
595.059258263
 31
0.0
  0
LINE
  8
7
  6
CONTINUOUS
 62
     2
 10
1390.575
 20
585.4
 30
0.0
 11
1387.986809549
 21
595.059258263
 31
0.0
  0
LINE
  8
7
  6
CONTINUOUS
 62
     2
 10
1422.575
 20
482.90039
 30
0.0
 11
1425.163190451
 21
492.559648263
 31
0.0
  0
LINE
  8
7
  6
CONTINUOUS
 62
     2
 10
1422.575
 20
482.90039
 30
0.0
 11
1419.986809549
 21
492.559648263
 31
0.0
  0
LINE
  8
7
  6
CONTINUOUS
 62
     2
 10
1390.575
 20
585.4
 30
0.0
 11
1387.986809549
 21
575.740741737
 31
0.0
  0
LINE
  8
7
  6
CONTINUOUS
 62
     2
 10
1390.575
 20
585.4
 30
0.0
 11
1393.163190451
 21
575.740741737
 31
0.0
  0
LINE
  8
7
  6
CONTINUOUS
 62
     2
 10
1390.575
 20
585.4
 30
0.0
 11
1390.575
 21
482.90039
 31
0.0
  0
LINE
  8
7
  6
CONTINUOUS
 62
     2
 10
1390.575
 20
482.90039
 30
0.0
 11
1393.163190451
 21
492.559648263
 31
0.0
  0
LINE
  8
7
  6
CONTINUOUS
 62
     2
 10
1390.575
 20
482.90039
 30
0.0
 11
1387.986809549
 21
492.559648263
 31
0.0
  0
LINE
  8
7
  6
CONTINUOUS
 62
     2
 10
1393.575
 20
482.90039
 30
0.0
 11
1396.575
 21
482.90039
 31
0.0
  0
TEXT
  8
7
  6
CONTINUOUS
 62
     2
 10
1386.575
 20
516.750195
 30
0.0
 40
15.0
  1
１０３
 50
90.0
 41
0.9
 51
0.0
  7
KANJI30
  0
TEXT
  8
0
  6
CONTINUOUS
 62
     2
 10
1442.0
 20
399.25
 30
1.5
 40
17.5
  1
４．呼称ストロークは、機械的ストロークです。
 50
0.0
 41
0.857142857
 51
0.0
  7
KANJI49
  0
TEXT
  8
0
  6
CONTINUOUS
 62
     2
 10
1442.0
 20
426.75
 30
1.5
 40
17.5
  1
　　ストローク７００ｍｍ以上の場合２ロッド方式となります。
 50
0.0
 41
0.857142857
 51
0.0
  7
KANJI49
  0
TEXT
  8
0
  6
CONTINUOUS
 62
     2
 10
1442.0
 20
451.75
 30
1.5
 40
17.5
  1
　　リミットスイッチ：１ＬＳ１－Ｊｘ２ケ（山武）
 50
0.0
 41
0.857142857
 51
0.0
  7
KANJI49
  0
TEXT
  8
0
  6
CONTINUOUS
 62
     2
 10
1442.0
 20
368.45
 30
1.5
 40
17.5
  1
　　必ず、常用はストローク両端に必ず余裕を取って下さい。
 50
0.0
 41
0.857142857
 51
0.0
  7
KANJI49
  0
TEXT
  8
0
  6
CONTINUOUS
 62
     2
 10
1442.0
 20
336.97
 30
1.5
 40
17.5
  1
　　前後の推奨余裕寸法は、各々１５ｍｍです。
 50
0.0
 41
0.857142857
 51
0.0
  7
KANJI49
  0
LINE
  8
0
  6
CONTINUOUS
 62
     2
 10
980.075
 20
632.4
 30
0.0
 11
968.000927171
 21
635.635238064
 31
0.0
  0
LINE
  8
0
  6
CONTINUOUS
 62
     2
 10
980.075
 20
632.4
 30
0.0
 11
968.000927171
 21
629.164761936
 31
0.0
  0
LINE
  8
0
  6
CONTINUOUS
 62
     2
 10
980.075
 20
632.4
 30
0.0
 11
939.075
 21
632.4
 31
0.0
  0
TEXT
  8
0
  6
CONTINUOUS
 62
     3
 10
946.075
 20
642.4
 30
0.0
 40
20.0
  1
前進
 50
0.0
 41
0.925
 51
0.0
  7
KANJI43
  0
TEXT
  8
0
  6
CONTINUOUS
 62
     6
 10
376.593715102
 20
1313.871931782
 30
0.0
 40
11.8638
  1
ＡＣ１００Ｖ　１２５Ｖ　２５０Ｖ　－１０Ａ
 50
0.0
 41
0.726495726
 51
0.0
  7
KANJI25
  0
LINE
  8
0
  6
CONTINUOUS
 62
     2
 10
124.0
 20
253.8
 30
0.0
 11
131.72740661
 21
251.729447639
 31
0.0
  0
LINE
  8
0
  6
CONTINUOUS
 62
     2
 10
124.0
 20
253.8
 30
0.0
 11
131.72740661
 21
255.870552361
 31
0.0
  0
LINE
  8
0
  6
CONTINUOUS
 62
     2
 10
124.0
 20
253.8
 30
0.0
 11
261.6
 21
253.8
 31
0.0
  0
LINE
  8
0
  6
CONTINUOUS
 62
     2
 10
261.6
 20
253.8
 30
0.0
 11
253.87259339
 21
255.870552361
 31
0.0
  0
LINE
  8
0
  6
CONTINUOUS
 62
     2
 10
261.6
 20
253.8
 30
0.0
 11
253.87259339
 21
251.729447639
 31
0.0
  0
LINE
  8
0
  6
CONTINUOUS
 62
     2
 10
261.6
 20
252.6
 30
0.0
 11
261.6
 21
249.8
 31
0.0
  0
LINE
  8
0
  6
CONTINUOUS
 62
     2
 10
261.6
 20
253.8
 30
0.0
 11
269.32740661
 21
251.729447639
 31
0.0
  0
LINE
  8
0
  6
CONTINUOUS
 62
     2
 10
261.6
 20
253.8
 30
0.0
 11
269.32740661
 21
255.870552361
 31
0.0
  0
LINE
  8
0
  6
CONTINUOUS
 62
     2
 10
261.6
 20
253.8
 30
0.0
 11
464.0
 21
253.8
 31
0.0
  0
LINE
  8
0
  6
CONTINUOUS
 62
     2
 10
464.0
 20
253.8
 30
0.0
 11
456.27259339
 21
255.870552361
 31
0.0
  0
LINE
  8
0
  6
CONTINUOUS
 62
     2
 10
464.0
 20
253.8
 30
0.0
 11
456.27259339
 21
251.729447639
 31
0.0
  0
LINE
  8
0
  6
CONTINUOUS
 62
     2
 10
261.6
 20
227.470552361
 30
0.0
 11
253.87259339
 21
229.541104722
 31
0.0
  0
LINE
  8
0
  6
CONTINUOUS
 62
     2
 10
261.6
 20
227.470552361
 30
0.0
 11
253.87259339
 21
225.4
 31
0.0
  0
LINE
  8
0
  6
CONTINUOUS
 62
     2
 10
249.6
 20
227.470552361
 30
0.0
 11
261.6
 21
227.470552361
 31
0.0
  0
LINE
  8
0
  6
CONTINUOUS
 62
     2
 10
261.6
 20
227.470552361
 30
0.0
 11
282.4
 21
227.470552361
 31
0.0
  0
LINE
  8
0
  6
CONTINUOUS
 62
     2
 10
282.4
 20
227.470552361
 30
0.0
 11
290.12740661
 21
225.4
 31
0.0
  0
LINE
  8
0
  6
CONTINUOUS
 62
     2
 10
282.4
 20
227.470552361
 30
0.0
 11
290.12740661
 21
229.541104722
 31
0.0
  0
LINE
  8
0
  6
CONTINUOUS
 62
     2
 10
124.0
 20
202.2
 30
0.0
 11
124.0
 21
196.2
 31
0.0
  0
LINE
  8
0
  6
CONTINUOUS
 62
     2
 10
124.0
 20
200.2
 30
0.0
 11
131.72740661
 21
198.129447639
 31
0.0
  0
LINE
  8
0
  6
CONTINUOUS
 62
     2
 10
124.0
 20
200.2
 30
0.0
 11
131.72740661
 21
202.270552361
 31
0.0
  0
LINE
  8
0
  6
CONTINUOUS
 62
     2
 10
124.0
 20
200.2
 30
0.0
 11
282.4
 21
200.2
 31
0.0
  0
LINE
  8
0
  6
CONTINUOUS
 62
     2
 10
282.4
 20
200.2
 30
0.0
 11
274.67259339
 21
202.270552361
 31
0.0
  0
LINE
  8
0
  6
CONTINUOUS
 62
     2
 10
282.4
 20
200.2
 30
0.0
 11
274.67259339
 21
198.129447639
 31
0.0
  0
LINE
  8
0
  6
CONTINUOUS
 62
     2
 10
282.4
 20
201.4
 30
0.0
 11
282.4
 21
196.2
 31
0.0
  0
LINE
  8
0
  6
CONTINUOUS
 62
     2
 10
282.4
 20
200.2
 30
0.0
 11
290.12740661
 21
198.129447639
 31
0.0
  0
LINE
  8
0
  6
CONTINUOUS
 62
     2
 10
282.4
 20
200.2
 30
0.0
 11
290.12740661
 21
202.270552361
 31
0.0
  0
LINE
  8
0
  6
CONTINUOUS
 62
     2
 10
464.0
 20
196.6
 30
0.0
 11
464.0
 21
196.2
 31
0.0
  0
LINE
  8
0
  6
CONTINUOUS
 62
     2
 10
124.0
 20
171.0
 30
0.0
 11
131.72740661
 21
168.929447639
 31
0.0
  0
LINE
  8
0
  6
CONTINUOUS
 62
     2
 10
124.0
 20
171.0
 30
0.0
 11
131.72740661
 21
173.070552361
 31
0.0
  0
LINE
  8
0
  6
CONTINUOUS
 62
     2
 10
124.0
 20
171.0
 30
0.0
 11
441.6
 21
171.0
 31
0.0
  0
LINE
  8
0
  6
CONTINUOUS
 62
     2
 10
441.6
 20
171.0
 30
0.0
 11
433.87259339
 21
173.070552361
 31
0.0
  0
LINE
  8
0
  6
CONTINUOUS
 62
     2
 10
441.6
 20
171.0
 30
0.0
 11
433.87259339
 21
168.929447639
 31
0.0
  0
LINE
  8
0
  6
CONTINUOUS
 62
     2
 10
441.6
 20
171.8
 30
0.0
 11
441.6
 21
167.0
 31
0.0
  0
LINE
  8
0
  6
CONTINUOUS
 62
     2
 10
441.6
 20
171.0
 30
0.0
 11
433.87259339
 21
173.070552361
 31
0.0
  0
LINE
  8
0
  6
CONTINUOUS
 62
     2
 10
441.6
 20
171.0
 30
0.0
 11
433.87259339
 21
168.929447639
 31
0.0
  0
LINE
  8
0
  6
CONTINUOUS
 62
     2
 10
429.6
 20
171.0
 30
0.0
 11
441.6
 21
171.0
 31
0.0
  0
LINE
  8
0
  6
CONTINUOUS
 62
     2
 10
441.6
 20
171.0
 30
0.0
 11
464.0
 21
171.0
 31
0.0
  0
LINE
  8
0
  6
CONTINUOUS
 62
     2
 10
464.0
 20
171.0
 30
0.0
 11
471.72740661
 21
168.929447639
 31
0.0
  0
LINE
  8
0
  6
CONTINUOUS
 62
     2
 10
464.0
 20
171.0
 30
0.0
 11
471.72740661
 21
173.070552361
 31
0.0
  0
LINE
  8
0
  6
CONTINUOUS
 62
     2
 10
124.0
 20
264.6
 30
0.0
 11
124.0
 21
249.8
 31
0.0
  0
LINE
  8
0
  6
CONTINUOUS
 62
     2
 10
464.0
 20
264.6
 30
0.0
 11
464.0
 21
249.8
 31
0.0
  0
LINE
  8
0
  6
CONTINUOUS
 62
     2
 10
261.6
 20
253.4
 30
0.0
 11
261.6
 21
264.6
 31
0.0
  0
LINE
  8
0
  6
CONTINUOUS
 62
     2
 10
282.4
 20
240.270552361
 30
0.0
 11
282.4
 21
223.470552361
 31
0.0
  0
LINE
  8
0
  6
CONTINUOUS
 62
     2
 10
124.0
 20
249.8
 30
0.0
 11
124.0
 21
157.8
 31
0.0
  0
LINE
  8
0
  6
CONTINUOUS
 62
     2
 10
464.0
 20
253.8
 30
0.0
 11
464.0
 21
159.0
 31
0.0
  0
LINE
  8
0
  6
CONTINUOUS
 62
     2
 10
282.4
 20
227.470552361
 30
0.0
 11
282.4
 21
191.0
 31
0.0
  0
LINE
  8
0
  6
CONTINUOUS
 62
     2
 10
261.6
 20
253.8
 30
0.0
 11
261.6
 21
218.2
 31
0.0
  0
TEXT
  8
0
  6
CONTINUOUS
 62
     3
 10
165.8
 20
255.8
 30
0.0
 40
15.0
  1
ｍｉｎ．Ｌ
 50
0.0
 41
0.9
 51
0.0
  7
KANJI30
  0
TEXT
  8
0
  6
CONTINUOUS
 62
     3
 10
319.6
 20
255.8
 30
0.0
 40
15.0
  1
機械的ストローク
 50
0.0
 41
0.9
 51
0.0
  7
KANJI30
  0
TEXT
  8
0
  6
CONTINUOUS
 62
     3
 10
294.4
 20
229.470552361
 30
0.0
 40
15.0
  1
余裕
 50
0.0
 41
0.9
 51
0.0
  7
KANJI30
  0
TEXT
  8
0
  6
CONTINUOUS
 62
     3
 10
176.2
 20
202.2
 30
0.0
 40
15.0
  1
常用ｍｉｎ
 50
0.0
 41
0.9
 51
0.0
  7
KANJI30
  0
TEXT
  8
0
  6
CONTINUOUS
 62
     3
 10
335.4
 20
202.2
 30
0.0
 40
15.0
  1
常用ストローク
 50
0.0
 41
0.9
 51
0.0
  7
KANJI30
  0
TEXT
  8
0
  6
CONTINUOUS
 62
     3
 10
255.8
 20
173.0
 30
0.0
 40
15.0
  1
常用ｍａｘ
 50
0.0
 41
0.9
 51
0.0
  7
KANJI30
  0
TEXT
  8
0
  6
CONTINUOUS
 62
     3
 10
476.0
 20
173.0
 30
0.0
 40
15.0
  1
余裕
 50
0.0
 41
0.9
 51
0.0
  7
KANJI30
  0
LINE
  8
0
  6
CONTINUOUS
 62
     2
 10
282.4
 20
227.470552361
 30
0.0
 11
322.5
 21
227.470552361
 31
0.0
  0
LINE
  8
0
  6
CONTINUOUS
 62
     2
 10
464.0
 20
171.0
 30
0.0
 11
506.5
 21
171.0
 31
0.0
  0
LINE
  8
0
  6
CONTINUOUS
 62
     1
 10
840.5
 20
971.45
 30
0.0
 11
1488.5
 21
971.45
 31
0.0
  0
LINE
  8
0
  6
CONTINUOUS
 62
     1
 10
840.5
 20
1223.45
 30
0.0
 11
840.5
 21
971.45
 31
0.0
  0
LINE
  8
0
  6
CONTINUOUS
 62
     1
 10
1008.5
 20
1223.45
 30
0.0
 11
1008.5
 21
971.45
 31
0.0
  0
LINE
  8
0
  6
CONTINUOUS
 62
     2
 10
1088.5
 20
1223.45
 30
0.0
 11
1088.5
 21
971.45
 31
0.0
  0
LINE
  8
0
  6
CONTINUOUS
 62
     2
 10
1168.5
 20
1223.45
 30
0.0
 11
1168.5
 21
971.45
 31
0.0
  0
LINE
  8
0
  6
CONTINUOUS
 62
     2
 10
1248.5
 20
1223.45
 30
0.0
 11
1248.5
 21
971.45
 31
0.0
  0
LINE
  8
0
  6
CONTINUOUS
 62
     2
 10
1328.5
 20
1223.45
 30
0.0
 11
1328.5
 21
971.45
 31
0.0
  0
LINE
  8
0
  6
CONTINUOUS
 62
     2
 10
1408.5
 20
1223.45
 30
0.0
 11
1408.5
 21
971.45
 31
0.0
  0
LINE
  8
0
  6
CONTINUOUS
 62
     1
 10
1488.5
 20
1223.45
 30
0.0
 11
1488.5
 21
971.45
 31
0.0
  0
TEXT
  8
0
  6
CONTINUOUS
 62
     2
 10
853.5
 20
977.85
 30
0.8
 40
12.0
  1
ＭＣＬＢ０１－　　　Ｌ
 50
0.0
 41
0.833333333
 51
0.0
  7
KANJI27
  0
LINE
  8
0
  6
CONTINUOUS
 62
     2
 10
441.6
 20
214.0
 30
0.0
 11
441.6
 21
158.2
 31
0.0
  0
LINE
  8
0
  6
CONTINUOUS
 62
     2
 10
282.4
 20
200.2
 30
0.0
 11
441.6
 21
200.2
 31
0.0
  0
LINE
  8
0
  6
CONTINUOUS
 62
     2
 10
441.6
 20
200.2
 30
0.0
 11
433.87259339
 21
202.270552361
 31
0.0
  0
LINE
  8
0
  6
CONTINUOUS
 62
     2
 10
441.6
 20
200.2
 30
0.0
 11
433.87259339
 21
198.129447639
 31
0.0
  0
LINE
  8
0
  6
CONTINUOUS
 62
     1
 10
779.575
 20
459.4
 30
0.0
 11
788.235254038
 21
464.4
 31
0.0
  0
LINE
  8
0
  6
CONTINUOUS
 62
     1
 10
788.225
 20
432.4
 30
0.0
 11
788.225
 21
464.4
 31
0.0
  0
LINE
  8
0
  6
CONTINUOUS
 62
     1
 10
779.575
 20
437.4
 30
0.0
 11
779.575
 21
459.4
 31
0.0
  0
LINE
  8
0
  6
CONTINUOUS
 62
     1
 10
788.225
 20
464.4
 30
0.0
 11
812.925
 21
464.4
 31
0.0
  0
LINE
  8
0
  6
CONTINUOUS
 62
     1
 10
812.925
 20
432.4
 30
0.0
 11
812.925
 21
464.4
 31
0.0
  0
LINE
  8
0
  6
CONTINUOUS
 62
     1
 10
821.575
 20
459.4
 30
0.0
 11
812.914745962
 21
464.4
 31
0.0
  0
LINE
  8
0
  6
CONTINUOUS
 62
     1
 10
821.575
 20
437.4
 30
0.0
 11
821.575
 21
459.4
 31
0.0
  0
LINE
  8
0
  6
CONTINUOUS
 62
     1
 10
788.225
 20
432.4
 30
0.0
 11
812.925
 21
432.4
 31
0.0
  0
LINE
  8
0
  6
CONTINUOUS
 62
     1
 10
821.575
 20
437.4
 30
0.0
 11
812.914745962
 21
432.4
 31
0.0
  0
LINE
  8
0
  6
CONTINUOUS
 62
     1
 10
779.575
 20
437.4
 30
0.0
 11
788.235254038
 21
432.4
 31
0.0
  0
LINE
  8
0
  6
CONTINUOUS
 62
     1
 10
781.075
 20
184.5
 30
0.0
 11
789.735254038
 21
189.5
 31
0.0
  0
LINE
  8
0
  6
CONTINUOUS
 62
     1
 10
789.725
 20
157.5
 30
0.0
 11
789.725
 21
189.5
 31
0.0
  0
LINE
  8
0
  6
CONTINUOUS
 62
     1
 10
781.075
 20
162.5
 30
0.0
 11
781.075
 21
184.5
 31
0.0
  0
LINE
  8
0
  6
CONTINUOUS
 62
     1
 10
789.725
 20
189.5
 30
0.0
 11
814.425
 21
189.5
 31
0.0
  0
LINE
  8
0
  6
CONTINUOUS
 62
     1
 10
814.425
 20
157.5
 30
0.0
 11
814.425
 21
189.5
 31
0.0
  0
LINE
  8
0
  6
CONTINUOUS
 62
     1
 10
823.075
 20
184.5
 30
0.0
 11
814.414745962
 21
189.5
 31
0.0
  0
LINE
  8
0
  6
CONTINUOUS
 62
     1
 10
823.075
 20
162.5
 30
0.0
 11
823.075
 21
184.5
 31
0.0
  0
LINE
  8
0
  6
CONTINUOUS
 62
     1
 10
789.725
 20
157.5
 30
0.0
 11
814.425
 21
157.5
 31
0.0
  0
LINE
  8
0
  6
CONTINUOUS
 62
     1
 10
823.075
 20
162.5
 30
0.0
 11
814.414745962
 21
157.5
 31
0.0
  0
LINE
  8
0
  6
CONTINUOUS
 62
     1
 10
781.075
 20
162.5
 30
0.0
 11
789.735254038
 21
157.5
 31
0.0
  0
LINE
  8
0
  6
CONTINUOUS
 62
     1
 10
823.075
 20
181.5
 30
0.0
 11
849.384422037
 21
181.5
 31
0.0
  0
LINE
  8
0
  6
CONTINUOUS
 62
     1
 10
849.384422037
 20
165.5
 30
0.0
 11
823.075
 21
165.5
 31
0.0
  0
LINE
  8
0
  6
CONTINUOUS
 62
     1
 10
721.575
 20
181.5
 30
0.0
 11
781.075
 21
181.5
 31
0.0
  0
LINE
  8
0
  6
CONTINUOUS
 62
     1
 10
781.075
 20
165.5
 30
0.0
 11
721.575
 21
165.5
 31
0.0
  0
LINE
  8
0
  6
LTYPE1
 62
     2
 10
1188.575
 20
634.4
 30
0.0
 11
1195.0
 21
634.4
 31
0.0
  0
LINE
  8
0
  6
CONTINUOUS
 62
     1
 10
1195.0
 20
634.4
 30
0.0
 11
1221.987482205
 21
634.4
 31
0.0
  0
ARC
  8
0
  6
LTYPE1
 62
     2
 10
1188.575
 20
639.4
 30
0.0
 40
5.0
 50
197.014683276
 51
270.0
  0
LINE
  8
0
  6
CONTINUOUS
 62
     1
 10
1183.575
 20
637.979567053
 30
0.0
 11
1183.575
 21
751.4
 31
0.0
  0
LINE
  8
0
  6
CONTINUOUS
 62
     1
 10
1202.566794334
 20
633.464909792
 30
0.0
 11
1209.88766281
 21
634.4
 31
0.0
  0
ARC
  8
0
  6
LTYPE1
 62
     2
 10
1203.453679656
 20
626.521320344
 30
0.0
 40
7.0
 50
157.569655524
 51
172.721057981
  0
ARC
  8
0
  6
CONTINUOUS
 62
     1
 10
1203.453679656
 20
626.521320344
 30
0.0
 40
7.0
 50
97.278818131
 51
157.569655524
  0
LINE
  8
0
  6
LTYPE1
 62
     2
 10
1184.575
 20
571.25050745
 30
0.0
 11
1184.575
 21
635.192240152
 31
0.0
  0
LINE
  8
7
  6
CONTINUOUS
 62
     2
 10
1304.575
 20
526.192240152
 30
0.0
 11
1304.575
 21
422.25050745
 31
0.0
  0
LINE
  8
7
  6
CONTINUOUS
 62
     2
 10
1184.575
 20
527.192240152
 30
0.0
 11
1184.575
 21
422.25050745
 31
0.0
  0
LINE
  8
2
  6
CONTINUOUS
 62
     2
 10
1115.432018398
 20
756.162278662
 30
0.0
 11
1016.5
 21
756.162278662
 31
0.0
  0
TEXT
  8
2
  6
CONTINUOUS
 62
     2
 10
1018.410180805
 20
760.162278662
 30
0.0
 40
15.0
  1
２－ＰＦ１／２
 50
0.0
 41
0.9
 51
0.0
  7
KANJI30
  0
LINE
  8
0
  6
CONTINUOUS
 62
     2
 10
1146.5
 20
682.0
 30
0.0
 11
1115.432018398
 21
756.162278662
 31
0.0
  0
LINE
  8
0
  6
CONTINUOUS
 62
     2
 10
1146.5
 20
682.0
 30
0.0
 11
1145.15499589
 21
691.909135378
 31
0.0
  0
LINE
  8
0
  6
CONTINUOUS
 62
     2
 10
1146.5
 20
682.0
 30
0.0
 11
1140.380624583
 21
689.909060912
 31
0.0
  0
LINE
  8
7
  6
CONTINUOUS
 62
     2
 10
1128.5
 20
707.465188182
 30
0.0
 11
982.415741737
 21
707.465188182
 31
0.0
  0
TEXT
  8
7
  6
CONTINUOUS
 62
     2
 10
386.675
 20
846.4
 30
0.0
 40
15.0
  1
２１３
 50
0.0
 41
0.9
 51
0.0
  7
KANJI30
  0
TEXT
  8
7
  6
CONTINUOUS
 62
     2
 10
256.175
 20
846.4
 30
0.0
 40
15.0
  1
６０
 50
0.0
 41
0.9
 51
0.0
  7
KANJI30
  0
LINE
  8
7
  6
CONTINUOUS
 62
     2
 10
1318.092857143
 20
695.4
 30
0.0
 11
1335.092857143
 21
695.4
 31
0.0
  0
LINE
  8
0
  6
CONTINUOUS
 62
     1
 10
770.575
 20
165.5
 30
0.0
 11
770.575
 21
148.5
 31
0.0
  0
TEXT
  8
0
  6
CONTINUOUS
 62
     2
 10
1369.1666945
 20
86.499995
 30
1.5
 40
17.5
  1
０７．０９．２６
 50
0.0
 41
0.571428571
 51
0.0
  7
KANJI50
  0
LINE
  8
0
  6
CONTINUOUS
 62
     1
 10
1557.0
 20
1338.0
 30
0.0
 11
1994.5
 21
1338.0
 31
0.0
  0
TEXT
  8
0
  6
CONTINUOUS
 62
     2
 10
1619.5
 20
1301.5
 30
14.2497
 40
22.5
  1
マイティシリンダ仕様
 50
0.0
 41
0.9
 51
0.0
  7
KANJI51
  0
LINE
  8
0
  6
CONTINUOUS
 62
     2
 10
1557.0
 20
728.0
 30
0.0
 11
1994.5
 21
728.0
 31
0.0
  0
LINE
  8
0
  6
CONTINUOUS
 62
     2
 10
1557.0
 20
693.0
 30
0.0
 11
1994.5
 21
693.0
 31
0.0
  0
LINE
  8
0
  6
CONTINUOUS
 62
     2
 10
1597.0
 20
763.0
 30
0.0
 11
1994.5
 21
763.0
 31
0.0
  0
LINE
  8
0
  6
CONTINUOUS
 62
     2
 10
1597.0
 20
1008.0
 30
0.0
 11
1597.0
 21
728.0
 31
0.0
  0
LINE
  8
0
  6
CONTINUOUS
 62
     2
 10
1597.0
 20
868.0
 30
0.0
 11
1994.5
 21
868.0
 31
0.0
  0
LINE
  8
0
  6
CONTINUOUS
 62
     2
 10
1597.0
 20
903.0
 30
0.0
 11
1994.5
 21
903.0
 31
0.0
  0
LINE
  8
0
  6
CONTINUOUS
 62
     2
 10
1557.0
 20
1078.0
 30
0.0
 11
1994.5
 21
1078.0
 31
0.0
  0
LINE
  8
0
  6
CONTINUOUS
 62
     2
 10
1557.0
 20
1043.0
 30
0.0
 11
1994.5
 21
1043.0
 31
0.0
  0
LINE
  8
0
  6
CONTINUOUS
 62
     2
 10
1557.0
 20
1008.0
 30
0.0
 11
1994.5
 21
1008.0
 31
0.0
  0
LINE
  8
0
  6
CONTINUOUS
 62
     2
 10
1597.0
 20
938.0
 30
0.0
 11
1994.5
 21
938.0
 31
0.0
  0
LINE
  8
0
  6
CONTINUOUS
 62
     2
 10
1597.0
 20
973.0
 30
0.0
 11
1994.5
 21
973.0
 31
0.0
  0
LINE
  8
0
  6
CONTINUOUS
 62
     2
 10
1557.0
 20
1253.0
 30
0.0
 11
1994.5
 21
1253.0
 31
0.0
  0
LINE
  8
0
  6
CONTINUOUS
 62
     2
 10
1557.0
 20
1218.0
 30
0.0
 11
1994.5
 21
1218.0
 31
0.0
  0
LINE
  8
0
  6
CONTINUOUS
 62
     2
 10
1557.0
 20
1183.0
 30
0.0
 11
1994.5
 21
1183.0
 31
0.0
  0
LINE
  8
0
  6
CONTINUOUS
 62
     2
 10
1557.0
 20
1148.0
 30
0.0
 11
1994.5
 21
1148.0
 31
0.0
  0
LINE
  8
0
  6
CONTINUOUS
 62
     2
 10
1557.0
 20
1113.0
 30
0.0
 11
1994.5
 21
1113.0
 31
0.0
  0
LINE
  8
0
  6
CONTINUOUS
 62
     2
 10
1557.0
 20
1288.0
 30
0.0
 11
1994.5
 21
1288.0
 31
0.0
  0
TEXT
  8
0
  6
CONTINUOUS
 62
     2
 10
1619.5
 20
947.0
 30
27.866485714
 40
19.0
  1
電源電圧
 50
0.0
 41
0.9
 51
0.0
  7
KANJI52
  0
TEXT
  8
0
  6
CONTINUOUS
 62
     2
 10
1619.5
 20
912.0
 30
50.35
 40
19.0
  1
周波数
 50
0.0
 41
0.9
 51
0.0
  7
KANJI53
  0
TEXT
  8
0
  6
CONTINUOUS
 62
     2
 10
1619.5
 20
877.0
 30
117.8
 40
19.0
  1
電流
 50
0.0
 41
0.9
 51
0.0
  7
KANJI54
  0
TEXT
  8
0
  6
CONTINUOUS
 62
     2
 10
1619.5
 20
842.0
 30
50.35
 40
19.0
  1
絶縁級
 50
0.0
 41
0.9
 51
0.0
  7
KANJI53
  0
TEXT
  8
0
  6
CONTINUOUS
 62
     2
 10
1584.5
 20
1262.0
 30
150.371428571
 40
19.0
  1
形式
 50
0.0
 41
0.9
 51
0.0
  7
KANJI55
  0
TEXT
  8
0
  6
CONTINUOUS
 62
     2
 10
1584.5
 20
1227.0
 30
150.371428571
 40
19.0
  1
推力
 50
0.0
 41
0.9
 51
0.0
  7
KANJI55
  0
TEXT
  8
0
  6
CONTINUOUS
 62
     2
 10
1584.5
 20
1192.0
 30
24.767857143
 40
19.0
  1
ストローク
 50
0.0
 41
0.9
 51
0.0
  7
KANJI56
  0
TEXT
  8
0
  6
CONTINUOUS
 62
     2
 10
1584.5
 20
1087.0
 30
150.371428571
 40
19.0
  1
構造
 50
0.0
 41
0.9
 51
0.0
  7
KANJI55
  0
TEXT
  8
0
  6
CONTINUOUS
 62
     2
 10
1584.5
 20
1052.0
 30
10.811542857
 40
19.0
  1
過負荷安全装置
 50
0.0
 41
0.9
 51
0.0
  7
KANJI57
  0
TEXT
  8
0
  6
CONTINUOUS
 62
     2
 10
1584.5
 20
1017.0
 30
66.635714286
 40
19.0
  1
塗装色
 50
0.0
 41
0.9
 51
0.0
  7
KANJI58
  0
TEXT
  8
0
  6
CONTINUOUS
 62
     2
 10
1564.5
 20
1122.0
 30
1.628571429
 40
19.0
  1
ピストンロッド回転トルク
 50
0.0
 41
0.9
 51
0.0
  7
KANJI59
  0
TEXT
  8
0
  6
CONTINUOUS
 62
     2
 10
1584.5
 20
702.0
 30
66.635714286
 40
19.0
  1
付属品
 50
0.0
 41
0.9
 51
0.0
  7
KANJI58
  0
LINE
  8
0
  6
CONTINUOUS
 62
     2
 10
1557.0
 20
833.0
 30
0.0
 11
1994.5
 21
833.0
 31
0.0
  0
LINE
  8
0
  6
CONTINUOUS
 62
     2
 10
1597.0
 20
798.0
 30
0.0
 11
1994.5
 21
798.0
 31
0.0
  0
TEXT
  8
0
  6
CONTINUOUS
 62
     2
 10
1577.375
 20
1003.0
 30
11.0
 40
17.5
  1
モ　トル仕様
 50
0.0
 41
0.9
 51
0.0
  7
KANJI60
  0
TEXT
  8
0
  6
CONTINUOUS
 62
     2
 10
1577.375
 20
818.0
 30
1.0
 40
17.5
  1
ブレ　キ
 50
0.0
 41
0.9
 51
0.0
  7
KANJI61
  0
LINE
  8
0
  6
CONTINUOUS
 62
     2
 10
1576.0
 20
776.5
 30
0.0
 11
1576.0
 21
766.0
 31
0.0
  0
TEXT
  8
0
  6
CONTINUOUS
 62
     2
 10
1835.75
 20
1053.0
 30
7.5
 40
17.5
  1
推力リミッタ
 50
0.0
 41
0.9
 51
0.0
  7
KANJI62
  0
TEXT
  8
0
  6
CONTINUOUS
 62
     2
 10
1883.25
 20
843.0
 30
1.5
 40
15.0
  1
Ｅ
 50
0.0
 41
0.9
 51
0.0
  7
KANJI63
  0
TEXT
  8
0
  6
CONTINUOUS
 62
     2
 10
1847.0
 20
772.0
 30
10.0
 40
17.5
  1
同時切り
 50
0.0
 41
0.9
 51
0.0
  7
KANJI64
  0
TEXT
  8
0
  6
CONTINUOUS
 62
     2
 10
1619.5
 20
807.0
 30
117.8
 40
19.0
  1
形式
 50
0.0
 41
0.9
 51
0.0
  7
KANJI54
  0
TEXT
  8
0
  6
CONTINUOUS
 62
     2
 10
1619.5
 20
772.0
 30
27.866485714
 40
19.0
  1
操作方式
 50
0.0
 41
0.9
 51
0.0
  7
KANJI52
  0
LINE
  8
0
  6
CONTINUOUS
 62
     2
 10
1576.0
 20
972.5
 30
0.0
 11
1576.0
 21
961.0
 31
0.0
  0
TEXT
  8
0
  6
CONTINUOUS
 62
     2
 10
1619.5
 20
982.0
 30
2.5
 40
19.0
  1
出力　相数　極数
 50
0.0
 41
0.9
 51
0.0
  7
KANJI65
  0
TEXT
  8
0
  6
CONTINUOUS
 62
     2
 10
1584.5
 20
1157.0
 30
10.0
 40
19.0
  1
公称速度
 50
0.0
 41
0.9
 51
0.0
  7
KANJI66
  0
TEXT
  8
0
  6
CONTINUOUS
 62
     2
 10
1687.75
 20
1156.0
 30
0.0
 40
17.5
  1
（５０／６０Ｈｚ）
 50
0.0
 41
0.628571429
 51
0.0
  7
KANJI67
  0
TEXT
  8
0
  6
CONTINUOUS
 62
     2
 10
1788.25
 20
807.375
 30
2.75
 40
17.0
  1
スプリング制動式電磁ブレーキ
 50
0.0
 41
0.705882353
 51
0.0
  7
KANJI68
  0
TEXT
  8
0
  6
CONTINUOUS
 62
     2
 10
1970.75
 20
947.0
 30
0.18
 40
15.0
  1
Ｖ
 50
0.0
 41
0.8
 51
0.0
  7
KANJI69
  0
TEXT
  8
0
  6
CONTINUOUS
 62
     2
 10
1961.75
 20
912.0
 30
0.18
 40
15.0
  1
Ｈｚ
 50
0.0
 41
0.8
 51
0.0
  7
KANJI69
  0
TEXT
  8
0
  6
CONTINUOUS
 62
     2
 10
1970.75
 20
877.0
 30
0.18
 40
15.0
  1
Ａ
 50
0.0
 41
0.8
 51
0.0
  7
KANJI69
  0
TEXT
  8
0
  6
CONTINUOUS
 62
     2
 10
1905.0
 20
983.0
 30
1.5
 40
15.0
  1
３φ
 50
0.0
 41
0.9
 51
0.0
  7
KANJI63
  0
TEXT
  8
0
  6
CONTINUOUS
 62
     2
 10
1955.0
 20
983.0
 30
1.5
 40
15.0
  1
４Ｐ
 50
0.0
 41
0.9
 51
0.0
  7
KANJI63
  0
TEXT
  8
0
  6
CONTINUOUS
 62
     2
 10
1787.0
 20
1018.0
 30
1.0
 40
16.0
  1
マンセル　７．５ＧＹ　５／４．５
 50
0.0
 41
0.71875
 51
0.0
  7
KANJI70
  0
TEXT
  8
0
  6
CONTINUOUS
 62
     2
 10
1787.0
 20
948.0
 30
1.5
 40
15.0
  1
　　　　　　　／　　　
 50
0.0
 41
0.9
 51
0.0
  7
KANJI63
  0
TEXT
  8
0
  6
CONTINUOUS
 62
     2
 10
1787.0
 20
913.0
 30
1.5
 40
15.0
  1
　　　　５０／　６０
 50
0.0
 41
0.9
 51
0.0
  7
KANJI63
  0
TEXT
  8
0
  6
CONTINUOUS
 62
     2
 10
1787.0
 20
878.0
 30
1.5
 40
15.0
  1
　　　　　　　／　　　
 50
0.0
 41
0.9
 51
0.0
  7
KANJI63
  0
TEXT
  8
0
  6
CONTINUOUS
 62
     2
 10
1957.5
 20
1194.0
 30
0.128
 40
16.0
  1
ｍｍ
 50
0.0
 41
0.8
 51
0.0
  7
KANJI71
  0
TEXT
  8
0
  6
CONTINUOUS
 62
     2
 10
1925.0
 20
1158.0
 30
0.0
 40
17.5
  1
ｍｍ／ｓｅｃ
 50
0.0
 41
0.571428571
 51
0.0
  7
KANJI72
  0
TEXT
  8
0
  6
CONTINUOUS
 62
     2
 10
1792.0
 20
983.0
 30
1.5
 40
15.0
  1
　０．３ＫＷ
 50
0.0
 41
0.9
 51
0.0
  7
KANJI63
  0
TEXT
  8
0
  6
CONTINUOUS
 62
     2
 10
1835.75
 20
1088.0
 30
7.5
 40
17.5
  1
全閉屋内形
 50
0.0
 41
0.9
 51
0.0
  7
KANJI62
  0
TEXT
  8
0
  6
CONTINUOUS
 62
     2
 10
1798.25
 20
1261.25
 30
1.0
 40
15.0
  1
ＭＣＬＢ０１－　　Ｌ
 50
0.0
 41
0.833333333
 51
0.0
  7
KANJI73
  0
TEXT
  8
0
  6
CONTINUOUS
 62
     2
 10
1784.5
 20
1158.0
 30
1.5
 40
15.0
  1
　　２５／３０
 50
0.0
 41
0.9
 51
0.0
  7
KANJI63
  0
TEXT
  8
0
  6
CONTINUOUS
 62
     2
 10
1823.5
 20
1228.0
 30
1.5
 40
15.0
  1
９８０Ｎ（１００ｋｇ）
 50
0.0
 41
0.9
 51
0.0
  7
KANJI63
  0
TEXT
  8
0
  6
CONTINUOUS
 62
     2
 10
1795.125
 20
1120.875
 30
0.0
 40
15.0
  1
２．９Ｎ・ｍ（０．３ｋｇ・ｍ）
 50
0.0
 41
0.833333333
 51
0.0
  7
KANJI74
  0
LINE
  8
0
  6
CONTINUOUS
 62
     1
 10
1557.0
 20
622.0
 30
0.0
 11
1994.5
 21
622.0
 31
0.0
  0
LINE
  8
0
  6
CONTINUOUS
 62
     2
 10
1557.0
 20
657.0
 30
0.0
 11
1994.5
 21
657.0
 31
0.0
  0
TEXT
  8
0
  6
CONTINUOUS
 62
     2
 10
1948.5
 20
632.15
 30
0.0
 40
17.5
  1
ｋｇ
 50
0.0
 41
0.9
 51
0.0
  7
KANJI75
  0
TEXT
  8
0
  6
CONTINUOUS
 62
     2
 10
1584.5
 20
666.0
 30
150.371428571
 40
19.0
  1
台数
 50
0.0
 41
0.9
 51
0.0
  7
KANJI55
  0
TEXT
  8
0
  6
CONTINUOUS
 62
     2
 10
1587.5
 20
631.0
 30
5.0
 40
17.5
  1
概算重量（１台当り）
 50
0.0
 41
0.857142857
 51
0.0
  7
KANJI16
  0
LINE
  8
0
  6
CONTINUOUS
 62
     2
 10
1787.0
 20
1288.0
 30
0.0
 11
1787.0
 21
622.0
 31
0.0
  0
LINE
  8
0
  6
CONTINUOUS
 62
     1
 10
1557.0
 20
1338.0
 30
0.0
 11
1557.0
 21
622.0
 31
0.0
  0
LINE
  8
0
  6
CONTINUOUS
 62
     1
 10
1994.5
 20
1338.0
 30
0.0
 11
1994.5
 21
622.0
 31
0.0
  0
ENDSEC
  0
EOF
