  0
SECTION
  2
HEADER
  9
$ACADVER
  1
AC1009
  9
$DWGCODEPAGE
  3
dos932
  9
$EXTMIN
 10
0.0
 20
0.0
 30
0.0
  9
$EXTMAX
 10
2100.0
 20
1485.0
 30
0.0
  9
$LIMMIN
 10
0.0
 20
0.0
  9
$LIMMAX
 10
2100.0
 20
1485.0
  9
$LTSCALE
 40
1.0
  9
$PDMODE
 70
     0
  0
ENDSEC
  0
SECTION
  2
TABLES
  0
TABLE
  2
VPORT
 70
     1
  0
VPORT
  2
*ACTIVE
 70
     0
 10
0.0
 20
0.0
 11
1.0
 21
1.0
 12
1050.0
 22
742.5
 13
0.0
 23
0.0
 14
10.0
 24
10.0
 15
10.0
 25
10.0
 16
0.0
 26
0.0
 36
1.0
 17
0.0
 27
0.0
 37
0.0
 40
2100.0
 41
1.414141414
 42
50.0
 43
0.0
 44
0.0
 50
0.0
 51
0.0
 71
     0
 72
  1000
 73
     1
 74
     3
 75
     0
 76
     0
 77
     0
 78
     0
  0
ENDTAB
  0
TABLE
  2
LTYPE
 70
     7
  0
LTYPE
  2
CONTINUOUS
 70
    64
  3
Solid line
 72
    65
 73
     0
 40
0.0
  0
LTYPE
  2
LTYPE1
 70
    64
  3
HIDDEN
 72
    65
 73
     2
 40
15.0
 49
9.0
 49
-6.0
  0
LTYPE
  2
LTYPE2
 70
    64
  3
CENTER
 72
    65
 73
     4
 40
75.0
 49
52.5
 49
-7.5
 49
7.5
 49
-7.5
  0
LTYPE
  2
LTYPE3
 70
    64
  3
PHANTOM
 72
    65
 73
     6
 40
50.0
 49
37.5
 49
-2.5
 49
2.5
 49
-2.5
 49
2.5
 49
-2.5
  0
LTYPE
  2
LTYPE4
 70
    64
  3
CENTER
 72
    65
 73
     4
 40
50.0
 49
35.0
 49
-5.0
 49
5.0
 49
-5.0
  0
LTYPE
  2
LTYPE5
 70
    64
  3
CENTER
 72
    65
 73
     4
 40
100.0
 49
70.0
 49
-10.0
 49
10.0
 49
-10.0
  0
LTYPE
  2
LTYPE6
 70
    64
  3
CENTER
 72
    65
 73
     4
 40
45.0
 49
31.5
 49
-4.5
 49
4.5
 49
-4.5
  0
ENDTAB
  0
TABLE
  2
LAYER
 70
   128
  0
LAYER
  2
0
 70
     0
 62
     7
  6
CONTINUOUS
  0
LAYER
  2
2
 70
     0
 62
     7
  6
CONTINUOUS
  0
LAYER
  2
3
 70
     0
 62
     7
  6
CONTINUOUS
  0
LAYER
  2
4
 70
     0
 62
     7
  6
CONTINUOUS
  0
LAYER
  2
5
 70
     0
 62
     7
  6
CONTINUOUS
  0
LAYER
  2
6
 70
     0
 62
     7
  6
CONTINUOUS
  0
LAYER
  2
7
 70
     0
 62
     7
  6
CONTINUOUS
  0
LAYER
  2
8
 70
     0
 62
     7
  6
CONTINUOUS
  0
LAYER
  2
9
 70
     0
 62
     7
  6
CONTINUOUS
  0
LAYER
  2
10
 70
     0
 62
     7
  6
CONTINUOUS
  0
LAYER
  2
11
 70
     0
 62
     7
  6
CONTINUOUS
  0
LAYER
  2
12
 70
     0
 62
     7
  6
CONTINUOUS
  0
LAYER
  2
13
 70
     0
 62
     7
  6
CONTINUOUS
  0
LAYER
  2
14
 70
     0
 62
     7
  6
CONTINUOUS
  0
LAYER
  2
15
 70
     0
 62
     7
  6
CONTINUOUS
  0
LAYER
  2
16
 70
     0
 62
     7
  6
CONTINUOUS
  0
LAYER
  2
17
 70
     0
 62
     7
  6
CONTINUOUS
  0
LAYER
  2
18
 70
     0
 62
     7
  6
CONTINUOUS
  0
LAYER
  2
19
 70
     0
 62
     7
  6
CONTINUOUS
  0
LAYER
  2
20
 70
     0
 62
     7
  6
CONTINUOUS
  0
LAYER
  2
21
 70
     0
 62
     7
  6
CONTINUOUS
  0
LAYER
  2
22
 70
     0
 62
     7
  6
CONTINUOUS
  0
LAYER
  2
23
 70
     0
 62
     7
  6
CONTINUOUS
  0
LAYER
  2
24
 70
     0
 62
     7
  6
CONTINUOUS
  0
LAYER
  2
25
 70
     0
 62
     7
  6
CONTINUOUS
  0
LAYER
  2
26
 70
     0
 62
     7
  6
CONTINUOUS
  0
LAYER
  2
27
 70
     0
 62
     7
  6
CONTINUOUS
  0
LAYER
  2
28
 70
     0
 62
     7
  6
CONTINUOUS
  0
LAYER
  2
29
 70
     0
 62
     7
  6
CONTINUOUS
  0
LAYER
  2
30
 70
     0
 62
     7
  6
CONTINUOUS
  0
LAYER
  2
31
 70
     0
 62
     7
  6
CONTINUOUS
  0
LAYER
  2
32
 70
     0
 62
     7
  6
CONTINUOUS
  0
LAYER
  2
33
 70
     0
 62
     7
  6
CONTINUOUS
  0
LAYER
  2
34
 70
     0
 62
     7
  6
CONTINUOUS
  0
LAYER
  2
35
 70
     0
 62
     7
  6
CONTINUOUS
  0
LAYER
  2
36
 70
     0
 62
     7
  6
CONTINUOUS
  0
LAYER
  2
37
 70
     0
 62
     7
  6
CONTINUOUS
  0
LAYER
  2
38
 70
     0
 62
     7
  6
CONTINUOUS
  0
LAYER
  2
39
 70
     0
 62
     7
  6
CONTINUOUS
  0
LAYER
  2
40
 70
     0
 62
     7
  6
CONTINUOUS
  0
LAYER
  2
41
 70
     0
 62
     7
  6
CONTINUOUS
  0
LAYER
  2
42
 70
     0
 62
     7
  6
CONTINUOUS
  0
LAYER
  2
43
 70
     0
 62
     7
  6
CONTINUOUS
  0
LAYER
  2
44
 70
     0
 62
     7
  6
CONTINUOUS
  0
LAYER
  2
45
 70
     0
 62
     7
  6
CONTINUOUS
  0
LAYER
  2
46
 70
     0
 62
     7
  6
CONTINUOUS
  0
LAYER
  2
47
 70
     0
 62
     7
  6
CONTINUOUS
  0
LAYER
  2
48
 70
     0
 62
     7
  6
CONTINUOUS
  0
LAYER
  2
49
 70
     0
 62
     7
  6
CONTINUOUS
  0
LAYER
  2
50
 70
     0
 62
     7
  6
CONTINUOUS
  0
LAYER
  2
51
 70
     0
 62
     7
  6
CONTINUOUS
  0
LAYER
  2
52
 70
     0
 62
     7
  6
CONTINUOUS
  0
LAYER
  2
53
 70
     0
 62
     7
  6
CONTINUOUS
  0
LAYER
  2
54
 70
     0
 62
     7
  6
CONTINUOUS
  0
LAYER
  2
55
 70
     0
 62
     7
  6
CONTINUOUS
  0
LAYER
  2
56
 70
     0
 62
     7
  6
CONTINUOUS
  0
LAYER
  2
57
 70
     0
 62
     7
  6
CONTINUOUS
  0
LAYER
  2
58
 70
     0
 62
     7
  6
CONTINUOUS
  0
LAYER
  2
59
 70
     0
 62
     7
  6
CONTINUOUS
  0
LAYER
  2
60
 70
     0
 62
     7
  6
CONTINUOUS
  0
LAYER
  2
61
 70
     0
 62
     7
  6
CONTINUOUS
  0
LAYER
  2
62
 70
     0
 62
     7
  6
CONTINUOUS
  0
LAYER
  2
63
 70
     0
 62
     7
  6
CONTINUOUS
  0
LAYER
  2
64
 70
     0
 62
     7
  6
CONTINUOUS
  0
LAYER
  2
65
 70
     0
 62
     7
  6
CONTINUOUS
  0
LAYER
  2
66
 70
     0
 62
     7
  6
CONTINUOUS
  0
LAYER
  2
67
 70
     0
 62
     7
  6
CONTINUOUS
  0
LAYER
  2
68
 70
     0
 62
     7
  6
CONTINUOUS
  0
LAYER
  2
69
 70
     0
 62
     7
  6
CONTINUOUS
  0
LAYER
  2
70
 70
     0
 62
     7
  6
CONTINUOUS
  0
LAYER
  2
71
 70
     0
 62
     7
  6
CONTINUOUS
  0
LAYER
  2
72
 70
     0
 62
     7
  6
CONTINUOUS
  0
LAYER
  2
73
 70
     0
 62
     7
  6
CONTINUOUS
  0
LAYER
  2
74
 70
     0
 62
     7
  6
CONTINUOUS
  0
LAYER
  2
75
 70
     0
 62
     7
  6
CONTINUOUS
  0
LAYER
  2
76
 70
     0
 62
     7
  6
CONTINUOUS
  0
LAYER
  2
77
 70
     0
 62
     7
  6
CONTINUOUS
  0
LAYER
  2
78
 70
     0
 62
     7
  6
CONTINUOUS
  0
LAYER
  2
79
 70
     0
 62
     7
  6
CONTINUOUS
  0
LAYER
  2
80
 70
     0
 62
     7
  6
CONTINUOUS
  0
LAYER
  2
81
 70
     0
 62
     7
  6
CONTINUOUS
  0
LAYER
  2
82
 70
     0
 62
     7
  6
CONTINUOUS
  0
LAYER
  2
83
 70
     0
 62
     7
  6
CONTINUOUS
  0
LAYER
  2
84
 70
     0
 62
     7
  6
CONTINUOUS
  0
LAYER
  2
85
 70
     0
 62
     7
  6
CONTINUOUS
  0
LAYER
  2
86
 70
     0
 62
     7
  6
CONTINUOUS
  0
LAYER
  2
87
 70
     0
 62
     7
  6
CONTINUOUS
  0
LAYER
  2
88
 70
     0
 62
     7
  6
CONTINUOUS
  0
LAYER
  2
89
 70
     0
 62
     7
  6
CONTINUOUS
  0
LAYER
  2
90
 70
     0
 62
     7
  6
CONTINUOUS
  0
LAYER
  2
91
 70
     0
 62
     7
  6
CONTINUOUS
  0
LAYER
  2
92
 70
     0
 62
     7
  6
CONTINUOUS
  0
LAYER
  2
93
 70
     0
 62
     7
  6
CONTINUOUS
  0
LAYER
  2
94
 70
     0
 62
     7
  6
CONTINUOUS
  0
LAYER
  2
95
 70
     0
 62
     7
  6
CONTINUOUS
  0
LAYER
  2
96
 70
     0
 62
     7
  6
CONTINUOUS
  0
LAYER
  2
97
 70
     0
 62
     7
  6
CONTINUOUS
  0
LAYER
  2
98
 70
     0
 62
     7
  6
CONTINUOUS
  0
LAYER
  2
99
 70
     0
 62
     7
  6
CONTINUOUS
  0
LAYER
  2
100
 70
     0
 62
     7
  6
CONTINUOUS
  0
LAYER
  2
101
 70
     0
 62
     7
  6
CONTINUOUS
  0
LAYER
  2
102
 70
     0
 62
     7
  6
CONTINUOUS
  0
LAYER
  2
103
 70
     0
 62
     7
  6
CONTINUOUS
  0
LAYER
  2
104
 70
     0
 62
     7
  6
CONTINUOUS
  0
LAYER
  2
105
 70
     0
 62
     7
  6
CONTINUOUS
  0
LAYER
  2
106
 70
     0
 62
     7
  6
CONTINUOUS
  0
LAYER
  2
107
 70
     0
 62
     7
  6
CONTINUOUS
  0
LAYER
  2
108
 70
     0
 62
     7
  6
CONTINUOUS
  0
LAYER
  2
109
 70
     0
 62
     7
  6
CONTINUOUS
  0
LAYER
  2
110
 70
     0
 62
     7
  6
CONTINUOUS
  0
LAYER
  2
111
 70
     0
 62
     7
  6
CONTINUOUS
  0
LAYER
  2
112
 70
     0
 62
     7
  6
CONTINUOUS
  0
LAYER
  2
113
 70
     0
 62
     7
  6
CONTINUOUS
  0
LAYER
  2
114
 70
     0
 62
     7
  6
CONTINUOUS
  0
LAYER
  2
115
 70
     0
 62
     7
  6
CONTINUOUS
  0
LAYER
  2
116
 70
     0
 62
     7
  6
CONTINUOUS
  0
LAYER
  2
117
 70
     0
 62
     7
  6
CONTINUOUS
  0
LAYER
  2
118
 70
     0
 62
     7
  6
CONTINUOUS
  0
LAYER
  2
119
 70
     0
 62
     7
  6
CONTINUOUS
  0
LAYER
  2
120
 70
     0
 62
     7
  6
CONTINUOUS
  0
LAYER
  2
121
 70
     0
 62
     7
  6
CONTINUOUS
  0
LAYER
  2
122
 70
     0
 62
     7
  6
CONTINUOUS
  0
LAYER
  2
123
 70
     0
 62
     7
  6
CONTINUOUS
  0
LAYER
  2
124
 70
     0
 62
     7
  6
CONTINUOUS
  0
LAYER
  2
125
 70
     0
 62
     7
  6
CONTINUOUS
  0
LAYER
  2
126
 70
     0
 62
     7
  6
CONTINUOUS
  0
LAYER
  2
127
 70
     0
 62
     7
  6
CONTINUOUS
  0
LAYER
  2
128
 70
     0
 62
     7
  6
CONTINUOUS
  0
ENDTAB
  0
TABLE
  2
STYLE
 70
    77
  0
STYLE
  2
STANDARD
 70
     0
 40
0.0
 41
1.0
 50
0.0
 71
     0
 42
0.2
  3
txt.shx
  4
extfont.shx
  0
STYLE
  2
KANJI0
 70
     0
 40
12.8
 41
0.9
 50
0.0
 71
     0
 42
12.8
  3
txt.shx
  4
extfont.shx
  0
STYLE
  2
KANJI1
 70
     0
 40
12.0
 41
0.9
 50
0.0
 71
     0
 42
12.0
  3
txt.shx
  4
extfont.shx
  0
STYLE
  2
KANJI2
 70
     0
 40
12.0
 41
0.9
 50
0.0
 71
     0
 42
12.0
  3
txt.shx
  4
extfont.shx
  0
STYLE
  2
KANJI3
 70
     0
 40
14.0
 41
0.9
 50
0.0
 71
     0
 42
14.0
  3
txt.shx
  4
extfont.shx
  0
STYLE
  2
KANJI4
 70
     0
 40
10.8
 41
0.740740741
 50
0.0
 71
     0
 42
10.8
  3
txt.shx
  4
extfont.shx
  0
STYLE
  2
KANJI5
 70
     0
 40
14.0
 41
0.857142857
 50
0.0
 71
     0
 42
14.0
  3
txt.shx
  4
extfont.shx
  0
STYLE
  2
KANJI6
 70
     0
 40
9.999997897
 41
0.6
 50
0.0
 71
     0
 42
9.999997897
  3
txt.shx
  4
extfont.shx
  0
STYLE
  2
KANJI7
 70
     0
 40
11.999997477
 41
0.9
 50
0.0
 71
     0
 42
11.999997477
  3
txt.shx
  4
extfont.shx
  0
STYLE
  2
KANJI8
 70
     0
 40
14.999996846
 41
0.9
 50
0.0
 71
     0
 42
14.999996846
  3
txt.shx
  4
extfont.shx
  0
STYLE
  2
KANJI9
 70
     0
 40
12.999999
 41
0.75
 50
0.0
 71
     0
 42
12.999999
  3
txt.shx
  4
extfont.shx
  0
STYLE
  2
KANJI10
 70
     0
 40
8.666666
 41
0.6
 50
0.0
 71
     0
 42
8.666666
  3
txt.shx
  4
extfont.shx
  0
STYLE
  2
KANJI11
 70
     0
 40
10.3999992
 41
0.6
 50
0.0
 71
     0
 42
10.3999992
  3
txt.shx
  4
extfont.shx
  0
STYLE
  2
KANJI12
 70
     0
 40
15.1666655
 41
0.42031746
 50
0.0
 71
     0
 42
15.1666655
  3
txt.shx
  4
extfont.shx
  0
STYLE
  2
KANJI13
 70
     0
 40
25.999998
 41
0.9
 50
0.0
 71
     0
 42
25.999998
  3
txt.shx
  4
extfont.shx
  0
STYLE
  2
KANJI14
 70
     0
 40
22.5
 41
0.666666667
 50
0.0
 71
     0
 42
22.5
  3
txt.shx
  4
extfont.shx
  0
STYLE
  2
KANJI15
 70
     0
 40
18.0
 41
1.111111111
 50
0.0
 71
     0
 42
18.0
  3
txt.shx
  4
extfont.shx
  0
STYLE
  2
KANJI16
 70
     0
 40
8.666666
 41
0.8
 50
0.0
 71
     0
 42
8.666666
  3
txt.shx
  4
extfont.shx
  0
STYLE
  2
KANJI17
 70
     0
 40
10.3999992
 41
0.8
 50
0.0
 71
     0
 42
10.3999992
  3
txt.shx
  4
extfont.shx
  0
STYLE
  2
KANJI18
 70
     0
 40
25.0
 41
1.0
 50
0.0
 71
     0
 42
25.0
  3
txt.shx
  4
extfont.shx
  0
STYLE
  2
KANJI19
 70
     0
 40
25.0
 41
1.0
 50
0.0
 71
     0
 42
25.0
  3
txt.shx
  4
extfont.shx
  0
STYLE
  2
KANJI20
 70
     0
 40
25.0
 41
0.8
 50
0.0
 71
     0
 42
25.0
  3
txt.shx
  4
extfont.shx
  0
STYLE
  2
KANJI21
 70
     0
 40
20.0
 41
1.0
 50
0.0
 71
     0
 42
20.0
  3
txt.shx
  4
extfont.shx
  0
STYLE
  2
KANJI22
 70
     0
 40
17.5
 41
0.857142857
 50
0.0
 71
     0
 42
17.5
  3
txt.shx
  4
extfont.shx
  0
STYLE
  2
KANJI23
 70
     0
 40
12.0
 41
0.833333333
 50
0.0
 71
     0
 42
12.0
  3
txt.shx
  4
extfont.shx
  0
STYLE
  2
KANJI24
 70
     0
 40
17.5
 41
0.793650794
 50
0.0
 71
     0
 42
17.5
  3
txt.shx
  4
extfont.shx
  0
STYLE
  2
KANJI25
 70
     0
 40
25.0
 41
0.8
 50
0.0
 71
     0
 42
25.0
  3
txt.shx
  4
extfont.shx
  0
STYLE
  2
KANJI26
 70
     0
 40
15.0
 41
0.9
 50
0.0
 71
     0
 42
15.0
  3
txt.shx
  4
extfont.shx
  0
STYLE
  2
KANJI27
 70
     0
 40
11.55
 41
0.9
 50
0.0
 71
     0
 42
11.55
  3
txt.shx
  4
extfont.shx
  0
STYLE
  2
KANJI28
 70
     0
 40
13.475
 41
0.9
 50
0.0
 71
     0
 42
13.475
  3
txt.shx
  4
extfont.shx
  0
STYLE
  2
KANJI29
 70
     0
 40
11.661
 41
0.822608696
 50
0.0
 71
     0
 42
11.661
  3
txt.shx
  4
extfont.shx
  0
STYLE
  2
KANJI30
 70
     0
 40
13.182
 41
0.85
 50
0.0
 71
     0
 42
13.182
  3
txt.shx
  4
extfont.shx
  0
STYLE
  2
KANJI31
 70
     0
 40
11.8638
 41
0.726495726
 50
0.0
 71
     0
 42
11.8638
  3
txt.shx
  4
extfont.shx
  0
STYLE
  2
KANJI32
 70
     4
 40
55.0
 41
0.440318182
 50
0.0
 71
     0
 42
55.0
  3
txt.shx
  4
extfont.shx
  0
STYLE
  2
KANJI33
 70
     0
 40
17.740702234
 41
0.880962996
 50
0.0
 71
     0
 42
17.740702234
  3
txt.shx
  4
extfont.shx
  0
STYLE
  2
KANJI34
 70
     0
 40
11.7
 41
0.8
 50
0.0
 71
     0
 42
11.7
  3
txt.shx
  4
extfont.shx
  0
STYLE
  2
KANJI35
 70
     0
 40
15.0
 41
0.911
 50
0.0
 71
     0
 42
15.0
  3
txt.shx
  4
extfont.shx
  0
STYLE
  2
KANJI36
 70
     0
 40
20.0
 41
0.925
 50
0.0
 71
     0
 42
20.0
  3
txt.shx
  4
extfont.shx
  0
STYLE
  2
KANJI37
 70
     0
 40
20.0
 41
0.925
 50
0.0
 71
     0
 42
20.0
  3
txt.shx
  4
extfont.shx
  0
STYLE
  2
KANJI38
 70
     0
 40
15.0
 41
0.9
 50
0.0
 71
     0
 42
15.0
  3
txt.shx
  4
extfont.shx
  0
STYLE
  2
KANJI39
 70
     0
 40
15.6
 41
0.925
 50
0.0
 71
     0
 42
15.6
  3
txt.shx
  4
extfont.shx
  0
STYLE
  2
KANJI40
 70
     0
 40
10.933904043
 41
0.9
 50
0.0
 71
     0
 42
10.933904043
  3
txt.shx
  4
extfont.shx
  0
STYLE
  2
KANJI41
 70
     0
 40
15.185977837
 41
0.66671875
 50
0.0
 71
     0
 42
15.185977837
  3
txt.shx
  4
extfont.shx
  0
STYLE
  2
KANJI42
 70
     0
 40
18.223173404
 41
0.9
 50
0.0
 71
     0
 42
18.223173404
  3
txt.shx
  4
extfont.shx
  0
STYLE
  2
KANJI43
 70
     0
 40
14.578538724
 41
0.9
 50
0.0
 71
     0
 42
14.578538724
  3
txt.shx
  4
extfont.shx
  0
STYLE
  2
KANJI44
 70
     0
 40
10.0
 41
0.85
 50
0.0
 71
     0
 42
10.0
  3
txt.shx
  4
extfont.shx
  0
STYLE
  2
KANJI45
 70
     0
 40
10.0
 41
0.75
 50
0.0
 71
     0
 42
10.0
  3
txt.shx
  4
extfont.shx
  0
STYLE
  2
KANJI46
 70
     0
 40
15.0
 41
0.8
 50
0.0
 71
     0
 42
15.0
  3
txt.shx
  4
extfont.shx
  0
STYLE
  2
KANJI47
 70
     0
 40
8.4
 41
0.9
 50
0.0
 71
     0
 42
8.4
  3
txt.shx
  4
extfont.shx
  0
STYLE
  2
KANJI48
 70
     0
 40
20.0
 41
0.9
 50
0.0
 71
     0
 42
20.0
  3
txt.shx
  4
extfont.shx
  0
STYLE
  2
KANJI49
 70
     0
 40
17.5
 41
0.857142857
 50
0.0
 71
     0
 42
17.5
  3
txt.shx
  4
extfont.shx
  0
STYLE
  2
KANJI50
 70
     0
 40
17.5
 41
0.571428571
 50
0.0
 71
     0
 42
17.5
  3
txt.shx
  4
extfont.shx
  0
STYLE
  2
KANJI51
 70
     0
 40
22.5
 41
0.9
 50
0.0
 71
     0
 42
22.5
  3
txt.shx
  4
extfont.shx
  0
STYLE
  2
KANJI52
 70
     0
 40
19.0
 41
0.9
 50
0.0
 71
     0
 42
19.0
  3
txt.shx
  4
extfont.shx
  0
STYLE
  2
KANJI53
 70
     0
 40
19.0
 41
0.9
 50
0.0
 71
     0
 42
19.0
  3
txt.shx
  4
extfont.shx
  0
STYLE
  2
KANJI54
 70
     0
 40
19.0
 41
0.9
 50
0.0
 71
     0
 42
19.0
  3
txt.shx
  4
extfont.shx
  0
STYLE
  2
KANJI55
 70
     0
 40
19.0
 41
0.9
 50
0.0
 71
     0
 42
19.0
  3
txt.shx
  4
extfont.shx
  0
STYLE
  2
KANJI56
 70
     0
 40
19.0
 41
0.9
 50
0.0
 71
     0
 42
19.0
  3
txt.shx
  4
extfont.shx
  0
STYLE
  2
KANJI57
 70
     0
 40
19.0
 41
0.9
 50
0.0
 71
     0
 42
19.0
  3
txt.shx
  4
extfont.shx
  0
STYLE
  2
KANJI58
 70
     0
 40
19.0
 41
0.9
 50
0.0
 71
     0
 42
19.0
  3
txt.shx
  4
extfont.shx
  0
STYLE
  2
KANJI59
 70
     0
 40
19.0
 41
0.9
 50
0.0
 71
     0
 42
19.0
  3
txt.shx
  4
extfont.shx
  0
STYLE
  2
KANJI60
 70
     4
 40
17.5
 41
0.9
 50
0.0
 71
     0
 42
17.5
  3
txt.shx
  4
extfont.shx
  0
STYLE
  2
KANJI61
 70
     4
 40
17.5
 41
0.9
 50
0.0
 71
     0
 42
17.5
  3
txt.shx
  4
extfont.shx
  0
STYLE
  2
KANJI62
 70
     0
 40
17.5
 41
0.9
 50
0.0
 71
     0
 42
17.5
  3
txt.shx
  4
extfont.shx
  0
STYLE
  2
KANJI63
 70
     0
 40
15.0
 41
0.9
 50
0.0
 71
     0
 42
15.0
  3
txt.shx
  4
extfont.shx
  0
STYLE
  2
KANJI64
 70
     0
 40
17.5
 41
0.9
 50
0.0
 71
     0
 42
17.5
  3
txt.shx
  4
extfont.shx
  0
STYLE
  2
KANJI65
 70
     0
 40
19.0
 41
0.9
 50
0.0
 71
     0
 42
19.0
  3
txt.shx
  4
extfont.shx
  0
STYLE
  2
KANJI66
 70
     0
 40
19.0
 41
0.9
 50
0.0
 71
     0
 42
19.0
  3
txt.shx
  4
extfont.shx
  0
STYLE
  2
KANJI67
 70
     0
 40
17.5
 41
0.628571429
 50
0.0
 71
     0
 42
17.5
  3
txt.shx
  4
extfont.shx
  0
STYLE
  2
KANJI68
 70
     0
 40
17.0
 41
0.705882353
 50
0.0
 71
     0
 42
17.0
  3
txt.shx
  4
extfont.shx
  0
STYLE
  2
KANJI69
 70
     0
 40
15.0
 41
0.8
 50
0.0
 71
     0
 42
15.0
  3
txt.shx
  4
extfont.shx
  0
STYLE
  2
KANJI70
 70
     0
 40
16.0
 41
0.71875
 50
0.0
 71
     0
 42
16.0
  3
txt.shx
  4
extfont.shx
  0
STYLE
  2
KANJI71
 70
     0
 40
16.0
 41
0.8
 50
0.0
 71
     0
 42
16.0
  3
txt.shx
  4
extfont.shx
  0
STYLE
  2
KANJI72
 70
     0
 40
17.5
 41
0.571428571
 50
0.0
 71
     0
 42
17.5
  3
txt.shx
  4
extfont.shx
  0
STYLE
  2
KANJI73
 70
     0
 40
15.0
 41
0.833333333
 50
0.0
 71
     0
 42
15.0
  3
txt.shx
  4
extfont.shx
  0
STYLE
  2
KANJI74
 70
     0
 40
15.0
 41
0.833333333
 50
0.0
 71
     0
 42
15.0
  3
txt.shx
  4
extfont.shx
  0
STYLE
  2
KANJI75
 70
     0
 40
17.5
 41
0.9
 50
0.0
 71
     0
 42
17.5
  3
txt.shx
  4
extfont.shx
  0
ENDTAB
  0
TABLE
  2
VIEW
 70
     0
  0
ENDTAB
  0
ENDSEC
  0
SECTION
  2
BLOCKS
  0
ENDSEC
  0
SECTION
  2
ENTITIES
  0
LINE
  8
0
  6
CONTINUOUS
 62
     6
 10
68.0
 20
33.0
 30
0.0
 11
68.0
 21
1378.0
 31
0.0
  0
LINE
  8
0
  6
CONTINUOUS
 62
     6
 10
68.0
 20
1378.0
 30
0.0
 11
2003.0
 21
1378.0
 31
0.0
  0
LINE
  8
0
  6
CONTINUOUS
 62
     1
 10
844.0
 20
1215.95
 30
0.0
 11
1492.0
 21
1215.95
 31
0.0
  0
LINE
  8
0
  6
CONTINUOUS
 62
     1
 10
844.0
 20
1187.95
 30
0.0
 11
1492.0
 21
1187.95
 31
0.0
  0
TEXT
  8
0
  6
CONTINUOUS
 62
     2
 10
884.0
 20
1195.95
 30
1.28
 40
12.8
  1
形
 50
0.0
 41
0.9
 51
0.0
  7
KANJI0
  0
TEXT
  8
0
  6
CONTINUOUS
 62
     2
 10
962.0
 20
1195.95
 30
1.28
 40
12.8
  1
式
 50
0.0
 41
0.9
 51
0.0
  7
KANJI0
  0
TEXT
  8
0
  6
CONTINUOUS
 62
     2
 10
1022.4
 20
1195.15
 30
1.2
 40
12.0
  1
ストローク
 50
0.0
 41
0.9
 51
0.0
  7
KANJI1
  0
TEXT
  8
0
  6
CONTINUOUS
 62
     2
 10
1099.2
 20
1194.35
 30
0.0
 40
12.0
  1
ｍｉｎ　
 50
0.0
 41
0.9
 51
0.0
  7
KANJI2
  0
TEXT
  8
0
  6
CONTINUOUS
 62
     2
 10
1179.2
 20
1194.35
 30
0.0
 40
12.0
  1
ｍｉｎ　
 50
0.0
 41
0.9
 51
0.0
  7
KANJI2
  0
TEXT
  8
0
  6
CONTINUOUS
 62
     2
 10
1339.2
 20
1194.35
 30
0.0
 40
12.0
  1
ｍｉｎ　
 50
0.0
 41
0.9
 51
0.0
  7
KANJI2
  0
TEXT
  8
0
  6
CONTINUOUS
 62
     2
 10
1140.0
 20
1195.15
 30
1.4
 40
14.0
  1
ＡＬ
 50
0.0
 41
0.9
 51
0.0
  7
KANJI3
  0
TEXT
  8
0
  6
CONTINUOUS
 62
     2
 10
1220.0
 20
1195.15
 30
1.4
 40
14.0
  1
Ｌ
 50
0.0
 41
0.9
 51
0.0
  7
KANJI3
  0
TEXT
  8
0
  6
CONTINUOUS
 62
     2
 10
1288.0
 20
1195.15
 30
1.4
 40
14.0
  1
Ｃ
 50
0.0
 41
0.9
 51
0.0
  7
KANJI3
  0
TEXT
  8
0
  6
CONTINUOUS
 62
     2
 10
1380.0
 20
1195.15
 30
1.4
 40
14.0
  1
Ｐ
 50
0.0
 41
0.9
 51
0.0
  7
KANJI3
  0
TEXT
  8
0
  6
CONTINUOUS
 62
     2
 10
1462.3
 20
1194.85
 30
0.0
 40
10.8
  1
（ｋｇ）
 50
0.0
 41
0.740740741
 51
0.0
  7
KANJI4
  0
TEXT
  8
0
  6
CONTINUOUS
 62
     2
 10
1414.3
 20
1194.65
 30
1.2
 40
14.0
  1
概算重量
 50
0.0
 41
0.857142857
 51
0.0
  7
KANJI5
  0
TEXT
  8
0
  6
CONTINUOUS
 62
     2
 10
1030.0
 20
1166.65
 30
1.2
 40
12.0
  1
　１００
 50
0.0
 41
0.9
 51
0.0
  7
KANJI1
  0
TEXT
  8
0
  6
CONTINUOUS
 62
     2
 10
1030.0
 20
1138.65
 30
1.2
 40
12.0
  1
　２００
 50
0.0
 41
0.9
 51
0.0
  7
KANJI1
  0
TEXT
  8
0
  6
CONTINUOUS
 62
     2
 10
1030.0
 20
1110.65
 30
1.2
 40
12.0
  1
　３００
 50
0.0
 41
0.9
 51
0.0
  7
KANJI1
  0
TEXT
  8
0
  6
CONTINUOUS
 62
     2
 10
1190.0
 20
1110.65
 30
1.2
 40
12.0
  1
　５０８
 50
0.0
 41
0.9
 51
0.0
  7
KANJI1
  0
TEXT
  8
0
  6
CONTINUOUS
 62
     2
 10
1190.0
 20
1138.65
 30
1.2
 40
12.0
  1
　４０８
 50
0.0
 41
0.9
 51
0.0
  7
KANJI1
  0
TEXT
  8
0
  6
CONTINUOUS
 62
     2
 10
1270.0
 20
1166.65
 30
1.2
 40
12.0
  1
　２３８
 50
0.0
 41
0.9
 51
0.0
  7
KANJI1
  0
TEXT
  8
0
  6
CONTINUOUS
 62
     2
 10
1270.0
 20
1138.65
 30
1.2
 40
12.0
  1
　３３８
 50
0.0
 41
0.9
 51
0.0
  7
KANJI1
  0
TEXT
  8
0
  6
CONTINUOUS
 62
     2
 10
1270.0
 20
1110.65
 30
1.2
 40
12.0
  1
　４３８
 50
0.0
 41
0.9
 51
0.0
  7
KANJI1
  0
TEXT
  8
0
  6
CONTINUOUS
 62
     2
 10
1350.0
 20
1110.65
 30
1.2
 40
12.0
  1
　　３５
 50
0.0
 41
0.9
 51
0.0
  7
KANJI1
  0
TEXT
  8
0
  6
CONTINUOUS
 62
     2
 10
1350.0
 20
1138.65
 30
1.2
 40
12.0
  1
　　３５
 50
0.0
 41
0.9
 51
0.0
  7
KANJI1
  0
TEXT
  8
0
  6
CONTINUOUS
 62
     2
 10
1350.0
 20
1166.65
 30
1.2
 40
12.0
  1
　　３５
 50
0.0
 41
0.9
 51
0.0
  7
KANJI1
  0
TEXT
  8
0
  6
CONTINUOUS
 62
     2
 10
1030.0
 20
998.65
 30
1.2
 40
12.0
  1
　７００
 50
0.0
 41
0.9
 51
0.0
  7
KANJI1
  0
TEXT
  8
0
  6
CONTINUOUS
 62
     2
 10
1190.0
 20
998.65
 30
1.2
 40
12.0
  1
１０６１
 50
0.0
 41
0.9
 51
0.0
  7
KANJI1
  0
TEXT
  8
0
  6
CONTINUOUS
 62
     2
 10
1270.0
 20
998.65
 30
1.2
 40
12.0
  1
　８７８
 50
0.0
 41
0.9
 51
0.0
  7
KANJI1
  0
TEXT
  8
0
  6
CONTINUOUS
 62
     2
 10
1350.0
 20
998.65
 30
1.2
 40
12.0
  1
　１４８
 50
0.0
 41
0.9
 51
0.0
  7
KANJI1
  0
TEXT
  8
0
  6
CONTINUOUS
 62
     2
 10
1030.0
 20
1054.65
 30
1.2
 40
12.0
  1
　５００
 50
0.0
 41
0.9
 51
0.0
  7
KANJI1
  0
TEXT
  8
0
  6
CONTINUOUS
 62
     2
 10
1190.0
 20
1054.65
 30
1.2
 40
12.0
  1
　７８５
 50
0.0
 41
0.9
 51
0.0
  7
KANJI1
  0
TEXT
  8
0
  6
CONTINUOUS
 62
     2
 10
1270.0
 20
1054.65
 30
1.2
 40
12.0
  1
　６３８
 50
0.0
 41
0.9
 51
0.0
  7
KANJI1
  0
TEXT
  8
0
  6
CONTINUOUS
 62
     2
 10
1350.0
 20
1054.65
 30
1.2
 40
12.0
  1
　１１２
 50
0.0
 41
0.9
 51
0.0
  7
KANJI1
  0
TEXT
  8
0
  6
CONTINUOUS
 62
     2
 10
1030.0
 20
1082.65
 30
1.2
 40
12.0
  1
　４００
 50
0.0
 41
0.9
 51
0.0
  7
KANJI1
  0
TEXT
  8
0
  6
CONTINUOUS
 62
     2
 10
1030.0
 20
1026.65
 30
1.2
 40
12.0
  1
　６００
 50
0.0
 41
0.9
 51
0.0
  7
KANJI1
  0
TEXT
  8
0
  6
CONTINUOUS
 62
     2
 10
1350.0
 20
1082.65
 30
1.2
 40
12.0
  1
　　８５
 50
0.0
 41
0.9
 51
0.0
  7
KANJI1
  0
TEXT
  8
0
  6
CONTINUOUS
 62
     2
 10
1350.0
 20
1026.65
 30
1.2
 40
12.0
  1
　１２８
 50
0.0
 41
0.9
 51
0.0
  7
KANJI1
  0
TEXT
  8
0
  6
CONTINUOUS
 62
     2
 10
1270.0
 20
1082.65
 30
1.2
 40
12.0
  1
　５３８
 50
0.0
 41
0.9
 51
0.0
  7
KANJI1
  0
TEXT
  8
0
  6
CONTINUOUS
 62
     2
 10
1270.0
 20
1026.65
 30
1.2
 40
12.0
  1
　７７８
 50
0.0
 41
0.9
 51
0.0
  7
KANJI1
  0
TEXT
  8
0
  6
CONTINUOUS
 62
     2
 10
1190.0
 20
1166.65
 30
1.2
 40
12.0
  1
　３０８
 50
0.0
 41
0.9
 51
0.0
  7
KANJI1
  0
TEXT
  8
0
  6
CONTINUOUS
 62
     2
 10
1190.0
 20
1082.65
 30
1.2
 40
12.0
  1
　６５８
 50
0.0
 41
0.9
 51
0.0
  7
KANJI1
  0
TEXT
  8
0
  6
CONTINUOUS
 62
     2
 10
1190.0
 20
1026.65
 30
1.2
 40
12.0
  1
　９４１
 50
0.0
 41
0.9
 51
0.0
  7
KANJI1
  0
TEXT
  8
0
  6
CONTINUOUS
 62
     2
 10
1110.0
 20
1166.65
 30
1.2
 40
12.0
  1
　４５０
 50
0.0
 41
0.9
 51
0.0
  7
KANJI1
  0
TEXT
  8
0
  6
CONTINUOUS
 62
     2
 10
1110.0
 20
1138.65
 30
1.2
 40
12.0
  1
　５５０
 50
0.0
 41
0.9
 51
0.0
  7
KANJI1
  0
TEXT
  8
0
  6
CONTINUOUS
 62
     2
 10
1110.0
 20
1110.65
 30
1.2
 40
12.0
  1
　６５０
 50
0.0
 41
0.9
 51
0.0
  7
KANJI1
  0
TEXT
  8
0
  6
CONTINUOUS
 62
     2
 10
1110.0
 20
1082.65
 30
1.2
 40
12.0
  1
　８００
 50
0.0
 41
0.9
 51
0.0
  7
KANJI1
  0
TEXT
  8
0
  6
CONTINUOUS
 62
     2
 10
1110.0
 20
1054.65
 30
1.2
 40
12.0
  1
　９２７
 50
0.0
 41
0.9
 51
0.0
  7
KANJI1
  0
TEXT
  8
0
  6
CONTINUOUS
 62
     2
 10
1110.0
 20
1026.65
 30
1.2
 40
12.0
  1
１０８３
 50
0.0
 41
0.9
 51
0.0
  7
KANJI1
  0
TEXT
  8
0
  6
CONTINUOUS
 62
     2
 10
1110.0
 20
998.65
 30
1.2
 40
12.0
  1
１２０３
 50
0.0
 41
0.9
 51
0.0
  7
KANJI1
  0
TEXT
  8
0
  6
CONTINUOUS
 62
     4
 10
82.999996846
 20
57.999994744
 30
0.99999979
 40
9.999997897
  1
ＰＡＲＴＳ　ＬＩＳＴ
 50
0.0
 41
0.6
 51
0.0
  7
KANJI6
  0
TEXT
  8
0
  6
CONTINUOUS
 62
     4
 10
82.999996846
 20
42.999997897
 30
1.199999748
 40
11.999997477
  1
部品表
 50
0.0
 41
0.9
 51
0.0
  7
KANJI7
  0
LINE
  8
0
  6
CONTINUOUS
 62
     6
 10
72.999998949
 20
107.999984231
 30
0.0
 11
397.999930615
 21
107.999984231
 31
0.0
  0
LINE
  8
0
  6
CONTINUOUS
 62
     6
 10
72.999998949
 20
37.999998949
 30
0.0
 11
397.999930615
 21
37.999998949
 31
0.0
  0
LINE
  8
0
  6
CONTINUOUS
 62
     6
 10
72.999998949
 20
37.999998949
 30
0.0
 11
72.999998949
 21
107.999984231
 31
0.0
  0
LINE
  8
0
  6
CONTINUOUS
 62
     6
 10
72.999998949
 20
72.99999159
 30
0.0
 11
397.999930615
 21
72.99999159
 31
0.0
  0
TEXT
  8
0
  6
CONTINUOUS
 62
     3
 10
82.999996846
 20
82.999989487
 30
1.499999685
 40
14.999996846
  1
ＰＬ
 50
0.0
 41
0.9
 51
0.0
  7
KANJI8
  0
LINE
  8
0
  6
CONTINUOUS
 62
     4
 10
11.083333
 20
37.333333
 30
0.0
 11
63.083329
 21
37.333333
 31
0.0
  0
LINE
  8
0
  6
CONTINUOUS
 62
     4
 10
11.083333
 20
63.333331
 30
0.0
 11
63.083329
 21
63.333331
 31
0.0
  0
LINE
  8
0
  6
CONTINUOUS
 62
     4
 10
11.083333
 20
89.333329
 30
0.0
 11
63.083329
 21
89.333329
 31
0.0
  0
LINE
  8
0
  6
CONTINUOUS
 62
     4
 10
11.083333
 20
115.333327
 30
0.0
 11
63.083329
 21
115.333327
 31
0.0
  0
LINE
  8
0
  6
CONTINUOUS
 62
     4
 10
11.083333
 20
141.333325
 30
0.0
 11
63.083329
 21
141.333325
 31
0.0
  0
LINE
  8
0
  6
CONTINUOUS
 62
     4
 10
11.083333
 20
167.333323
 30
0.0
 11
63.083329
 21
167.333323
 31
0.0
  0
LINE
  8
0
  6
CONTINUOUS
 62
     4
 10
11.083333
 20
193.333321
 30
0.0
 11
63.083329
 21
193.333321
 31
0.0
  0
LINE
  8
0
  6
CONTINUOUS
 62
     4
 10
11.083333
 20
219.333319
 30
0.0
 11
63.083329
 21
219.333319
 31
0.0
  0
LINE
  8
0
  6
CONTINUOUS
 62
     4
 10
11.083333
 20
245.333317
 30
0.0
 11
63.083329
 21
245.333317
 31
0.0
  0
LINE
  8
0
  6
CONTINUOUS
 62
     4
 10
11.083333
 20
271.333315
 30
0.0
 11
63.083329
 21
271.333315
 31
0.0
  0
LINE
  8
0
  6
CONTINUOUS
 62
     4
 10
63.083329
 20
37.333333
 30
0.0
 11
63.083329
 21
271.333315
 31
0.0
  0
LINE
  8
0
  6
CONTINUOUS
 62
     4
 10
37.083331
 20
37.333333
 30
0.0
 11
37.083331
 21
245.333317
 31
0.0
  0
TEXT
  8
0
  6
CONTINUOUS
 62
     4
 10
19.96666565
 20
44.91666575
 30
1.2999999
 40
12.999999
  1
計
 50
0.0
 41
0.75
 51
0.0
  7
KANJI9
  0
TEXT
  8
0
  6
CONTINUOUS
 62
     4
 10
19.96666565
 20
97.34999505
 30
1.2999999
 40
12.999999
  1
設
 50
0.0
 41
0.75
 51
0.0
  7
KANJI9
  0
TEXT
  8
0
  6
CONTINUOUS
 62
     4
 10
19.96666565
 20
122.91665975
 30
1.2999999
 40
12.999999
  1
管
 50
0.0
 41
0.75
 51
0.0
  7
KANJI9
  0
TEXT
  8
0
  6
CONTINUOUS
 62
     4
 10
19.96666565
 20
148.91665775
 30
1.2999999
 40
12.999999
  1
製
 50
0.0
 41
0.75
 51
0.0
  7
KANJI9
  0
TEXT
  8
0
  6
CONTINUOUS
 62
     4
 10
19.96666565
 20
174.91665575
 30
1.2999999
 40
12.999999
  1
資
 50
0.0
 41
0.75
 51
0.0
  7
KANJI9
  0
TEXT
  8
0
  6
CONTINUOUS
 62
     4
 10
19.96666565
 20
200.91665375
 30
1.2999999
 40
12.999999
  1
営
 50
0.0
 41
0.75
 51
0.0
  7
KANJI9
  0
TEXT
  8
0
  6
CONTINUOUS
 62
     4
 10
19.96666565
 20
226.91665175
 30
1.2999999
 40
12.999999
  1
客
 50
0.0
 41
0.75
 51
0.0
  7
KANJI9
  0
TEXT
  8
0
  6
CONTINUOUS
 62
     4
 10
19.749999
 20
253.999983
 30
1.2999999
 40
12.999999
  1
出　図
 50
0.0
 41
0.75
 51
0.0
  7
KANJI9
  0
LINE
  8
0
  6
CONTINUOUS
 62
     4
 10
11.083333
 20
37.333333
 30
0.0
 11
11.083333
 21
271.333315
 31
0.0
  0
TEXT
  8
0
  6
CONTINUOUS
 62
     4
 10
307.999949538
 20
57.999994744
 30
0.99999979
 40
9.999997897
  1
Ｎ０．
 50
0.0
 41
0.6
 51
0.0
  7
KANJI6
  0
TEXT
  8
0
  6
CONTINUOUS
 62
     4
 10
307.999949538
 20
42.999997897
 30
1.199999748
 40
11.999997477
  1
項番
 50
0.0
 41
0.9
 51
0.0
  7
KANJI7
  0
LINE
  8
0
  6
CONTINUOUS
 62
     6
 10
2003.0
 20
33.0
 30
0.0
 11
68.0
 21
33.0
 31
0.0
  0
LINE
  8
0
  6
CONTINUOUS
 62
     6
 10
397.999930615
 20
37.999998949
 30
0.0
 11
397.999930615
 21
107.999984231
 31
0.0
  0
LINE
  8
0
  6
CONTINUOUS
 62
     6
 10
297.999951641
 20
37.999998949
 30
0.0
 11
297.999951641
 21
107.999984231
 31
0.0
  0
LINE
  8
0
  6
CONTINUOUS
 62
     6
 10
2003.0
 20
1378.0
 30
0.0
 11
2003.0
 21
33.0
 31
0.0
  0
LINE
  8
0
  6
CONTINUOUS
 62
     6
 10
1331.333385
 20
37.333333
 30
0.0
 11
1331.333385
 21
314.666645
 31
0.0
  0
LINE
  8
0
  6
CONTINUOUS
 62
     6
 10
1998.666667
 20
37.333333
 30
0.0
 11
1998.666667
 21
314.666645
 31
0.0
  0
LINE
  8
0
  6
CONTINUOUS
 62
     4
 10
1489.5000395
 20
37.333333
 30
0.0
 11
1489.5000395
 21
314.666645
 31
0.0
  0
LINE
  8
0
  6
CONTINUOUS
 62
     4
 10
1331.333385
 20
71.999997
 30
0.0
 11
1489.5000395
 21
71.999997
 31
0.0
  0
TEXT
  8
0
  6
CONTINUOUS
 62
     4
 10
1340.000051
 20
56.8333315
 30
0.8666666
 40
8.666666
  1
ＳＣＡＬＥ
 50
0.0
 41
0.6
 51
0.0
  7
KANJI10
  0
TEXT
  8
0
  6
CONTINUOUS
 62
     4
 10
1340.000051
 20
43.8333325
 30
1.03999992
 40
10.3999992
  1
尺度
 50
0.0
 41
0.6
 51
0.0
  7
KANJI11
  0
LINE
  8
0
  6
CONTINUOUS
 62
     6
 10
989.000078
 20
71.999997
 30
0.0
 11
1331.333385
 21
71.999997
 31
0.0
  0
LINE
  8
0
  6
CONTINUOUS
 62
     6
 10
989.000078
 20
37.333333
 30
0.0
 11
1998.666667
 21
37.333333
 31
0.0
  0
TEXT
  8
0
  6
CONTINUOUS
 62
     6
 10
1493.8333725
 20
56.8333315
 30
0.0
 40
15.1666655
  1
ＵＮＩＴＥＣ　ＩＮＤＵＳＴＲＹ　ＣＯ．，ＬＴＤ．
 50
0.0
 41
0.42031746
 51
0.0
  7
KANJI12
  0
TEXT
  8
0
  6
CONTINUOUS
 62
     6
 10
1706.545856138
 20
51.1999986
 30
2.5999998
 40
25.999998
  1
ユニテック工業株式会社
 50
0.0
 41
0.9
 51
0.0
  7
KANJI13
  0
LINE
  8
0
  6
CONTINUOUS
 62
     6
 10
1671.879192138
 20
60.2999979
 30
0.0
 11
1660.439193018
 21
60.2999979
 31
0.0
  0
LINE
  8
0
  6
CONTINUOUS
 62
     6
 10
1671.879192138
 20
62.37999774
 30
0.0
 11
1660.439193018
 21
62.37999774
 31
0.0
  0
LINE
  8
0
  6
CONTINUOUS
 62
     6
 10
1671.879192138
 20
60.2999979
 30
0.0
 11
1683.319191258
 21
60.2999979
 31
0.0
  0
LINE
  8
0
  6
CONTINUOUS
 62
     6
 10
1671.879192138
 20
62.37999774
 30
0.0
 11
1683.319191258
 21
62.37999774
 31
0.0
  0
LINE
  8
0
  6
CONTINUOUS
 62
     6
 10
1683.319191258
 20
62.37999774
 30
0.0
 11
1683.319191258
 21
60.2999979
 31
0.0
  0
ARC
  8
0
  6
CONTINUOUS
 62
     6
 10
1685.919191058
 20
61.33999782
 30
0.0
 40
10.3999992
 50
185.739170477
 51
90.0
  0
ARC
  8
0
  6
CONTINUOUS
 62
     6
 10
1685.919191058
 20
61.33999782
 30
0.0
 40
12.47999904
 50
184.780191847
 51
90.0
  0
LINE
  8
0
  6
CONTINUOUS
 62
     6
 10
1660.439193018
 20
60.2999979
 30
0.0
 11
1660.439193018
 21
62.37999774
 31
0.0
  0
ARC
  8
0
  6
CONTINUOUS
 62
     6
 10
1657.839193218
 20
61.33999782
 30
0.0
 40
10.3999992
 50
90.0
 51
354.260829523
  0
ARC
  8
0
  6
CONTINUOUS
 62
     6
 10
1657.839193218
 20
61.33999782
 30
0.0
 40
12.47999904
 50
90.0
 51
355.219808153
  0
LINE
  8
0
  6
CONTINUOUS
 62
     6
 10
1670.319192258
 20
73.81999686
 30
0.0
 11
1670.319192258
 21
71.73999702
 31
0.0
  0
LINE
  8
0
  6
CONTINUOUS
 62
     6
 10
1657.839193218
 20
71.73999702
 30
0.0
 11
1670.319192258
 21
71.73999702
 31
0.0
  0
LINE
  8
0
  6
CONTINUOUS
 62
     6
 10
1673.439192018
 20
73.81999686
 30
0.0
 11
1673.439192018
 21
71.73999702
 31
0.0
  0
LINE
  8
0
  6
CONTINUOUS
 62
     6
 10
1685.919191058
 20
71.73999702
 30
0.0
 11
1673.439192018
 21
71.73999702
 31
0.0
  0
TEXT
  8
0
  6
CONTINUOUS
 62
     2
 10
1423.0
 20
43.0
 30
1.5
 40
22.5
  1
１／５
 50
0.0
 41
0.666666667
 51
0.0
  7
KANJI14
  0
TEXT
  8
0
  6
CONTINUOUS
 62
     4
 10
1099.5000695
 20
56.8333315
 30
0.8666666
 40
8.666666
  1
ＢＹ
 50
0.0
 41
0.6
 51
0.0
  7
KANJI10
  0
TEXT
  8
0
  6
CONTINUOUS
 62
     4
 10
1194.8333955
 20
56.8333315
 30
0.8666666
 40
8.666666
  1
ＤＥＳＣＲＩＰＴＩＯＮ
 50
0.0
 41
0.6
 51
0.0
  7
KANJI10
  0
TEXT
  8
0
  6
CONTINUOUS
 62
     4
 10
1099.5000695
 20
43.8333325
 30
1.03999992
 40
10.3999992
  1
担当
 50
0.0
 41
0.6
 51
0.0
  7
KANJI11
  0
TEXT
  8
0
  6
CONTINUOUS
 62
     4
 10
1207.8333945
 20
43.8333325
 30
1.03999992
 40
10.3999992
  1
記　　　　事
 50
0.0
 41
0.6
 51
0.0
  7
KANJI11
  0
LINE
  8
0
  6
CONTINUOUS
 62
     4
 10
1007.41674325
 20
65.4999975
 30
0.0
 11
993.333411
 21
43.8333325
 31
0.0
  0
TEXT
  8
0
  6
CONTINUOUS
 62
     4
 10
1043.1667405
 20
56.8333315
 30
0.8666666
 40
8.666666
  1
ＤＡＴＥ
 50
0.0
 41
0.6
 51
0.0
  7
KANJI10
  0
TEXT
  8
0
  6
CONTINUOUS
 62
     4
 10
1049.66674
 20
43.8333325
 30
1.03999992
 40
10.3999992
  1
日付
 50
0.0
 41
0.6
 51
0.0
  7
KANJI11
  0
LINE
  8
0
  6
CONTINUOUS
 62
     4
 10
993.333411
 20
43.8333325
 30
0.0
 11
1021.5000755
 21
43.8333325
 31
0.0
  0
LINE
  8
0
  6
CONTINUOUS
 62
     4
 10
1007.41674325
 20
65.4999975
 30
0.0
 11
1021.5000755
 21
43.8333325
 31
0.0
  0
LINE
  8
0
  6
CONTINUOUS
 62
     6
 10
989.000078
 20
37.333333
 30
0.0
 11
989.000078
 21
71.999997
 31
0.0
  0
LINE
  8
0
  6
CONTINUOUS
 62
     4
 10
1025.8334085
 20
37.333333
 30
0.0
 11
1025.8334085
 21
71.999997
 31
0.0
  0
LINE
  8
0
  6
CONTINUOUS
 62
     4
 10
1086.5000705
 20
37.333333
 30
0.0
 11
1086.5000705
 21
71.999997
 31
0.0
  0
LINE
  8
0
  6
CONTINUOUS
 62
     4
 10
1125.5000675
 20
37.333333
 30
0.0
 11
1125.5000675
 21
71.999997
 31
0.0
  0
TEXT
  8
0
  6
CONTINUOUS
 62
     4
 10
1340.000051
 20
230.1666515
 30
0.8666666
 40
8.666666
  1
ＣＯＤＥ
 50
0.0
 41
0.6
 51
0.0
  7
KANJI10
  0
LINE
  8
0
  6
CONTINUOUS
 62
     4
 10
1331.333385
 20
245.333317
 30
0.0
 11
1998.666667
 21
245.333317
 31
0.0
  0
TEXT
  8
0
  6
CONTINUOUS
 62
     4
 10
1340.000051
 20
217.1666525
 30
1.03999992
 40
10.3999992
  1
分類
 50
0.0
 41
0.6
 51
0.0
  7
KANJI11
  0
LINE
  8
0
  6
CONTINUOUS
 62
     4
 10
1998.666667
 20
279.999981
 30
0.0
 11
1998.666667
 21
314.666645
 31
0.0
  0
LINE
  8
0
  6
CONTINUOUS
 62
     6
 10
1331.958385
 20
279.999981
 30
0.0
 11
1999.291667
 21
279.999981
 31
0.0
  0
LINE
  8
0
  6
CONTINUOUS
 62
     6
 10
1331.333385
 20
314.666645
 30
0.0
 11
1998.666667
 21
314.666645
 31
0.0
  0
TEXT
  8
0
  6
CONTINUOUS
 62
     4
 10
1346.75
 20
285.166664
 30
5.0
 40
18.0
  1
ご用途
 50
0.0
 41
1.111111111
 51
0.0
  7
KANJI15
  0
TEXT
  8
0
  6
CONTINUOUS
 62
     4
 10
1346.75
 20
250.5
 30
5.0
 40
18.0
  1
ご注文主
 50
0.0
 41
1.111111111
 51
0.0
  7
KANJI15
  0
TEXT
  8
0
  6
CONTINUOUS
 62
     4
 10
1340.000051
 20
126.1666595
 30
0.8666666
 40
8.666666
  1
ＤＲＡＷＮ
 50
0.0
 41
0.6
 51
0.0
  7
KANJI10
  0
TEXT
  8
0
  6
CONTINUOUS
 62
     4
 10
1340.000051
 20
160.8333235
 30
0.8666666
 40
8.666666
  1
ＤＥＳＩＧＮ
 50
0.0
 41
0.6
 51
0.0
  7
KANJI10
  0
TEXT
  8
0
  6
CONTINUOUS
 62
     4
 10
1340.000051
 20
195.4999875
 30
0.8666666
 40
8.666666
  1
ＣＨＥＣＫ
 50
0.0
 41
0.6
 51
0.0
  7
KANJI10
  0
LINE
  8
0
  6
CONTINUOUS
 62
     4
 10
1331.333385
 20
175.999989
 30
0.0
 11
1489.5000395
 21
175.999989
 31
0.0
  0
LINE
  8
0
  6
CONTINUOUS
 62
     4
 10
1331.333385
 20
141.333325
 30
0.0
 11
1489.5000395
 21
141.333325
 31
0.0
  0
LINE
  8
0
  6
CONTINUOUS
 62
     4
 10
1331.333385
 20
210.666653
 30
0.0
 11
1489.5000395
 21
210.666653
 31
0.0
  0
TEXT
  8
0
  6
CONTINUOUS
 62
     4
 10
1340.000051
 20
147.8333245
 30
1.03999992
 40
10.3999992
  1
設計
 50
0.0
 41
0.6
 51
0.0
  7
KANJI11
  0
TEXT
  8
0
  6
CONTINUOUS
 62
     4
 10
1340.000051
 20
182.4999885
 30
1.03999992
 40
10.3999992
  1
検図
 50
0.0
 41
0.6
 51
0.0
  7
KANJI11
  0
LINE
  8
0
  6
CONTINUOUS
 62
     4
 10
1502.28337185
 20
210.666653
 30
0.0
 11
1998.666667
 21
210.666653
 31
0.0
  0
LINE
  8
0
  6
CONTINUOUS
 62
     4
 10
1489.5000395
 20
141.333325
 30
0.0
 11
1998.666667
 21
141.333325
 31
0.0
  0
TEXT
  8
0
  6
CONTINUOUS
 62
     4
 10
1498.1667055
 20
126.1666595
 30
0.8666666
 40
8.666666
  1
ＤＲＡＷＩＮＧ　ＮＯ．
 50
0.0
 41
0.8
 51
0.0
  7
KANJI16
  0
TEXT
  8
0
  6
CONTINUOUS
 62
     4
 10
1498.1667055
 20
160.8333235
 30
0.8666666
 40
8.666666
  1
ＭＦＧ　ＮＯ．
 50
0.0
 41
0.8
 51
0.0
  7
KANJI16
  0
TEXT
  8
0
  6
CONTINUOUS
 62
     4
 10
1498.1667055
 20
195.4999875
 30
0.8666666
 40
8.666666
  1
ＴＹＰＥ
 50
0.0
 41
0.8
 51
0.0
  7
KANJI16
  0
LINE
  8
0
  6
CONTINUOUS
 62
     4
 10
1502.5000385
 20
175.999989
 30
0.0
 11
1701.8333565
 21
175.999989
 31
0.0
  0
TEXT
  8
0
  6
CONTINUOUS
 62
     4
 10
1498.1667055
 20
110.999994
 30
1.03999992
 40
10.3999992
  1
図　面　番　号
 50
0.0
 41
0.8
 51
0.0
  7
KANJI17
  0
TEXT
  8
0
  6
CONTINUOUS
 62
     4
 10
1498.1667055
 20
145.666658
 30
1.03999992
 40
10.3999992
  1
製番
 50
0.0
 41
0.8
 51
0.0
  7
KANJI17
  0
TEXT
  8
0
  6
CONTINUOUS
 62
     4
 10
1498.1667055
 20
180.333322
 30
1.03999992
 40
10.3999992
  1
機種
 50
0.0
 41
0.8
 51
0.0
  7
KANJI17
  0
LINE
  8
0
  6
CONTINUOUS
 62
     4
 10
1331.333385
 20
106.666661
 30
0.0
 11
1489.5000395
 21
106.666661
 31
0.0
  0
TEXT
  8
0
  6
CONTINUOUS
 62
     4
 10
1340.000051
 20
91.4999955
 30
0.8666666
 40
8.666666
  1
ＤＡＴＥ
 50
0.0
 41
0.6
 51
0.0
  7
KANJI10
  0
TEXT
  8
0
  6
CONTINUOUS
 62
     4
 10
1340.000051
 20
78.4999965
 30
1.03999992
 40
10.3999992
  1
日付
 50
0.0
 41
0.6
 51
0.0
  7
KANJI11
  0
TEXT
  8
0
  6
CONTINUOUS
 62
     4
 10
1340.000051
 20
113.1666605
 30
1.03999992
 40
10.3999992
  1
作図
 50
0.0
 41
0.6
 51
0.0
  7
KANJI11
  0
LINE
  8
0
  6
CONTINUOUS
 62
     4
 10
1489.5000395
 20
91.4999955
 30
0.0
 11
1998.666667
 21
91.4999955
 31
0.0
  0
LINE
  8
0
  6
LTYPE1
 62
     4
 10
1853.5000115
 20
97.999995
 30
0.0
 11
1853.5000115
 21
132.666659
 31
0.0
  0
LINE
  8
0
  6
LTYPE1
 62
     4
 10
1823.1666805
 20
97.999995
 30
0.0
 11
1823.1666805
 21
132.666659
 31
0.0
  0
LINE
  8
0
  6
LTYPE1
 62
     4
 10
1792.8333495
 20
97.999995
 30
0.0
 11
1792.8333495
 21
132.666659
 31
0.0
  0
LINE
  8
0
  6
LTYPE1
 62
     4
 10
1762.5000185
 20
97.999995
 30
0.0
 11
1762.5000185
 21
132.666659
 31
0.0
  0
LINE
  8
0
  6
LTYPE1
 62
     4
 10
1732.1666875
 20
97.999995
 30
0.0
 11
1732.1666875
 21
132.666659
 31
0.0
  0
LINE
  8
0
  6
LTYPE1
 62
     4
 10
1701.8333565
 20
97.999995
 30
0.0
 11
1701.8333565
 21
132.666659
 31
0.0
  0
LINE
  8
0
  6
LTYPE1
 62
     4
 10
1671.5000255
 20
97.999995
 30
0.0
 11
1671.5000255
 21
132.666659
 31
0.0
  0
LINE
  8
0
  6
LTYPE1
 62
     4
 10
1641.1666945
 20
97.999995
 30
0.0
 11
1641.1666945
 21
132.666659
 31
0.0
  0
LINE
  8
0
  6
LTYPE1
 62
     4
 10
1641.1666945
 20
132.666659
 30
0.0
 11
1853.5000115
 21
132.666659
 31
0.0
  0
LINE
  8
0
  6
LTYPE1
 62
     4
 10
1641.1666945
 20
97.999995
 30
0.0
 11
1853.5000115
 21
97.999995
 31
0.0
  0
LINE
  8
0
  6
CONTINUOUS
 62
     4
 10
1870.8333435
 20
116.41666025
 30
0.0
 11
1879.5000095
 21
116.41666025
 31
0.0
  0
LINE
  8
0
  6
CONTINUOUS
 62
     4
 10
1925.000006
 20
103.41666125
 30
0.0
 11
1894.666675
 21
103.41666125
 31
0.0
  0
LINE
  8
0
  6
CONTINUOUS
 62
     4
 10
1894.666675
 20
103.41666125
 30
0.0
 11
1909.8333405
 21
129.41665925
 31
0.0
  0
LINE
  8
0
  6
CONTINUOUS
 62
     4
 10
1909.8333405
 20
129.41665925
 30
0.0
 11
1925.000006
 21
103.41666125
 31
0.0
  0
TEXT
  8
0
  6
CONTINUOUS
 62
     4
 10
1714.8333555
 20
195.4999875
 30
0.8666666
 40
8.666666
  1
ＴＩＴＬＥ
 50
0.0
 41
0.8
 51
0.0
  7
KANJI16
  0
TEXT
  8
0
  6
CONTINUOUS
 62
     4
 10
1714.8333555
 20
180.333322
 30
1.03999992
 40
10.3999992
  1
名称
 50
0.0
 41
0.8
 51
0.0
  7
KANJI17
  0
TEXT
  8
0
  6
CONTINUOUS
 62
     2
 10
1785.5
 20
148.0
 30
12.5
 40
25.0
  1
外形寸法図
 50
0.0
 41
1.0
 51
0.0
  7
KANJI18
  0
TEXT
  8
0
  6
CONTINUOUS
 62
     2
 10
1755.5
 20
178.0
 30
3.571428571
 40
25.0
  1
マイティシリンダ
 50
0.0
 41
1.0
 51
0.0
  7
KANJI19
  0
TEXT
  8
0
  6
CONTINUOUS
 62
     2
 10
1614.9166945
 20
102.999995
 30
1.5
 40
25.0
  1
Ａ
 50
0.0
 41
0.8
 51
0.0
  7
KANJI20
  0
CIRCLE
  8
0
  6
CONTINUOUS
 62
     2
 10
1582.4166945
 20
156.749995
 30
0.0
 40
12.5
  0
TEXT
  8
0
  6
CONTINUOUS
 62
     2
 10
1573.0416945
 20
147.374995
 30
1.5
 40
20.0
  1
Ｓ
 50
0.0
 41
1.0
 51
0.0
  7
KANJI21
  0
LINE
  8
0
  6
CONTINUOUS
 62
     6
 10
1670.319192258
 20
73.81999686
 30
0.0
 11
1657.839193218
 21
73.81999686
 31
0.0
  0
LINE
  8
0
  6
CONTINUOUS
 62
     6
 10
1673.439192018
 20
73.81999686
 30
0.0
 11
1685.919191058
 21
73.81999686
 31
0.0
  0
TEXT
  8
0
  6
CONTINUOUS
 62
     2
 10
1387.1666945
 20
115.499995
 30
5.0
 40
17.5
  1
岡田
 50
0.0
 41
0.857142857
 51
0.0
  7
KANJI22
  0
TEXT
  8
0
  6
CONTINUOUS
 62
     2
 10
857.0
 20
1166.35
 30
0.8
 40
12.0
  1
ＭＣＬＢ０１－　　１ＪＬ
 50
0.0
 41
0.833333333
 51
0.0
  7
KANJI23
  0
TEXT
  8
0
  6
CONTINUOUS
 62
     2
 10
857.0
 20
1138.35
 30
0.8
 40
12.0
  1
ＭＣＬＢ０１－　　２ＪＬ
 50
0.0
 41
0.833333333
 51
0.0
  7
KANJI23
  0
TEXT
  8
0
  6
CONTINUOUS
 62
     2
 10
857.0
 20
1110.35
 30
0.8
 40
12.0
  1
ＭＣＬＢ０１－　　３ＪＬ
 50
0.0
 41
0.833333333
 51
0.0
  7
KANJI23
  0
TEXT
  8
0
  6
CONTINUOUS
 62
     2
 10
857.0
 20
1082.35
 30
0.8
 40
12.0
  1
ＭＣＬＢ０１－　　４ＪＬ
 50
0.0
 41
0.833333333
 51
0.0
  7
KANJI23
  0
TEXT
  8
0
  6
CONTINUOUS
 62
     2
 10
857.0
 20
1054.35
 30
0.8
 40
12.0
  1
ＭＣＬＢ０１－　　５ＪＬ
 50
0.0
 41
0.833333333
 51
0.0
  7
KANJI23
  0
TEXT
  8
0
  6
CONTINUOUS
 62
     2
 10
857.0
 20
1026.35
 30
0.8
 40
12.0
  1
ＭＣＬＢ０１－　　６ＪＬ
 50
0.0
 41
0.833333333
 51
0.0
  7
KANJI23
  0
TEXT
  8
0
  6
CONTINUOUS
 62
     2
 10
857.0
 20
998.35
 30
0.8
 40
12.0
  1
ＭＣＬＢ０１－　　７ＪＬ
 50
0.0
 41
0.833333333
 51
0.0
  7
KANJI23
  0
TEXT
  8
0
  6
CONTINUOUS
 62
     2
 10
1550.5
 20
183.0
 30
0.0
 40
17.5
  1
ＭＣＬＢ０１－ＪＬ
 50
0.0
 41
0.793650794
 51
0.0
  7
KANJI24
  0
TEXT
  8
0
  6
CONTINUOUS
 62
     2
 10
1646.1666945
 20
102.999995
 30
10.833333333
 40
25.0
  1
３００２３６６
 50
0.0
 41
0.8
 51
0.0
  7
KANJI25
  0
TEXT
  8
0
  6
CONTINUOUS
 62
     2
 10
240.0
 20
10.0
 30
0.0
 40
15.0
  1
ＦＤ　Ｎｏ．ＭＣ１８４
 50
0.0
 41
0.9
 51
0.0
  7
KANJI26
  0
LINE
  8
0
  6
CONTINUOUS
 62
     1
 10
1268.375
 20
1369.0
 30
0.0
 11
1268.375
 21
1268.9
 31
0.0
  0
LINE
  8
0
  6
CONTINUOUS
 62
     2
 10
1210.625
 20
1369.0
 30
0.0
 11
1210.625
 21
1268.9
 31
0.0
  0
LINE
  8
0
  6
CONTINUOUS
 62
     2
 10
1152.875
 20
1369.0
 30
0.0
 11
1152.875
 21
1268.9
 31
0.0
  0
LINE
  8
0
  6
CONTINUOUS
 62
     1
 10
1075.875
 20
1369.0
 30
0.0
 11
1075.875
 21
1268.9
 31
0.0
  0
LINE
  8
0
  6
CONTINUOUS
 62
     1
 10
1075.875
 20
1369.0
 30
0.0
 11
1268.375
 21
1369.0
 31
0.0
  0
LINE
  8
0
  6
CONTINUOUS
 62
     1
 10
1075.875
 20
1338.2
 30
0.0
 11
1268.375
 21
1338.2
 31
0.0
  0
LINE
  8
0
  6
CONTINUOUS
 62
     2
 10
1075.875
 20
1315.1
 30
0.0
 11
1268.375
 21
1315.1
 31
0.0
  0
LINE
  8
0
  6
CONTINUOUS
 62
     2
 10
1075.875
 20
1292.0
 30
0.0
 11
1268.375
 21
1292.0
 31
0.0
  0
LINE
  8
0
  6
CONTINUOUS
 62
     1
 10
1075.875
 20
1268.9
 30
0.0
 11
1268.375
 21
1268.9
 31
0.0
  0
TEXT
  8
0
  6
CONTINUOUS
 62
     2
 10
1218.325
 20
1355.525
 30
1.155
 40
11.55
  1
起動電流
 50
0.0
 41
0.9
 51
0.0
  7
KANJI27
  0
TEXT
  8
0
  6
CONTINUOUS
 62
     2
 10
1218.325
 20
1342.05
 30
1.155
 40
11.55
  1
　　　Ａ
 50
0.0
 41
0.9
 51
0.0
  7
KANJI27
  0
TEXT
  8
0
  6
CONTINUOUS
 62
     2
 10
1160.575
 20
1355.525
 30
1.155
 40
11.55
  1
定格電流
 50
0.0
 41
0.9
 51
0.0
  7
KANJI27
  0
TEXT
  8
0
  6
CONTINUOUS
 62
     2
 10
1160.575
 20
1342.05
 30
1.155
 40
11.55
  1
　　　Ａ
 50
0.0
 41
0.9
 51
0.0
  7
KANJI27
  0
TEXT
  8
0
  6
CONTINUOUS
 62
     2
 10
1082.42
 20
1297.775
 30
1.155
 40
11.55
  1
２００／６０
 50
0.0
 41
0.9
 51
0.0
  7
KANJI27
  0
TEXT
  8
0
  6
CONTINUOUS
 62
     2
 10
1082.42
 20
1355.525
 30
1.155
 40
11.55
  1
電圧／周波数
 50
0.0
 41
0.9
 51
0.0
  7
KANJI27
  0
TEXT
  8
0
  6
CONTINUOUS
 62
     2
 10
1082.42
 20
1342.05
 30
1.155
 40
11.55
  1
　Ｖ／Ｈｚ
 50
0.0
 41
0.9
 51
0.0
  7
KANJI27
  0
TEXT
  8
0
  6
CONTINUOUS
 62
     2
 10
1082.42
 20
1320.875
 30
1.155
 40
11.55
  1
２００／５０
 50
0.0
 41
0.9
 51
0.0
  7
KANJI27
  0
TEXT
  8
0
  6
CONTINUOUS
 62
     2
 10
1082.42
 20
1274.675
 30
1.155
 40
11.55
  1
２２０／６０
 50
0.0
 41
0.9
 51
0.0
  7
KANJI27
  0
LINE
  8
0
  6
CONTINUOUS
 62
     1
 10
1037.375
 20
1369.0
 30
0.0
 11
1037.375
 21
1268.9
 31
0.0
  0
LINE
  8
0
  6
CONTINUOUS
 62
     2
 10
979.625
 20
1369.0
 30
0.0
 11
979.625
 21
1268.9
 31
0.0
  0
LINE
  8
0
  6
CONTINUOUS
 62
     2
 10
921.875
 20
1369.0
 30
0.0
 11
921.875
 21
1268.9
 31
0.0
  0
LINE
  8
0
  6
CONTINUOUS
 62
     1
 10
844.875
 20
1369.0
 30
0.0
 11
844.875
 21
1268.9
 31
0.0
  0
LINE
  8
0
  6
CONTINUOUS
 62
     1
 10
844.875
 20
1369.0
 30
0.0
 11
1037.375
 21
1369.0
 31
0.0
  0
LINE
  8
0
  6
CONTINUOUS
 62
     1
 10
844.875
 20
1338.2
 30
0.0
 11
1037.375
 21
1338.2
 31
0.0
  0
LINE
  8
0
  6
CONTINUOUS
 62
     2
 10
844.875
 20
1315.1
 30
0.0
 11
1037.375
 21
1315.1
 31
0.0
  0
LINE
  8
0
  6
CONTINUOUS
 62
     2
 10
844.875
 20
1292.0
 30
0.0
 11
1037.375
 21
1292.0
 31
0.0
  0
LINE
  8
0
  6
CONTINUOUS
 62
     1
 10
844.875
 20
1268.9
 30
0.0
 11
1037.375
 21
1268.9
 31
0.0
  0
TEXT
  8
0
  6
CONTINUOUS
 62
     2
 10
987.325
 20
1355.525
 30
1.155
 40
11.55
  1
起動電流
 50
0.0
 41
0.9
 51
0.0
  7
KANJI27
  0
TEXT
  8
0
  6
CONTINUOUS
 62
     2
 10
987.325
 20
1342.05
 30
1.155
 40
11.55
  1
　　　Ａ
 50
0.0
 41
0.9
 51
0.0
  7
KANJI27
  0
TEXT
  8
0
  6
CONTINUOUS
 62
     2
 10
929.575
 20
1355.525
 30
1.155
 40
11.55
  1
定格電流
 50
0.0
 41
0.9
 51
0.0
  7
KANJI27
  0
TEXT
  8
0
  6
CONTINUOUS
 62
     2
 10
929.575
 20
1342.05
 30
1.155
 40
11.55
  1
　　　Ａ
 50
0.0
 41
0.9
 51
0.0
  7
KANJI27
  0
TEXT
  8
0
  6
CONTINUOUS
 62
     2
 10
851.42
 20
1355.525
 30
1.155
 40
11.55
  1
電圧／周波数
 50
0.0
 41
0.9
 51
0.0
  7
KANJI27
  0
TEXT
  8
0
  6
CONTINUOUS
 62
     2
 10
851.42
 20
1342.05
 30
1.155
 40
11.55
  1
　Ｖ／Ｈｚ
 50
0.0
 41
0.9
 51
0.0
  7
KANJI27
  0
TEXT
  8
0
  6
CONTINUOUS
 62
     2
 10
851.42
 20
1320.875
 30
1.155
 40
11.55
  1
４００／５０
 50
0.0
 41
0.9
 51
0.0
  7
KANJI27
  0
TEXT
  8
0
  6
CONTINUOUS
 62
     2
 10
851.42
 20
1297.775
 30
1.155
 40
11.55
  1
４００／６０
 50
0.0
 41
0.9
 51
0.0
  7
KANJI27
  0
TEXT
  8
0
  6
CONTINUOUS
 62
     2
 10
851.42
 20
1274.675
 30
1.155
 40
11.55
  1
４４０／６０
 50
0.0
 41
0.9
 51
0.0
  7
KANJI27
  0
TEXT
  8
0
  6
CONTINUOUS
 62
     2
 10
929.575
 20
1320.875
 30
1.155
 40
11.55
  1
　２．０
 50
0.0
 41
0.9
 51
0.0
  7
KANJI27
  0
TEXT
  8
0
  6
CONTINUOUS
 62
     2
 10
929.575
 20
1297.775
 30
1.155
 40
11.55
  1
　１．４
 50
0.0
 41
0.9
 51
0.0
  7
KANJI27
  0
TEXT
  8
0
  6
CONTINUOUS
 62
     2
 10
929.575
 20
1274.675
 30
1.155
 40
11.55
  1
　１．７
 50
0.0
 41
0.9
 51
0.0
  7
KANJI27
  0
TEXT
  8
0
  6
CONTINUOUS
 62
     2
 10
1160.575
 20
1320.875
 30
1.155
 40
11.55
  1
　４．０
 50
0.0
 41
0.9
 51
0.0
  7
KANJI27
  0
TEXT
  8
0
  6
CONTINUOUS
 62
     2
 10
1160.575
 20
1297.775
 30
1.155
 40
11.55
  1
　２．８
 50
0.0
 41
0.9
 51
0.0
  7
KANJI27
  0
TEXT
  8
0
  6
CONTINUOUS
 62
     2
 10
1160.575
 20
1274.675
 30
1.155
 40
11.55
  1
　３．３
 50
0.0
 41
0.9
 51
0.0
  7
KANJI27
  0
TEXT
  8
0
  6
CONTINUOUS
 62
     2
 10
1218.325
 20
1320.875
 30
1.155
 40
11.55
  1
　９．２
 50
0.0
 41
0.9
 51
0.0
  7
KANJI27
  0
TEXT
  8
0
  6
CONTINUOUS
 62
     2
 10
1218.325
 20
1297.775
 30
1.155
 40
11.55
  1
　８
 50
0.0
 41
0.9
 51
0.0
  7
KANJI27
  0
TEXT
  8
0
  6
CONTINUOUS
 62
     2
 10
1218.325
 20
1274.675
 30
1.155
 40
11.55
  1
　８．８
 50
0.0
 41
0.9
 51
0.0
  7
KANJI27
  0
TEXT
  8
0
  6
CONTINUOUS
 62
     2
 10
987.325
 20
1320.875
 30
1.155
 40
11.55
  1
　４．６
 50
0.0
 41
0.9
 51
0.0
  7
KANJI27
  0
TEXT
  8
0
  6
CONTINUOUS
 62
     2
 10
987.325
 20
1297.775
 30
1.155
 40
11.55
  1
　４
 50
0.0
 41
0.9
 51
0.0
  7
KANJI27
  0
TEXT
  8
0
  6
CONTINUOUS
 62
     2
 10
987.325
 20
1274.675
 30
1.155
 40
11.55
  1
　４．４
 50
0.0
 41
0.9
 51
0.0
  7
KANJI27
  0
LINE
  8
0
  6
CONTINUOUS
 62
     2
 10
844.0
 20
1159.95
 30
0.0
 11
1492.0
 21
1159.95
 31
0.0
  0
LINE
  8
0
  6
CONTINUOUS
 62
     2
 10
844.0
 20
1131.95
 30
0.0
 11
1492.0
 21
1131.95
 31
0.0
  0
LINE
  8
0
  6
CONTINUOUS
 62
     2
 10
844.0
 20
1103.95
 30
0.0
 11
1492.0
 21
1103.95
 31
0.0
  0
LINE
  8
0
  6
CONTINUOUS
 62
     2
 10
844.0
 20
1047.95
 30
0.0
 11
1492.0
 21
1047.95
 31
0.0
  0
LINE
  8
0
  6
CONTINUOUS
 62
     2
 10
844.0
 20
1075.95
 30
0.0
 11
1492.0
 21
1075.95
 31
0.0
  0
LINE
  8
0
  6
CONTINUOUS
 62
     2
 10
844.0
 20
991.95
 30
0.0
 11
1492.0
 21
991.95
 31
0.0
  0
LINE
  8
0
  6
CONTINUOUS
 62
     2
 10
844.0
 20
1019.95
 30
0.0
 11
1492.0
 21
1019.95
 31
0.0
  0
TEXT
  8
0
  6
CONTINUOUS
 62
     2
 10
1430.0
 20
1166.65
 30
1.2
 40
12.0
  1
　　３５
 50
0.0
 41
0.9
 51
0.0
  7
KANJI1
  0
TEXT
  8
0
  6
CONTINUOUS
 62
     2
 10
1430.0
 20
1138.65
 30
1.2
 40
12.0
  1
　　３６
 50
0.0
 41
0.9
 51
0.0
  7
KANJI1
  0
TEXT
  8
0
  6
CONTINUOUS
 62
     2
 10
1430.0
 20
1110.65
 30
1.2
 40
12.0
  1
　　３７
 50
0.0
 41
0.9
 51
0.0
  7
KANJI1
  0
TEXT
  8
0
  6
CONTINUOUS
 62
     2
 10
1430.0
 20
1082.65
 30
1.2
 40
12.0
  1
　　３９
 50
0.0
 41
0.9
 51
0.0
  7
KANJI1
  0
TEXT
  8
0
  6
CONTINUOUS
 62
     2
 10
1430.0
 20
1054.65
 30
1.2
 40
12.0
  1
　　４０
 50
0.0
 41
0.9
 51
0.0
  7
KANJI1
  0
TEXT
  8
0
  6
CONTINUOUS
 62
     2
 10
1430.0
 20
1026.65
 30
1.2
 40
12.0
  1
　　４２
 50
0.0
 41
0.9
 51
0.0
  7
KANJI1
  0
TEXT
  8
0
  6
CONTINUOUS
 62
     2
 10
1430.0
 20
998.65
 30
1.2
 40
12.0
  1
　　４４
 50
0.0
 41
0.9
 51
0.0
  7
KANJI1
  0
TEXT
  8
0
  6
CONTINUOUS
 62
     2
 10
878.1775
 20
1251.575
 30
1.3475
 40
13.475
  1
注意：サーマルリレー等の選定は、上記の値で選定して下さい。
 50
0.0
 41
0.9
 51
0.0
  7
KANJI28
  0
LINE
  8
0
  6
CONTINUOUS
 62
     2
 10
870.4775
 20
1247.725
 30
0.0
 11
1257.5
 21
1247.725
 31
0.0
  0
LINE
  8
0
  6
CONTINUOUS
 62
     6
 10
341.709425053
 20
1323.747759827
 30
0.0
 11
109.664646507
 21
1323.747759827
 31
0.0
  0
TEXT
  8
0
  6
CONTINUOUS
 62
     6
 10
113.573517202
 20
1326.94592676
 30
1.0647
 40
11.661
  1
ＬＳ０１　　　：推力リミッタ（前進時過負荷用）
 50
0.0
 41
0.822608696
 51
0.0
  7
KANJI29
  0
TEXT
  8
0
  6
CONTINUOUS
 62
     6
 10
113.573517202
 20
1299.48342676
 30
1.0647
 40
11.661
  1
ＬＳ０２　　　：推力リミッタ（後進時過負荷用）
 50
0.0
 41
0.822608696
 51
0.0
  7
KANJI29
  0
LINE
  8
0
  6
CONTINUOUS
 62
     3
 10
341.709425053
 20
1296.285259827
 30
0.0
 11
109.664646507
 21
1296.285259827
 31
0.0
  0
LINE
  8
0
  6
CONTINUOUS
 62
     6
 10
341.709425053
 20
1296.285259827
 30
0.0
 11
109.664646507
 21
1296.285259827
 31
0.0
  0
TEXT
  8
0
  6
CONTINUOUS
 62
     6
 10
367.292228
 20
1321.200410728
 30
1.232517
 40
13.182
  1
電気定格　　　
 50
0.0
 41
0.85
 51
0.0
  7
KANJI30
  0
TEXT
  8
0
  6
CONTINUOUS
 62
     6
 10
380.093715102
 20
1290.626958599
 30
0.0
 40
11.8638
  1
ＤＣ１２５Ｖ　０．６Ａ　，ＤＣ２５０Ｖ　０．３Ａ　
 50
0.0
 41
0.726495726
 51
0.0
  7
KANJI31
  0
TEXT
  8
0
  6
CONTINUOUS
 62
     6
 10
374.837132178
 20
1338.961726126
 30
0.0
 40
55.0
  1
｝
 50
0.0
 41
0.440318182
 51
0.0
  7
KANJI32
  0
LINE
  8
0
  6
LTYPE2
 62
     6
 10
93.5
 20
1050.6
 30
0.0
 11
614.1
 21
1050.6
 31
0.0
  0
LINE
  8
0
  6
LTYPE2
 62
     6
 10
614.1
 20
1050.6
 30
0.0
 11
614.1
 21
1353.7
 31
0.0
  0
LINE
  8
0
  6
LTYPE2
 62
     6
 10
614.1
 20
1353.7
 30
0.0
 11
93.5
 21
1353.7
 31
0.0
  0
LINE
  8
0
  6
LTYPE2
 62
     6
 10
93.5
 20
1353.7
 30
0.0
 11
93.5
 21
1050.6
 31
0.0
  0
TEXT
  8
0
  6
CONTINUOUS
 62
     6
 10
278.712791539
 20
1068.62382165
 30
0.0
 40
17.740702234
  1
端子台　接続図
 50
0.0
 41
0.880962996
 51
0.0
  7
KANJI33
  0
LINE
  8
0
  6
CONTINUOUS
 62
     2
 10
313.677373465
 20
1119.628121884
 30
0.0
 11
313.677373465
 21
1096.849155128
 31
0.0
  0
LINE
  8
0
  6
CONTINUOUS
 62
     2
 10
340.25283468
 20
1119.628121884
 30
0.0
 11
340.25283468
 21
1096.849155128
 31
0.0
  0
LINE
  8
0
  6
CONTINUOUS
 62
     2
 10
366.828295894
 20
1119.628121884
 30
0.0
 11
366.828295894
 21
1096.849155128
 31
0.0
  0
LINE
  8
0
  6
CONTINUOUS
 62
     2
 10
393.403757109
 20
1119.628121884
 30
0.0
 11
393.403757109
 21
1096.849155128
 31
0.0
  0
CIRCLE
  8
0
  6
CONTINUOUS
 62
     6
 10
385.484269667
 20
1143.107921517
 30
0.0
 40
4.100214016
  0
LINE
  8
0
  6
CONTINUOUS
 62
     6
 10
381.384055651
 20
1143.107921517
 30
0.0
 11
380.116026502
 21
1143.107921517
 31
0.0
  0
LINE
  8
0
  6
CONTINUOUS
 62
     6
 10
406.438027433
 20
1156.794562742
 30
0.0
 11
402.523558096
 21
1134.459507138
 31
0.0
  0
LINE
  8
0
  6
CONTINUOUS
 62
     6
 10
401.711699663
 20
1157.582284037
 30
0.0
 11
397.796922494
 21
1135.247279739
 31
0.0
  0
LINE
  8
0
  6
CONTINUOUS
 62
     6
 10
402.523558096
 20
1134.459507138
 30
0.0
 11
397.796922494
 21
1135.247279739
 31
0.0
  0
CIRCLE
  8
0
  6
CONTINUOUS
 62
     6
 10
406.691487717
 20
1133.639464335
 30
0.0
 40
4.100214016
  0
LINE
  8
0
  6
CONTINUOUS
 62
     6
 10
406.691487717
 20
1129.539250319
 30
0.0
 11
406.691487717
 21
1119.628121884
 31
0.0
  0
LINE
  8
0
  6
CONTINUOUS
 62
     6
 10
380.116026502
 20
1143.107921517
 30
0.0
 11
380.116026502
 21
1119.628121884
 31
0.0
  0
LINE
  8
0
  6
CONTINUOUS
 62
     6
 10
353.540565287
 20
1119.628121884
 30
0.0
 11
353.540565287
 21
1173.333332504
 31
0.0
  0
LINE
  8
0
  6
CONTINUOUS
 62
     6
 10
274.067641926
 20
1156.794562742
 30
0.0
 11
277.982111263
 21
1134.459507138
 31
0.0
  0
LINE
  8
0
  6
CONTINUOUS
 62
     6
 10
278.793969696
 20
1157.582284037
 30
0.0
 11
282.708746865
 21
1135.247279739
 31
0.0
  0
LINE
  8
0
  6
CONTINUOUS
 62
     6
 10
277.982111263
 20
1134.459507138
 30
0.0
 11
282.708746865
 21
1135.247279739
 31
0.0
  0
CIRCLE
  8
0
  6
CONTINUOUS
 62
     6
 10
273.814181642
 20
1133.639464335
 30
0.0
 40
4.100214016
  0
CIRCLE
  8
0
  6
CONTINUOUS
 62
     6
 10
295.021399692
 20
1143.107921517
 30
0.0
 40
4.100214016
  0
LINE
  8
0
  6
CONTINUOUS
 62
     6
 10
299.121613708
 20
1143.107921517
 30
0.0
 11
300.389642857
 21
1143.107921517
 31
0.0
  0
LINE
  8
0
  6
CONTINUOUS
 62
     6
 10
273.814181642
 20
1129.539250319
 30
0.0
 11
273.814181642
 21
1119.628121884
 31
0.0
  0
LINE
  8
0
  6
CONTINUOUS
 62
     6
 10
300.389642857
 20
1143.107921517
 30
0.0
 11
300.389642857
 21
1119.628121884
 31
0.0
  0
LINE
  8
0
  6
CONTINUOUS
 62
     6
 10
326.965104072
 20
1119.628121884
 30
0.0
 11
326.965104072
 21
1173.333332504
 31
0.0
  0
LINE
  8
0
  6
CONTINUOUS
 62
     2
 10
419.979218324
 20
1119.628121884
 30
0.0
 11
419.979218324
 21
1096.849155128
 31
0.0
  0
LINE
  8
0
  6
CONTINUOUS
 62
     2
 10
260.526451035
 20
1119.628121884
 30
0.0
 11
260.526451035
 21
1096.849155128
 31
0.0
  0
LINE
  8
0
  6
CONTINUOUS
 62
     2
 10
287.10191225
 20
1119.628121884
 30
0.0
 11
287.10191225
 21
1096.849155128
 31
0.0
  0
LINE
  8
0
  6
CONTINUOUS
 62
     6
 10
406.691487717
 20
1173.333332504
 30
0.0
 11
353.540565287
 21
1173.333332504
 31
0.0
  0
CIRCLE
  8
0
  6
CONTINUOUS
 62
     6
 10
406.691487717
 20
1160.98941042
 30
0.0
 40
4.100214016
  0
LINE
  8
0
  6
CONTINUOUS
 62
     6
 10
406.438027433
 20
1156.794562742
 30
0.0
 11
401.711699663
 21
1157.582284037
 31
0.0
  0
LINE
  8
0
  6
CONTINUOUS
 62
     6
 10
406.691487717
 20
1165.089624436
 30
0.0
 11
406.691487717
 21
1173.333332504
 31
0.0
  0
CIRCLE
  8
0
  6
CONTINUOUS
 62
     6
 10
273.814181642
 20
1160.98941042
 30
0.0
 40
4.100214016
  0
LINE
  8
0
  6
CONTINUOUS
 62
     6
 10
274.067641926
 20
1156.794562742
 30
0.0
 11
278.793969696
 21
1157.582284037
 31
0.0
  0
LINE
  8
0
  6
CONTINUOUS
 62
     6
 10
273.814181642
 20
1165.089624436
 30
0.0
 11
273.814181642
 21
1173.333332504
 31
0.0
  0
LINE
  8
0
  6
CONTINUOUS
 62
     6
 10
326.965104072
 20
1173.333332504
 30
0.0
 11
273.814181642
 21
1173.333332504
 31
0.0
  0
TEXT
  8
0
  6
CONTINUOUS
 62
     6
 10
278.5772152
 20
1177.852473273
 30
0.819
 40
11.7
  1
ＬＳ０１
 50
0.0
 41
0.8
 51
0.0
  7
KANJI34
  0
TEXT
  8
0
  6
CONTINUOUS
 62
     6
 10
361.197398844
 20
1177.852473273
 30
0.819
 40
11.7
  1
ＬＳ０２
 50
0.0
 41
0.8
 51
0.0
  7
KANJI34
  0
TEXT
  8
0
  6
CONTINUOUS
 62
     3
 10
106.388775989
 20
1100.645649587
 30
0.0
 40
15.0
  1
　　　　　　　　　　　　　　　　　　１　　２　　　３　　　４　　　５　　　６
 50
0.0
 41
0.911
 51
0.0
  7
KANJI35
  0
LINE
  8
0
  6
CONTINUOUS
 62
     2
 10
260.526451035
 20
1119.628121884
 30
0.0
 11
419.979218324
 21
1119.628121884
 31
0.0
  0
LINE
  8
0
  6
CONTINUOUS
 62
     2
 10
260.526451035
 20
1096.849155128
 30
0.0
 11
419.979218324
 21
1096.849155128
 31
0.0
  0
TEXT
  8
0
  6
CONTINUOUS
 62
     6
 10
252.212791539
 20
1207.62382165
 30
0.0
 40
17.740702234
  1
推力リミッタ端子台配列
 50
0.0
 41
0.880962996
 51
0.0
  7
KANJI33
  0
ARC
  8
0
  6
CONTINUOUS
 62
     1
 10
664.075
 20
238.5
 30
0.0
 40
10.0
 50
90.0
 51
180.0
  0
LINE
  8
0
  6
CONTINUOUS
 62
     1
 10
784.075
 20
236.7
 30
0.0
 11
784.075
 21
238.5
 31
0.0
  0
LINE
  8
0
  6
CONTINUOUS
 62
     1
 10
664.075
 20
248.5
 30
0.0
 11
774.075
 21
248.5
 31
0.0
  0
ARC
  8
0
  6
CONTINUOUS
 62
     1
 10
774.075
 20
238.5
 30
0.0
 40
10.0
 50
0.0
 51
90.0
  0
LINE
  8
0
  6
CONTINUOUS
 62
     1
 10
654.075
 20
228.2
 30
0.0
 11
654.075
 21
238.5
 31
0.0
  0
LINE
  8
0
  6
LTYPE3
 62
     2
 10
630.424814745
 20
617.65
 30
0.0
 11
630.424814745
 21
538.15
 31
0.0
  0
LINE
  8
0
  6
LTYPE3
 62
     2
 10
636.424814745
 20
617.65
 30
0.0
 11
636.424814745
 21
538.15
 31
0.0
  0
LINE
  8
0
  6
CONTINUOUS
 62
     1
 10
644.575
 20
565.4
 30
0.0
 11
669.575
 21
565.4
 31
0.0
  0
LINE
  8
0
  6
CONTINUOUS
 62
     1
 10
669.575
 20
590.4
 30
0.0
 11
669.575
 21
565.4
 31
0.0
  0
LINE
  8
0
  6
CONTINUOUS
 62
     1
 10
644.575
 20
590.4
 30
0.0
 11
669.575
 21
590.4
 31
0.0
  0
LINE
  8
0
  6
CONTINUOUS
 62
     1
 10
644.575
 20
590.4
 30
0.0
 11
644.575
 21
565.4
 31
0.0
  0
CIRCLE
  8
0
  6
CONTINUOUS
 62
     1
 10
657.075
 20
577.9
 30
0.0
 40
12.5
  0
LINE
  8
0
  6
LTYPE4
 62
     2
 10
657.075
 20
559.2
 30
0.0
 11
657.075
 21
598.9
 31
0.0
  0
LINE
  8
7
  6
CONTINUOUS
 62
     2
 10
661.544424461
 20
587.4
 30
0.0
 11
667.511000149
 21
595.424959474
 31
0.0
  0
LINE
  8
7
  6
CONTINUOUS
 62
     2
 10
661.544424461
 20
587.4
 30
0.0
 11
662.699150843
 21
597.333106613
 31
0.0
  0
LINE
  8
0
  6
CONTINUOUS
 62
     1
 10
654.075
 20
488.9
 30
0.0
 11
784.075
 21
488.9
 31
0.0
  0
LINE
  8
0
  6
CONTINUOUS
 62
     1
 10
766.375
 20
481.9
 30
0.0
 11
791.775
 21
481.9
 31
0.0
  0
LINE
  8
0
  6
CONTINUOUS
 62
     1
 10
654.075
 20
482.9
 30
0.0
 11
654.075
 21
488.9
 31
0.0
  0
LINE
  8
0
  6
CONTINUOUS
 62
     1
 10
654.075
 20
482.9
 30
0.0
 11
784.075
 21
482.9
 31
0.0
  0
LINE
  8
0
  6
CONTINUOUS
 62
     1
 10
784.075
 20
482.9
 30
0.0
 11
784.075
 21
488.9
 31
0.0
  0
LINE
  8
0
  6
CONTINUOUS
 62
     1
 10
766.375
 20
456.5
 30
0.0
 11
791.775
 21
456.5
 31
0.0
  0
LINE
  8
0
  6
CONTINUOUS
 62
     1
 10
697.675
 20
482.9
 30
0.0
 11
697.675
 21
442.9
 31
0.0
  0
LINE
  8
0
  6
CONTINUOUS
 62
     1
 10
766.375
 20
482.9
 30
0.0
 11
766.375
 21
442.9
 31
0.0
  0
LINE
  8
0
  6
CONTINUOUS
 62
     1
 10
646.375
 20
481.9
 30
0.0
 11
646.375
 21
456.5
 31
0.0
  0
LINE
  8
0
  6
CONTINUOUS
 62
     1
 10
671.775
 20
481.9
 30
0.0
 11
646.375
 21
481.9
 31
0.0
  0
LINE
  8
0
  6
CONTINUOUS
 62
     1
 10
671.775
 20
456.5
 30
0.0
 11
646.375
 21
456.5
 31
0.0
  0
LINE
  8
0
  6
CONTINUOUS
 62
     1
 10
671.775
 20
482.9
 30
0.0
 11
671.775
 21
442.9
 31
0.0
  0
LINE
  8
0
  6
CONTINUOUS
 62
     1
 10
703.075
 20
427.9
 30
0.0
 11
703.075
 21
442.9
 31
0.0
  0
LINE
  8
0
  6
CONTINUOUS
 62
     1
 10
703.075
 20
427.9
 30
0.0
 11
735.075
 21
427.9
 31
0.0
  0
LINE
  8
0
  6
CONTINUOUS
 62
     1
 10
735.075
 20
427.9
 30
0.0
 11
735.075
 21
442.9
 31
0.0
  0
LINE
  8
0
  6
CONTINUOUS
 62
     1
 10
770.075
 20
432.5
 30
0.0
 11
770.075
 21
456.5
 31
0.0
  0
LINE
  8
0
  6
CONTINUOUS
 62
     1
 10
782.075
 20
432.5
 30
0.0
 11
770.075
 21
432.5
 31
0.0
  0
LINE
  8
0
  6
CONTINUOUS
 62
     1
 10
782.075
 20
432.5
 30
0.0
 11
782.075
 21
456.5
 31
0.0
  0
LINE
  8
0
  6
LTYPE4
 62
     2
 10
776.075
 20
460.5
 30
0.0
 11
776.075
 21
425.5
 31
0.0
  0
LINE
  8
0
  6
CONTINUOUS
 62
     1
 10
697.675
 20
448.9
 30
0.0
 11
766.375
 21
448.9
 31
0.0
  0
LINE
  8
0
  6
CONTINUOUS
 62
     1
 10
671.775
 20
448.9
 30
0.0
 11
693.675
 21
448.9
 31
0.0
  0
LINE
  8
0
  6
CONTINUOUS
 62
     1
 10
697.675
 20
442.9
 30
0.0
 11
766.375
 21
442.9
 31
0.0
  0
LINE
  8
0
  6
CONTINUOUS
 62
     1
 10
671.775
 20
442.9
 30
0.0
 11
693.675
 21
442.9
 31
0.0
  0
LINE
  8
0
  6
LTYPE5
 62
     2
 10
707.175
 20
461.6
 30
0.0
 11
690.175
 21
461.6
 31
0.0
  0
LINE
  8
0
  6
CONTINUOUS
 62
     1
 10
753.075
 20
609.65
 30
0.0
 11
789.075
 21
609.65
 31
0.0
  0
LINE
  8
0
  6
CONTINUOUS
 62
     1
 10
693.075
 20
609.65
 30
0.0
 11
745.075
 21
609.65
 31
0.0
  0
LINE
  8
0
  6
CONTINUOUS
 62
     1
 10
636.424814745
 20
609.65
 30
0.0
 11
685.075
 21
609.65
 31
0.0
  0
LINE
  8
0
  6
CONTINUOUS
 62
     1
 10
735.075
 20
432.9
 30
0.0
 11
770.075
 21
432.9
 31
0.0
  0
LINE
  8
7
  6
CONTINUOUS
 62
     2
 10
717.075
 20
427.9
 30
0.0
 11
709.354572975
 21
421.544293387
 31
0.0
  0
LINE
  8
7
  6
CONTINUOUS
 62
     2
 10
717.075
 20
427.9
 30
0.0
 11
713.566767374
 21
418.535583102
 31
0.0
  0
LINE
  8
7
  6
CONTINUOUS
 62
     2
 10
717.075
 20
427.9
 30
0.0
 11
697.075
 21
399.9
 31
0.0
  0
LINE
  8
7
  6
CONTINUOUS
 62
     2
 10
697.075
 20
399.9
 30
0.0
 11
626.275
 21
399.9
 31
0.0
  0
LINE
  8
0
  6
LTYPE2
 62
     2
 10
719.075
 20
131.9
 30
0.0
 11
719.075
 21
442.9
 31
0.0
  0
LINE
  8
0
  6
LTYPE4
 62
     2
 10
709.115
 20
239.1
 30
0.0
 11
697.675
 21
239.1
 31
0.0
  0
LINE
  8
0
  6
LTYPE4
 62
     2
 10
702.675
 20
243.0
 30
0.0
 11
702.675
 21
234.02
 31
0.0
  0
LINE
  8
0
  6
CONTINUOUS
 62
     1
 10
764.375
 20
244.0
 30
0.0
 11
699.675
 21
244.0
 31
0.0
  0
LINE
  8
0
  6
CONTINUOUS
 62
     1
 10
697.675
 20
242.0
 30
0.0
 11
697.675
 21
206.0
 31
0.0
  0
ARC
  8
0
  6
CONTINUOUS
 62
     1
 10
699.675
 20
242.0
 30
0.0
 40
2.0
 50
90.0
 51
180.0
  0
LINE
  8
0
  6
LTYPE4
 62
     2
 10
766.375
 20
239.1
 30
0.0
 11
756.415
 21
239.1
 31
0.0
  0
LINE
  8
0
  6
LTYPE4
 62
     2
 10
761.375
 20
243.0
 30
0.0
 11
761.375
 21
235.12
 31
0.0
  0
ARC
  8
0
  6
CONTINUOUS
 62
     1
 10
764.375
 20
242.0
 30
0.0
 40
2.0
 50
0.0
 51
90.0
  0
LINE
  8
0
  6
CONTINUOUS
 62
     1
 10
789.775
 20
236.7
 30
0.0
 11
766.375
 21
236.7
 31
0.0
  0
LINE
  8
0
  6
CONTINUOUS
 62
     1
 10
766.375
 20
242.0
 30
0.0
 11
766.375
 21
206.0
 31
0.0
  0
LINE
  8
0
  6
CONTINUOUS
 62
     1
 10
756.075
 20
546.15
 30
0.0
 11
824.075
 21
546.15
 31
0.0
  0
LINE
  8
0
  6
CONTINUOUS
 62
     1
 10
696.075
 20
546.15
 30
0.0
 11
742.075
 21
546.15
 31
0.0
  0
LINE
  8
0
  6
CONTINUOUS
 62
     1
 10
636.424814745
 20
546.15
 30
0.0
 11
682.075
 21
546.15
 31
0.0
  0
LINE
  8
0
  6
CONTINUOUS
 62
     1
 10
753.075
 20
557.9
 30
0.0
 11
753.075
 21
613.65
 31
0.0
  0
LINE
  8
0
  6
CONTINUOUS
 62
     1
 10
745.075
 20
557.9
 30
0.0
 11
745.075
 21
613.65
 31
0.0
  0
ARC
  8
0
  6
CONTINUOUS
 62
     1
 10
749.075
 20
613.65
 30
0.0
 40
4.0
 50
0.0
 51
180.0
  0
LINE
  8
0
  6
LTYPE4
 62
     2
 10
749.075
 20
527.65
 30
0.0
 11
749.075
 21
621.65
 31
0.0
  0
LINE
  8
0
  6
CONTINUOUS
 62
     1
 10
693.075
 20
557.9
 30
0.0
 11
693.075
 21
613.65
 31
0.0
  0
LINE
  8
0
  6
CONTINUOUS
 62
     1
 10
685.075
 20
557.9
 30
0.0
 11
685.075
 21
613.65
 31
0.0
  0
ARC
  8
0
  6
CONTINUOUS
 62
     1
 10
689.075
 20
613.65
 30
0.0
 40
4.0
 50
0.0
 51
180.0
  0
LINE
  8
0
  6
LTYPE4
 62
     2
 10
689.075
 20
527.65
 30
0.0
 11
689.075
 21
621.65
 31
0.0
  0
LINE
  8
0
  6
CONTINUOUS
 62
     1
 10
682.075
 20
557.9
 30
0.0
 11
696.075
 21
557.9
 31
0.0
  0
LINE
  8
0
  6
CONTINUOUS
 62
     1
 10
682.075
 20
537.9
 30
0.0
 11
696.075
 21
537.9
 31
0.0
  0
LINE
  8
0
  6
CONTINUOUS
 62
     1
 10
742.075
 20
557.9
 30
0.0
 11
756.075
 21
557.9
 31
0.0
  0
LINE
  8
0
  6
CONTINUOUS
 62
     1
 10
742.075
 20
537.9
 30
0.0
 11
756.075
 21
537.9
 31
0.0
  0
LINE
  8
0
  6
CONTINUOUS
 62
     1
 10
756.075
 20
488.9
 30
0.0
 11
756.075
 21
557.9
 31
0.0
  0
LINE
  8
0
  6
CONTINUOUS
 62
     1
 10
742.075
 20
488.9
 30
0.0
 11
742.075
 21
557.9
 31
0.0
  0
LINE
  8
0
  6
CONTINUOUS
 62
     1
 10
696.075
 20
488.9
 30
0.0
 11
696.075
 21
557.9
 31
0.0
  0
LINE
  8
0
  6
CONTINUOUS
 62
     1
 10
682.075
 20
488.9
 30
0.0
 11
682.075
 21
557.9
 31
0.0
  0
LINE
  8
0
  6
CONTINUOUS
 62
     1
 10
274.075
 20
747.9
 30
0.0
 11
311.075
 21
747.9
 31
0.0
  0
LINE
  8
0
  6
CONTINUOUS
 62
     1
 10
274.075
 20
728.9
 30
0.0
 11
274.075
 21
747.9
 31
0.0
  0
ARC
  8
0
  6
CONTINUOUS
 62
     1
 10
268.075
 20
728.9
 30
0.0
 40
6.0
 50
270.0
 51
360.0
  0
ARC
  8
0
  6
CONTINUOUS
 62
     1
 10
296.075
 20
725.9
 30
0.0
 40
3.0
 50
270.0
 51
360.0
  0
ARC
  8
0
  6
CONTINUOUS
 62
     1
 10
296.075
 20
672.9
 30
0.0
 40
3.0
 50
270.0
 51
0.0
  0
LINE
  8
0
  6
CONTINUOUS
 62
     1
 10
299.075
 20
726.852380952
 30
0.0
 11
303.075
 21
747.9
 31
0.0
  0
LINE
  8
0
  6
CONTINUOUS
 62
     1
 10
299.075
 20
672.9
 30
0.0
 11
299.075
 21
726.852380952
 31
0.0
  0
CIRCLE
  8
0
  6
CONTINUOUS
 62
     1
 10
287.075
 20
767.9
 30
0.0
 40
12.5
  0
ARC
  8
0
  6
CONTINUOUS
 62
     1
 10
287.075
 20
767.9
 30
0.0
 40
20.5
 50
300.423432294
 51
0.0
  0
ARC
  8
0
  6
CONTINUOUS
 62
     1
 10
298.022984073
 20
749.173488336
 30
0.0
 40
1.2
 50
118.393405187
 51
188.554293104
  0
ARC
  8
0
  6
CONTINUOUS
 62
     1
 10
276.127015927
 20
749.173488336
 30
0.0
 40
1.2
 50
351.445706896
 51
61.606594813
  0
ARC
  8
0
  6
CONTINUOUS
 62
     1
 10
287.075
 20
767.9
 30
0.0
 40
20.5
 50
0.0
 51
239.707348078
  0
LINE
  8
0
  6
CONTINUOUS
 62
     1
 10
296.960714286
 20
747.9
 30
0.0
 11
296.275
 21
753.9
 31
0.0
  0
CIRCLE
  8
0
  6
CONTINUOUS
 62
     1
 10
381.075
 20
577.9
 30
0.0
 40
20.0
  0
CIRCLE
  8
0
  6
CONTINUOUS
 62
     1
 10
381.075
 20
577.9
 30
0.0
 40
8.0
  0
ARC
  8
0
  6
CONTINUOUS
 62
     1
 10
317.075
 20
526.9
 30
0.0
 40
2.0
 50
270.0
 51
0.0
  0
LINE
  8
0
  6
CONTINUOUS
 62
     1
 10
322.075
 20
614.9
 30
0.0
 11
479.075
 21
614.9
 31
0.0
  0
LINE
  8
0
  6
CONTINUOUS
 62
     1
 10
322.075
 20
540.9
 30
0.0
 11
405.075
 21
540.9
 31
0.0
  0
ARC
  8
0
  6
CONTINUOUS
 62
     1
 10
322.075
 20
537.9
 30
0.0
 40
3.0
 50
87.047798252
 51
176.185925166
  0
ARC
  8
0
  6
CONTINUOUS
 62
     1
 10
321.875
 20
617.9
 30
0.0
 40
3.0
 50
177.893372153
 51
273.822553727
  0
LINE
  8
0
  6
CONTINUOUS
 62
     1
 10
487.075
 20
617.9
 30
0.0
 11
487.075
 21
537.9
 31
0.0
  0
LINE
  8
0
  6
CONTINUOUS
 62
     1
 10
479.075
 20
617.9
 30
0.0
 11
487.075
 21
617.9
 31
0.0
  0
LINE
  8
0
  6
CONTINUOUS
 62
     1
 10
479.075
 20
537.9
 30
0.0
 11
487.075
 21
537.9
 31
0.0
  0
LINE
  8
0
  6
CONTINUOUS
 62
     1
 10
479.075
 20
579.4
 30
0.0
 11
487.075
 21
579.4
 31
0.0
  0
LINE
  8
0
  6
CONTINUOUS
 62
     1
 10
479.075
 20
576.4
 30
0.0
 11
487.075
 21
576.4
 31
0.0
  0
LINE
  8
0
  6
CONTINUOUS
 62
     1
 10
405.075
 20
554.9
 30
0.0
 11
479.075
 21
554.9
 31
0.0
  0
LINE
  8
0
  6
CONTINUOUS
 62
     1
 10
311.075
 20
524.9
 30
0.0
 11
317.075
 21
524.9
 31
0.0
  0
LINE
  8
0
  6
CONTINUOUS
 62
     1
 10
311.075
 20
679.7
 30
0.0
 11
311.075
 21
687.9
 31
0.0
  0
LINE
  8
0
  6
CONTINUOUS
 62
     1
 10
311.075
 20
679.7
 30
0.0
 11
311.075
 21
687.9
 31
0.0
  0
LINE
  8
0
  6
LTYPE4
 62
     2
 10
305.475
 20
687.9
 30
0.0
 11
317.475
 21
687.9
 31
0.0
  0
LINE
  8
0
  6
LTYPE4
 62
     2
 10
305.475
 20
687.9
 30
0.0
 11
317.475
 21
687.9
 31
0.0
  0
LINE
  8
0
  6
CONTINUOUS
 62
     1
 10
251.075
 20
722.9
 30
0.0
 11
296.075
 21
722.9
 31
0.0
  0
CIRCLE
  8
0
  6
CONTINUOUS
 62
     1
 10
381.075
 20
577.9
 30
0.0
 40
26.0
  0
LINE
  8
0
  6
CONTINUOUS
 62
     1
 10
405.075
 20
565.4
 30
0.0
 11
405.075
 21
532.9
 31
0.0
  0
LINE
  8
0
  6
CONTINUOUS
 62
     1
 10
479.075
 20
617.9
 30
0.0
 11
479.075
 21
532.9
 31
0.0
  0
LINE
  8
0
  6
LTYPE4
 62
     2
 10
442.075
 20
545.9
 30
0.0
 11
442.075
 21
521.9
 31
0.0
  0
LINE
  8
0
  6
LTYPE4
 62
     2
 10
381.075
 20
609.9
 30
0.0
 11
381.075
 21
545.9
 31
0.0
  0
LINE
  8
0
  6
LTYPE4
 62
     2
 10
287.075
 20
738.025
 30
0.0
 11
287.075
 21
792.2
 31
0.0
  0
LINE
  8
0
  6
CONTINUOUS
 62
     6
 10
287.075
 20
755.4
 30
0.0
 11
296.275
 21
753.9
 31
0.0
  0
LINE
  8
0
  6
CONTINUOUS
 62
     6
 10
287.075
 20
755.4
 30
0.0
 11
277.875
 21
753.9
 31
0.0
  0
LINE
  8
0
  6
CONTINUOUS
 62
     1
 10
277.189285714
 20
747.9
 30
0.0
 11
277.875
 21
753.9
 31
0.0
  0
LINE
  8
0
  6
CONTINUOUS
 62
     6
 10
277.875
 20
753.9
 30
0.0
 11
296.275
 21
753.9
 31
0.0
  0
LINE
  8
0
  6
CONTINUOUS
 62
     1
 10
325.075
 20
687.9
 30
0.0
 11
325.075
 21
744.9
 31
0.0
  0
ARC
  8
0
  6
CONTINUOUS
 62
     1
 10
320.575
 20
746.4
 30
0.0
 40
1.5
 50
180.0
 51
270.0
  0
LINE
  8
0
  6
CONTINUOUS
 62
     1
 10
319.075
 20
746.4
 30
0.0
 11
319.075
 21
747.4
 31
0.0
  0
ARC
  8
0
  6
CONTINUOUS
 62
     1
 10
317.575
 20
747.4
 30
0.0
 40
1.5
 50
0.0
 51
90.0
  0
LINE
  8
0
  6
CONTINUOUS
 62
     1
 10
474.075
 20
687.9
 30
0.0
 11
474.075
 21
744.9
 31
0.0
  0
ARC
  8
0
  6
CONTINUOUS
 62
     1
 10
477.575
 20
743.4
 30
0.0
 40
1.5
 50
0.0
 51
90.0
  0
LINE
  8
0
  6
CONTINUOUS
 62
     1
 10
319.075
 20
687.9
 30
0.0
 11
319.075
 21
747.0
 31
0.0
  0
LINE
  8
0
  6
CONTINUOUS
 62
     1
 10
479.075
 20
730.970524155
 30
0.0
 11
479.075
 21
743.4
 31
0.0
  0
ARC
  8
0
  6
CONTINUOUS
 62
     1
 10
480.575
 20
730.970524155
 30
0.0
 40
1.5
 50
180.0
 51
251.029592192
  0
LINE
  8
0
  6
CONTINUOUS
 62
     1
 10
495.075
 20
687.9
 30
0.0
 11
495.075
 21
723.329475845
 31
0.0
  0
LINE
  8
0
  6
CONTINUOUS
 62
     1
 10
494.062619653
 20
724.748005744
 30
0.0
 11
480.087380347
 21
729.551994256
 31
0.0
  0
ARC
  8
0
  6
CONTINUOUS
 62
     1
 10
493.575
 20
723.329475845
 30
0.0
 40
1.5
 50
0.0
 51
71.029592192
  0
LINE
  8
0
  6
CONTINUOUS
 62
     1
 10
479.075
 20
687.9
 30
0.0
 11
479.075
 21
730.970524155
 31
0.0
  0
ARC
  8
0
  6
CONTINUOUS
 62
     1
 10
507.075
 20
704.4
 30
0.0
 40
1.0
 50
0.0
 51
90.0
  0
LINE
  8
0
  6
CONTINUOUS
 62
     1
 10
507.075
 20
705.4
 30
0.0
 11
495.075
 21
705.4
 31
0.0
  0
LINE
  8
0
  6
CONTINUOUS
 62
     1
 10
508.075
 20
687.9
 30
0.0
 11
508.075
 21
704.4
 31
0.0
  0
LINE
  8
0
  6
CONTINUOUS
 62
     1
 10
325.075
 20
687.9
 30
0.0
 11
325.075
 21
630.9
 31
0.0
  0
ARC
  8
0
  6
CONTINUOUS
 62
     1
 10
320.575
 20
629.4
 30
0.0
 40
1.5
 50
90.0
 51
180.0
  0
LINE
  8
0
  6
CONTINUOUS
 62
     1
 10
319.075
 20
629.4
 30
0.0
 11
319.075
 21
628.4
 31
0.0
  0
ARC
  8
0
  6
CONTINUOUS
 62
     1
 10
317.575
 20
628.4
 30
0.0
 40
1.5
 50
270.0
 51
0.0
  0
LINE
  8
0
  6
CONTINUOUS
 62
     1
 10
474.075
 20
687.9
 30
0.0
 11
474.075
 21
630.9
 31
0.0
  0
LINE
  8
0
  6
CONTINUOUS
 62
     1
 10
477.575
 20
630.9
 30
0.0
 11
320.575
 21
630.9
 31
0.0
  0
ARC
  8
0
  6
CONTINUOUS
 62
     1
 10
477.575
 20
632.4
 30
0.0
 40
1.5
 50
270.0
 51
0.0
  0
LINE
  8
0
  6
CONTINUOUS
 62
     1
 10
319.075
 20
687.9
 30
0.0
 11
319.075
 21
628.8
 31
0.0
  0
LINE
  8
0
  6
CONTINUOUS
 62
     1
 10
495.075
 20
687.9
 30
0.0
 11
495.075
 21
652.470524155
 31
0.0
  0
ARC
  8
0
  6
CONTINUOUS
 62
     1
 10
493.575
 20
652.470524155
 30
0.0
 40
1.5
 50
288.970407808
 51
0.0
  0
ARC
  8
0
  6
CONTINUOUS
 62
     1
 10
507.075
 20
671.4
 30
0.0
 40
1.0
 50
270.0
 51
0.0
  0
LINE
  8
0
  6
CONTINUOUS
 62
     1
 10
507.075
 20
670.4
 30
0.0
 11
495.075
 21
670.4
 31
0.0
  0
LINE
  8
0
  6
CONTINUOUS
 62
     1
 10
508.075
 20
687.9
 30
0.0
 11
508.075
 21
671.4
 31
0.0
  0
LINE
  8
0
  6
LTYPE2
 62
     2
 10
487.075
 20
723.962445841
 30
0.0
 11
476.075
 21
723.962445841
 31
0.0
  0
LINE
  8
0
  6
CONTINUOUS
 62
     1
 10
479.075
 20
644.829475845
 30
0.0
 11
479.075
 21
632.4
 31
0.0
  0
ARC
  8
0
  6
CONTINUOUS
 62
     1
 10
480.575
 20
644.829475845
 30
0.0
 40
1.5
 50
108.970407808
 51
180.0
  0
LINE
  8
0
  6
CONTINUOUS
 62
     1
 10
494.062619653
 20
651.051994256
 30
0.0
 11
480.087380347
 21
646.248005744
 31
0.0
  0
LINE
  8
0
  6
CONTINUOUS
 62
     1
 10
479.075
 20
687.9
 30
0.0
 11
479.075
 21
644.829475845
 31
0.0
  0
LINE
  8
0
  6
LTYPE2
 62
     2
 10
487.075
 20
651.837554159
 30
0.0
 11
476.075
 21
651.837554159
 31
0.0
  0
LINE
  8
0
  6
CONTINUOUS
 62
     1
 10
424.075
 20
765.9
 30
0.0
 11
424.075
 21
799.9
 31
0.0
  0
LINE
  8
0
  6
CONTINUOUS
 62
     1
 10
424.075
 20
765.9
 30
0.0
 11
398.075
 21
765.9
 31
0.0
  0
LINE
  8
0
  6
CONTINUOUS
 62
     1
 10
424.075
 20
799.9
 30
0.0
 11
398.075
 21
799.9
 31
0.0
  0
LINE
  8
0
  6
CONTINUOUS
 62
     1
 10
328.075
 20
757.9
 30
0.0
 11
328.075
 21
760.9
 31
0.0
  0
ARC
  8
0
  6
CONTINUOUS
 62
     1
 10
332.075
 20
754.9
 30
0.0
 40
3.0
 50
0.0
 51
90.0
  0
LINE
  8
0
  6
CONTINUOUS
 62
     1
 10
335.075
 20
747.9
 30
0.0
 11
335.075
 21
754.9
 31
0.0
  0
ARC
  8
0
  6
CONTINUOUS
 62
     1
 10
338.075
 20
747.9
 30
0.0
 40
3.0
 50
180.0
 51
270.0
  0
LINE
  8
0
  6
CONTINUOUS
 62
     1
 10
477.575
 20
744.9
 30
0.0
 11
320.575
 21
744.9
 31
0.0
  0
LINE
  8
0
  6
CONTINUOUS
 62
     1
 10
388.075
 20
757.9
 30
0.0
 11
388.075
 21
760.9
 31
0.0
  0
ARC
  8
0
  6
CONTINUOUS
 62
     1
 10
384.075
 20
754.9
 30
0.0
 40
3.0
 50
90.0
 51
180.0
  0
LINE
  8
0
  6
CONTINUOUS
 62
     1
 10
381.075
 20
747.9
 30
0.0
 11
381.075
 21
754.9
 31
0.0
  0
ARC
  8
0
  6
CONTINUOUS
 62
     1
 10
378.075
 20
747.9
 30
0.0
 40
3.0
 50
270.0
 51
0.0
  0
LINE
  8
0
  6
CONTINUOUS
 62
     1
 10
388.075
 20
757.9
 30
0.0
 11
328.075
 21
757.9
 31
0.0
  0
LINE
  8
0
  6
CONTINUOUS
 62
     1
 10
312.987087912
 20
762.9
 30
0.0
 11
405.075
 21
806.920045888
 31
0.0
  0
LINE
  8
0
  6
CONTINUOUS
 62
     1
 10
311.075
 20
766.9
 30
0.0
 11
312.987087912
 21
762.9
 31
0.0
  0
LINE
  8
0
  6
CONTINUOUS
 62
     1
 10
311.075
 20
766.9
 30
0.0
 11
403.162912088
 21
810.920045888
 31
0.0
  0
LINE
  8
0
  6
CONTINUOUS
 62
     1
 10
403.162912088
 20
810.920045888
 30
0.0
 11
405.075
 21
806.920045888
 31
0.0
  0
LINE
  8
0
  6
CONTINUOUS
 62
     1
 10
318.075
 20
770.246153846
 30
0.0
 11
318.075
 21
809.9
 31
0.0
  0
ARC
  8
0
  6
CONTINUOUS
 62
     1
 10
321.075
 20
809.9
 30
0.0
 40
3.0
 50
90.0
 51
180.0
  0
LINE
  8
0
  6
CONTINUOUS
 62
     1
 10
318.075
 20
763.9
 30
0.0
 11
318.075
 21
765.3321338
 31
0.0
  0
ARC
  8
0
  6
CONTINUOUS
 62
     1
 10
321.075
 20
763.9
 30
0.0
 40
3.0
 50
180.0
 51
270.0
  0
LINE
  8
0
  6
CONTINUOUS
 62
     1
 10
398.075
 20
763.9
 30
0.0
 11
398.075
 21
803.573892042
 31
0.0
  0
LINE
  8
0
  6
CONTINUOUS
 62
     1
 10
395.075
 20
760.9
 30
0.0
 11
321.075
 21
760.9
 31
0.0
  0
ARC
  8
0
  6
CONTINUOUS
 62
     1
 10
395.075
 20
763.9
 30
0.0
 40
3.0
 50
270.0
 51
0.0
  0
LINE
  8
0
  6
CONTINUOUS
 62
     1
 10
398.075
 20
808.487912088
 30
0.0
 11
398.075
 21
809.9
 31
0.0
  0
LINE
  8
0
  6
CONTINUOUS
 62
     1
 10
395.075
 20
812.9
 30
0.0
 11
321.075
 21
812.9
 31
0.0
  0
ARC
  8
0
  6
CONTINUOUS
 62
     1
 10
395.075
 20
809.9
 30
0.0
 40
3.0
 50
0.0
 51
90.0
  0
LINE
  8
0
  6
LTYPE2
 62
     2
 10
358.075
 20
732.9
 30
0.0
 11
358.075
 21
820.8321338
 31
0.0
  0
LINE
  8
0
  6
CONTINUOUS
 62
     6
 10
480.375
 20
723.962445841
 30
0.0
 11
480.375
 21
719.350565841
 31
0.0
  0
LINE
  8
0
  6
CONTINUOUS
 62
     6
 10
480.375
 20
723.962445841
 30
0.0
 11
480.375
 21
728.574325841
 31
0.0
  0
LINE
  8
0
  6
CONTINUOUS
 62
     6
 10
483.8752
 20
720.480005841
 30
0.0
 11
483.223117512
 21
719.350565841
 31
0.0
  0
LINE
  8
0
  6
CONTINUOUS
 62
     6
 10
483.8752
 20
723.962445841
 30
0.0
 11
483.8752
 21
720.480005841
 31
0.0
  0
LINE
  8
0
  6
CONTINUOUS
 62
     6
 10
483.8752
 20
727.444885841
 30
0.0
 11
483.223117512
 21
728.574325841
 31
0.0
  0
LINE
  8
0
  6
CONTINUOUS
 62
     6
 10
483.8752
 20
723.962445841
 30
0.0
 11
483.8752
 21
727.444885841
 31
0.0
  0
ARC
  8
0
  6
CONTINUOUS
 62
     6
 10
479.471945074
 20
723.962445841
 30
0.0
 40
4.403254926
 50
328.419912243
 51
31.580087757
  0
ARC
  8
0
  6
CONTINUOUS
 62
     6
 10
482.530279868
 20
720.503535841
 30
0.0
 40
1.34512595
 50
357.010501597
 51
58.997686085
  0
LINE
  8
0
  6
CONTINUOUS
 62
     6
 10
483.8752
 20
727.444885841
 30
0.0
 11
483.223117512
 21
728.574325841
 31
0.0
  0
ARC
  8
0
  6
CONTINUOUS
 62
     6
 10
482.530279868
 20
727.421355841
 30
0.0
 40
1.34512595
 50
301.002313915
 51
2.989498403
  0
LINE
  8
0
  6
CONTINUOUS
 62
     6
 10
480.375
 20
719.350565841
 30
0.0
 11
483.223117512
 21
719.350565841
 31
0.0
  0
LINE
  8
0
  6
CONTINUOUS
 62
     6
 10
480.375
 20
721.656505841
 30
0.0
 11
483.223117512
 21
721.656505841
 31
0.0
  0
LINE
  8
0
  6
CONTINUOUS
 62
     6
 10
480.375
 20
726.268385841
 30
0.0
 11
483.223117512
 21
726.268385841
 31
0.0
  0
LINE
  8
0
  6
CONTINUOUS
 62
     6
 10
480.375
 20
728.574325841
 30
0.0
 11
483.223117512
 21
728.574325841
 31
0.0
  0
LINE
  8
0
  6
CONTINUOUS
 62
     6
 10
479.075
 20
719.362445841
 30
0.0
 11
480.375
 21
719.362445841
 31
0.0
  0
LINE
  8
0
  6
CONTINUOUS
 62
     6
 10
479.075
 20
723.962445841
 30
0.0
 11
480.374999554
 21
722.662446287
 31
0.0
  0
LINE
  8
0
  6
CONTINUOUS
 62
     6
 10
480.374999554
 20
723.962445841
 30
0.0
 11
479.075
 21
725.262445394
 31
0.0
  0
LINE
  8
0
  6
CONTINUOUS
 62
     6
 10
479.075
 20
728.562445841
 30
0.0
 11
480.375
 21
728.562445841
 31
0.0
  0
LINE
  8
0
  6
CONTINUOUS
 62
     6
 10
509.075
 20
691.7
 30
0.0
 11
508.075
 21
691.7
 31
0.0
  0
LINE
  8
0
  6
CONTINUOUS
 62
     6
 10
509.075
 20
687.9
 30
0.0
 11
508.075
 21
688.9
 31
0.0
  0
LINE
  8
0
  6
CONTINUOUS
 62
     6
 10
511.557457352
 20
691.95
 30
0.0
 11
509.075
 21
691.95
 31
0.0
  0
LINE
  8
0
  6
CONTINUOUS
 62
     6
 10
511.875
 20
691.4
 30
0.0
 11
511.557457352
 21
691.95
 31
0.0
  0
LINE
  8
0
  6
CONTINUOUS
 62
     6
 10
511.557457352
 20
689.925
 30
0.0
 11
509.075
 21
689.925
 31
0.0
  0
ARC
  8
0
  6
CONTINUOUS
 62
     6
 10
510.102026212
 20
690.9375
 30
0.0
 40
1.772973788
 50
325.174816769
 51
34.825183231
  0
LINE
  8
0
  6
CONTINUOUS
 62
     6
 10
509.075
 20
684.1
 30
0.0
 11
508.075
 21
684.1
 31
0.0
  0
LINE
  8
0
  6
CONTINUOUS
 62
     6
 10
509.075
 20
686.9
 30
0.0
 11
508.075
 21
687.9
 31
0.0
  0
LINE
  8
0
  6
CONTINUOUS
 62
     6
 10
511.875
 20
684.4
 30
0.0
 11
511.557457352
 21
683.85
 31
0.0
  0
LINE
  8
0
  6
CONTINUOUS
 62
     6
 10
511.557457352
 20
683.85
 30
0.0
 11
509.075
 21
683.85
 31
0.0
  0
LINE
  8
0
  6
CONTINUOUS
 62
     6
 10
511.557457352
 20
685.875
 30
0.0
 11
509.075
 21
685.875
 31
0.0
  0
ARC
  8
0
  6
CONTINUOUS
 62
     6
 10
510.102026212
 20
684.8625
 30
0.0
 40
1.772973788
 50
325.174816769
 51
34.825183231
  0
LINE
  8
0
  6
CONTINUOUS
 62
     6
 10
509.075
 20
691.95
 30
0.0
 11
509.075
 21
683.85
 31
0.0
  0
LINE
  8
0
  6
CONTINUOUS
 62
     6
 10
511.875
 20
691.4
 30
0.0
 11
511.875
 21
684.4
 31
0.0
  0
ARC
  8
0
  6
CONTINUOUS
 62
     6
 10
505.259418819
 20
687.9
 30
0.0
 40
6.615581181
 50
342.175912681
 51
17.824087319
  0
LINE
  8
0
  6
CONTINUOUS
 62
     6
 10
480.375
 20
651.837554159
 30
0.0
 11
480.375
 21
656.449434159
 31
0.0
  0
LINE
  8
0
  6
CONTINUOUS
 62
     6
 10
483.8752
 20
655.319994159
 30
0.0
 11
483.223117512
 21
656.449434159
 31
0.0
  0
LINE
  8
0
  6
CONTINUOUS
 62
     6
 10
483.8752
 20
651.837554159
 30
0.0
 11
483.8752
 21
655.319994159
 31
0.0
  0
ARC
  8
0
  6
CONTINUOUS
 62
     6
 10
482.530279868
 20
655.296464159
 30
0.0
 40
1.34512595
 50
301.002313915
 51
2.989498403
  0
LINE
  8
0
  6
CONTINUOUS
 62
     6
 10
480.375
 20
656.449434159
 30
0.0
 11
483.223117512
 21
656.449434159
 31
0.0
  0
LINE
  8
0
  6
CONTINUOUS
 62
     6
 10
479.075
 20
656.437554159
 30
0.0
 11
480.375
 21
656.437554159
 31
0.0
  0
LINE
  8
0
  6
CONTINUOUS
 62
     6
 10
480.375
 20
651.837554159
 30
0.0
 11
480.375
 21
647.225674159
 31
0.0
  0
LINE
  8
0
  6
CONTINUOUS
 62
     6
 10
483.8752
 20
648.355114159
 30
0.0
 11
483.223117512
 21
647.225674159
 31
0.0
  0
LINE
  8
0
  6
CONTINUOUS
 62
     6
 10
483.8752
 20
651.837554159
 30
0.0
 11
483.8752
 21
648.355114159
 31
0.0
  0
ARC
  8
0
  6
CONTINUOUS
 62
     6
 10
479.471945074
 20
651.837554159
 30
0.0
 40
4.403254926
 50
328.419912243
 51
31.580087757
  0
LINE
  8
0
  6
CONTINUOUS
 62
     6
 10
483.8752
 20
648.355114159
 30
0.0
 11
483.223117512
 21
647.225674159
 31
0.0
  0
ARC
  8
0
  6
CONTINUOUS
 62
     6
 10
482.530279868
 20
648.378644159
 30
0.0
 40
1.34512595
 50
357.010501597
 51
58.997686085
  0
LINE
  8
0
  6
CONTINUOUS
 62
     6
 10
480.375
 20
649.531614159
 30
0.0
 11
483.223117512
 21
649.531614159
 31
0.0
  0
LINE
  8
0
  6
CONTINUOUS
 62
     6
 10
480.375
 20
647.225674159
 30
0.0
 11
483.223117512
 21
647.225674159
 31
0.0
  0
LINE
  8
0
  6
CONTINUOUS
 62
     6
 10
479.075
 20
647.237554159
 30
0.0
 11
480.375
 21
647.237554159
 31
0.0
  0
LINE
  8
0
  6
CONTINUOUS
 62
     6
 10
480.375
 20
654.143494159
 30
0.0
 11
483.223117512
 21
654.143494159
 31
0.0
  0
LINE
  8
0
  6
CONTINUOUS
 62
     6
 10
479.075
 20
651.837554159
 30
0.0
 11
480.374999554
 21
653.137553713
 31
0.0
  0
LINE
  8
0
  6
CONTINUOUS
 62
     6
 10
480.374999554
 20
651.837554159
 30
0.0
 11
479.075
 21
650.537554606
 31
0.0
  0
LINE
  8
0
  6
CONTINUOUS
 62
     1
 10
522.575
 20
703.4
 30
0.0
 11
508.075
 21
703.4
 31
0.0
  0
ARC
  8
0
  6
CONTINUOUS
 62
     1
 10
522.575
 20
701.9
 30
0.0
 40
1.5
 50
0.0
 51
90.0
  0
LINE
  8
0
  6
CONTINUOUS
 62
     1
 10
522.575
 20
672.4
 30
0.0
 11
508.075
 21
672.4
 31
0.0
  0
LINE
  8
0
  6
CONTINUOUS
 62
     1
 10
524.075
 20
673.9
 30
0.0
 11
524.075
 21
701.9
 31
0.0
  0
ARC
  8
0
  6
CONTINUOUS
 62
     1
 10
522.575
 20
673.9
 30
0.0
 40
1.5
 50
270.0
 51
0.0
  0
LINE
  8
0
  6
CONTINUOUS
 62
     1
 10
319.075
 20
626.9
 30
0.0
 11
311.075
 21
626.9
 31
0.0
  0
LINE
  8
0
  6
CONTINUOUS
 62
     1
 10
319.075
 20
626.9
 30
0.0
 11
319.075
 21
526.9
 31
0.0
  0
LINE
  8
0
  6
LTYPE4
 62
     2
 10
262.075
 20
767.9
 30
0.0
 11
311.075
 21
767.9
 31
0.0
  0
LINE
  8
0
  6
CONTINUOUS
 62
     1
 10
317.575
 20
748.9
 30
0.0
 11
311.075
 21
748.9
 31
0.0
  0
LINE
  8
0
  6
CONTINUOUS
 62
     1
 10
311.075
 20
517.9
 30
0.0
 11
311.075
 21
748.9
 31
0.0
  0
LINE
  8
7
  6
CONTINUOUS
 62
     2
 10
424.075
 20
782.9
 30
0.0
 11
432.639390096
 21
788.062482183
 31
0.0
  0
LINE
  8
7
  6
CONTINUOUS
 62
     2
 10
424.075
 20
782.9
 30
0.0
 11
428.910738299
 21
791.653035765
 31
0.0
  0
LINE
  8
7
  6
CONTINUOUS
 62
     2
 10
424.075
 20
782.9
 30
0.0
 11
450.075
 21
809.9
 31
0.0
  0
LINE
  8
7
  6
CONTINUOUS
 62
     2
 10
450.075
 20
809.9
 30
0.0
 11
508.875
 21
809.9
 31
0.0
  0
LINE
  8
7
  6
CONTINUOUS
 62
     2
 10
511.075
 20
546.15
 30
0.0
 11
513.663190451
 21
555.809258263
 31
0.0
  0
LINE
  8
7
  6
CONTINUOUS
 62
     2
 10
511.075
 20
546.15
 30
0.0
 11
508.486809549
 21
555.809258263
 31
0.0
  0
LINE
  8
7
  6
CONTINUOUS
 62
     2
 10
511.075
 20
546.15
 30
0.0
 11
511.075
 21
609.65
 31
0.0
  0
LINE
  8
7
  6
CONTINUOUS
 62
     2
 10
511.075
 20
609.65
 30
0.0
 11
508.486809549
 21
599.990741737
 31
0.0
  0
LINE
  8
7
  6
CONTINUOUS
 62
     2
 10
511.075
 20
609.65
 30
0.0
 11
513.663190451
 21
599.990741737
 31
0.0
  0
LINE
  8
7
  6
CONTINUOUS
 62
     2
 10
444.075
 20
744.9
 30
0.0
 11
441.486809549
 21
735.240741737
 31
0.0
  0
LINE
  8
7
  6
CONTINUOUS
 62
     2
 10
444.075
 20
744.9
 30
0.0
 11
446.663190451
 21
735.240741737
 31
0.0
  0
LINE
  8
7
  6
CONTINUOUS
 62
     2
 10
444.075
 20
630.9
 30
0.0
 11
446.663190451
 21
640.559258263
 31
0.0
  0
LINE
  8
7
  6
CONTINUOUS
 62
     2
 10
444.075
 20
630.9
 30
0.0
 11
441.486809549
 21
640.559258263
 31
0.0
  0
LINE
  8
0
  6
LTYPE4
 62
     2
 10
448.075
 20
687.9
 30
0.0
 11
531.075
 21
687.9
 31
0.0
  0
LINE
  8
0
  6
CONTINUOUS
 62
     1
 10
251.075
 20
517.9
 30
0.0
 11
251.075
 21
722.9
 31
0.0
  0
LINE
  8
0
  6
CONTINUOUS
 62
     1
 10
479.075
 20
532.9
 30
0.0
 11
405.075
 21
532.9
 31
0.0
  0
LINE
  8
0
  6
CONTINUOUS
 62
     1
 10
530.075
 20
488.4
 30
0.0
 11
397.075
 21
488.4
 31
0.0
  0
LINE
  8
0
  6
CONTINUOUS
 62
     1
 10
487.075
 20
531.4
 30
0.0
 11
400.075
 21
531.4
 31
0.0
  0
ARC
  8
0
  6
CONTINUOUS
 62
     1
 10
400.075
 20
528.4
 30
0.0
 40
3.0
 50
90.0
 51
180.0
  0
LINE
  8
0
  6
CONTINUOUS
 62
     1
 10
530.075
 20
488.4
 30
0.0
 11
530.075
 21
527.4
 31
0.0
  0
LINE
  8
0
  6
CONTINUOUS
 62
     1
 10
527.075
 20
530.4
 30
0.0
 11
487.075
 21
530.4
 31
0.0
  0
ARC
  8
0
  6
CONTINUOUS
 62
     1
 10
527.075
 20
527.4
 30
0.0
 40
3.0
 50
0.0
 51
90.0
  0
LINE
  8
0
  6
CONTINUOUS
 62
     1
 10
525.075
 20
480.9
 30
0.0
 11
525.075
 21
530.4
 31
0.0
  0
LINE
  8
0
  6
CONTINUOUS
 62
     1
 10
525.075
 20
480.9
 30
0.0
 11
397.075
 21
480.9
 31
0.0
  0
LINE
  8
0
  6
CONTINUOUS
 62
     1
 10
397.075
 20
480.9
 30
0.0
 11
397.075
 21
528.4
 31
0.0
  0
LINE
  8
0
  6
CONTINUOUS
 62
     1
 10
525.075
 20
486.9
 30
0.0
 11
397.075
 21
486.9
 31
0.0
  0
LINE
  8
0
  6
CONTINUOUS
 62
     1
 10
405.075
 20
531.4
 30
0.0
 11
405.075
 21
532.9
 31
0.0
  0
LINE
  8
0
  6
CONTINUOUS
 62
     1
 10
479.075
 20
531.4
 30
0.0
 11
479.075
 21
532.9
 31
0.0
  0
LINE
  8
0
  6
CONTINUOUS
 62
     1
 10
487.075
 20
530.4
 30
0.0
 11
487.075
 21
531.4
 31
0.0
  0
LINE
  8
0
  6
CONTINUOUS
 62
     1
 10
239.075
 20
669.9
 30
0.0
 11
296.075
 21
669.9
 31
0.0
  0
LINE
  8
0
  6
CONTINUOUS
 62
     1
 10
239.075
 20
517.9
 30
0.0
 11
239.075
 21
669.9
 31
0.0
  0
LINE
  8
0
  6
CONTINUOUS
 62
     1
 10
239.075
 20
517.9
 30
0.0
 11
311.075
 21
517.9
 31
0.0
  0
LINE
  8
0
  6
CONTINUOUS
 62
     1
 10
239.075
 20
527.9
 30
0.0
 11
239.075
 21
518.1
 31
0.0
  0
LINE
  8
0
  6
CONTINUOUS
 62
     1
 10
239.075
 20
518.1
 30
0.0
 11
233.460640646
 21
518.1
 31
0.0
  0
LINE
  8
0
  6
CONTINUOUS
 62
     1
 10
232.075
 20
520.5
 30
0.0
 11
233.460640646
 21
518.1
 31
0.0
  0
LINE
  8
0
  6
CONTINUOUS
 62
     1
 10
232.075
 20
527.9
 30
0.0
 11
232.075
 21
520.5
 31
0.0
  0
LINE
  8
0
  6
CONTINUOUS
 62
     1
 10
239.075
 20
523.0
 30
0.0
 11
233.460640646
 21
523.0
 31
0.0
  0
LINE
  8
0
  6
CONTINUOUS
 62
     1
 10
239.075
 20
527.9
 30
0.0
 11
239.075
 21
537.7
 31
0.0
  0
LINE
  8
0
  6
CONTINUOUS
 62
     1
 10
239.075
 20
537.7
 30
0.0
 11
233.460640646
 21
537.7
 31
0.0
  0
LINE
  8
0
  6
CONTINUOUS
 62
     1
 10
232.075
 20
535.3
 30
0.0
 11
233.460640646
 21
537.7
 31
0.0
  0
LINE
  8
0
  6
CONTINUOUS
 62
     1
 10
232.075
 20
527.9
 30
0.0
 11
232.075
 21
535.3
 31
0.0
  0
LINE
  8
0
  6
CONTINUOUS
 62
     1
 10
239.075
 20
532.8
 30
0.0
 11
233.460640646
 21
532.8
 31
0.0
  0
ARC
  8
0
  6
CONTINUOUS
 62
     1
 10
241.4316828
 20
527.9
 30
0.0
 40
9.3566828
 50
148.419912243
 51
211.580087757
  0
ARC
  8
0
  6
CONTINUOUS
 62
     1
 10
234.932883832
 20
520.55
 30
0.0
 40
2.858321186
 50
121.002313915
 51
182.989498403
  0
LINE
  8
0
  6
CONTINUOUS
 62
     1
 10
232.075
 20
535.3
 30
0.0
 11
233.460640646
 21
537.7
 31
0.0
  0
ARC
  8
0
  6
CONTINUOUS
 62
     1
 10
234.932883832
 20
535.25
 30
0.0
 40
2.858321186
 50
177.010501597
 51
238.997686085
  0
LINE
  8
0
  6
LTYPE2
 62
     2
 10
227.075
 20
527.9
 30
0.0
 11
260.075
 21
527.9
 31
0.0
  0
LINE
  8
0
  6
LTYPE2
 62
     2
 10
227.075
 20
627.9
 30
0.0
 11
260.075
 21
627.9
 31
0.0
  0
LINE
  8
0
  6
LTYPE4
 62
     2
 10
232.075
 20
577.9
 30
0.0
 11
490.575
 21
577.9
 31
0.0
  0
LINE
  8
0
  6
CONTINUOUS
 62
     1
 10
247.075
 20
673.9
 30
0.0
 11
251.075
 21
673.9
 31
0.0
  0
LINE
  8
0
  6
CONTINUOUS
 62
     1
 10
247.075
 20
701.9
 30
0.0
 11
251.075
 21
701.9
 31
0.0
  0
LINE
  8
0
  6
CONTINUOUS
 62
     1
 10
247.075
 20
673.9
 30
0.0
 11
247.075
 21
701.9
 31
0.0
  0
LINE
  8
0
  6
CONTINUOUS
 62
     1
 10
246.075
 20
673.9
 30
0.0
 11
246.075
 21
701.9
 31
0.0
  0
LINE
  8
0
  6
CONTINUOUS
 62
     1
 10
218.075
 20
701.9
 30
0.0
 11
246.075
 21
701.9
 31
0.0
  0
LINE
  8
0
  6
CONTINUOUS
 62
     1
 10
216.075
 20
699.9
 30
0.0
 11
218.075
 21
701.9
 31
0.0
  0
LINE
  8
0
  6
CONTINUOUS
 62
     1
 10
218.075
 20
673.9
 30
0.0
 11
246.075
 21
673.9
 31
0.0
  0
LINE
  8
0
  6
CONTINUOUS
 62
     1
 10
216.075
 20
675.9
 30
0.0
 11
216.075
 21
699.9
 31
0.0
  0
LINE
  8
0
  6
CONTINUOUS
 62
     1
 10
218.075
 20
673.9
 30
0.0
 11
216.075
 21
675.9
 31
0.0
  0
ARC
  8
0
  6
CONTINUOUS
 62
     6
 10
212.695975674
 20
690.1
 30
0.0
 40
1.3
 50
90.0
 51
163.39844642
  0
ARC
  8
0
  6
CONTINUOUS
 62
     6
 10
220.075
 20
687.9
 30
0.0
 40
9.0
 50
163.398449826
 51
180.0
  0
LINE
  8
0
  6
CONTINUOUS
 62
     6
 10
213.675
 20
691.4
 30
0.0
 11
212.695975674
 21
691.4
 31
0.0
  0
LINE
  8
0
  6
CONTINUOUS
 62
     6
 10
213.675
 20
687.9
 30
0.0
 11
213.675
 21
691.7
 31
0.0
  0
ARC
  8
0
  6
CONTINUOUS
 62
     6
 10
212.695975674
 20
685.7
 30
0.0
 40
1.3
 50
196.60155358
 51
270.0
  0
ARC
  8
0
  6
CONTINUOUS
 62
     6
 10
220.075
 20
687.9
 30
0.0
 40
9.0
 50
180.0
 51
196.601550174
  0
LINE
  8
0
  6
CONTINUOUS
 62
     6
 10
213.675
 20
684.4
 30
0.0
 11
212.695975674
 21
684.4
 31
0.0
  0
LINE
  8
0
  6
CONTINUOUS
 62
     6
 10
213.675
 20
687.9
 30
0.0
 11
213.675
 21
684.1
 31
0.0
  0
LINE
  8
0
  6
CONTINUOUS
 62
     6
 10
211.075
 20
687.9
 30
0.0
 11
212.575
 21
686.3
 31
0.0
  0
LINE
  8
0
  6
CONTINUOUS
 62
     6
 10
211.075
 20
687.9
 30
0.0
 11
212.575
 21
689.5
 31
0.0
  0
LINE
  8
0
  6
CONTINUOUS
 62
     6
 10
216.075
 20
691.7
 30
0.0
 11
213.675
 21
691.7
 31
0.0
  0
LINE
  8
0
  6
CONTINUOUS
 62
     6
 10
216.075
 20
684.1
 30
0.0
 11
213.675
 21
684.1
 31
0.0
  0
LINE
  8
0
  6
LTYPE4
 62
     2
 10
203.075
 20
687.9
 30
0.0
 11
423.075
 21
687.9
 31
0.0
  0
LINE
  8
0
  6
CONTINUOUS
 62
     1
 10
235.875
 20
649.9
 30
0.0
 11
239.075
 21
649.9
 31
0.0
  0
LINE
  8
0
  6
CONTINUOUS
 62
     1
 10
235.875
 20
629.9
 30
0.0
 11
239.075
 21
629.9
 31
0.0
  0
LINE
  8
0
  6
CONTINUOUS
 62
     6
 10
230.371118477
 20
635.547098
 30
0.0
 11
231.186193874
 21
634.135346
 31
0.0
  0
LINE
  8
0
  6
CONTINUOUS
 62
     6
 10
230.371118477
 20
639.9
 30
0.0
 11
230.371118477
 21
635.547098
 31
0.0
  0
LINE
  8
0
  6
CONTINUOUS
 62
     6
 10
230.371118477
 20
644.252902
 30
0.0
 11
231.186193874
 21
645.664654
 31
0.0
  0
LINE
  8
0
  6
CONTINUOUS
 62
     6
 10
230.371118477
 20
639.9
 30
0.0
 11
230.371118477
 21
644.252902
 31
0.0
  0
ARC
  8
0
  6
CONTINUOUS
 62
     6
 10
235.875
 20
639.9
 30
0.0
 40
5.503881523
 50
148.419912243
 51
211.580087757
  0
ARC
  8
0
  6
CONTINUOUS
 62
     6
 10
232.052211483
 20
635.5765095
 30
0.0
 40
1.681350271
 50
121.002313915
 51
182.989498403
  0
LINE
  8
0
  6
CONTINUOUS
 62
     6
 10
230.371118477
 20
644.252902
 30
0.0
 11
231.186193874
 21
645.664654
 31
0.0
  0
ARC
  8
0
  6
CONTINUOUS
 62
     6
 10
232.052211483
 20
644.2234905
 30
0.0
 40
1.681350271
 50
177.010501597
 51
238.997686085
  0
LINE
  8
0
  6
CONTINUOUS
 62
     6
 10
234.370728477
 20
637.017673
 30
0.0
 11
231.186193874
 21
637.017673
 31
0.0
  0
LINE
  8
0
  6
CONTINUOUS
 62
     6
 10
234.370728477
 20
634.135346
 30
0.0
 11
231.186193874
 21
634.135346
 31
0.0
  0
LINE
  8
0
  6
CONTINUOUS
 62
     6
 10
234.370728477
 20
642.782327
 30
0.0
 11
231.186193874
 21
642.782327
 31
0.0
  0
LINE
  8
0
  6
CONTINUOUS
 62
     6
 10
234.370728477
 20
645.664654
 30
0.0
 11
231.186193874
 21
645.664654
 31
0.0
  0
LINE
  8
0
  6
CONTINUOUS
 62
     6
 10
235.870728477
 20
639.9
 30
0.0
 11
234.370728719
 21
638.400000243
 31
0.0
  0
LINE
  8
0
  6
CONTINUOUS
 62
     6
 10
234.370728719
 20
639.9
 30
0.0
 11
235.870728477
 21
641.399999757
 31
0.0
  0
LINE
  8
0
  6
CONTINUOUS
 62
     6
 10
235.870728477
 20
633.8
 30
0.0
 11
234.370728477
 21
633.8
 31
0.0
  0
LINE
  8
0
  6
CONTINUOUS
 62
     6
 10
234.370728477
 20
639.9
 30
0.0
 11
234.370728477
 21
633.8
 31
0.0
  0
LINE
  8
0
  6
CONTINUOUS
 62
     6
 10
234.370728477
 20
639.9
 30
0.0
 11
234.370728477
 21
646.0
 31
0.0
  0
LINE
  8
0
  6
CONTINUOUS
 62
     6
 10
235.870728477
 20
646.0
 30
0.0
 11
234.370728477
 21
646.0
 31
0.0
  0
LINE
  8
0
  6
LTYPE4
 62
     2
 10
226.875
 20
639.9
 30
0.0
 11
247.075
 21
639.9
 31
0.0
  0
LINE
  8
0
  6
CONTINUOUS
 62
     1
 10
235.875
 20
629.9
 30
0.0
 11
235.875
 21
649.9
 31
0.0
  0
LINE
  8
7
  6
CONTINUOUS
 62
     2
 10
381.075
 20
337.9
 30
0.0
 11
381.075
 21
337.9
 31
0.0
  0
LINE
  8
7
  6
CONTINUOUS
 62
     2
 10
381.075
 20
337.9
 30
0.0
 11
381.075
 21
337.9
 31
0.0
  0
LINE
  8
7
  6
CONTINUOUS
 62
     2
 10
381.075
 20
343.9
 30
0.0
 11
371.415741737
 21
346.488190451
 31
0.0
  0
LINE
  8
7
  6
CONTINUOUS
 62
     2
 10
381.075
 20
343.9
 30
0.0
 11
371.415741737
 21
341.311809549
 31
0.0
  0
LINE
  8
7
  6
CONTINUOUS
 62
     2
 10
381.075
 20
343.9
 30
0.0
 11
311.075
 21
343.9
 31
0.0
  0
LINE
  8
7
  6
CONTINUOUS
 62
     2
 10
311.075
 20
343.9
 30
0.0
 11
320.734258263
 21
341.311809549
 31
0.0
  0
LINE
  8
7
  6
CONTINUOUS
 62
     2
 10
311.075
 20
343.9
 30
0.0
 11
320.734258263
 21
346.488190451
 31
0.0
  0
LINE
  8
7
  6
CONTINUOUS
 62
     2
 10
311.075
 20
337.9
 30
0.0
 11
311.075
 21
337.9
 31
0.0
  0
LINE
  8
7
  6
CONTINUOUS
 62
     2
 10
311.075
 20
343.9
 30
0.0
 11
301.415741737
 21
346.488190451
 31
0.0
  0
LINE
  8
7
  6
CONTINUOUS
 62
     2
 10
311.075
 20
343.9
 30
0.0
 11
301.415741737
 21
341.311809549
 31
0.0
  0
LINE
  8
7
  6
CONTINUOUS
 62
     2
 10
311.075
 20
343.9
 30
0.0
 11
239.075
 21
343.9
 31
0.0
  0
LINE
  8
7
  6
CONTINUOUS
 62
     2
 10
239.075
 20
343.9
 30
0.0
 11
248.734258263
 21
341.311809549
 31
0.0
  0
LINE
  8
7
  6
CONTINUOUS
 62
     2
 10
239.075
 20
343.9
 30
0.0
 11
248.734258263
 21
346.488190451
 31
0.0
  0
LINE
  8
7
  6
CONTINUOUS
 62
     2
 10
239.075
 20
315.9
 30
0.0
 11
229.415741737
 21
318.488190451
 31
0.0
  0
LINE
  8
7
  6
CONTINUOUS
 62
     2
 10
239.075
 20
315.9
 30
0.0
 11
229.415741737
 21
313.311809549
 31
0.0
  0
LINE
  8
7
  6
CONTINUOUS
 62
     2
 10
239.075
 20
315.9
 30
0.0
 11
211.075
 21
315.9
 31
0.0
  0
LINE
  8
7
  6
CONTINUOUS
 62
     2
 10
211.075
 20
315.9
 30
0.0
 11
220.734258263
 21
313.311809549
 31
0.0
  0
LINE
  8
7
  6
CONTINUOUS
 62
     2
 10
211.075
 20
315.9
 30
0.0
 11
220.734258263
 21
318.488190451
 31
0.0
  0
LINE
  8
7
  6
CONTINUOUS
 62
     2
 10
381.075
 20
539.9
 30
0.0
 11
381.075
 21
337.9
 31
0.0
  0
LINE
  8
7
  6
CONTINUOUS
 62
     2
 10
311.075
 20
511.9
 30
0.0
 11
311.075
 21
337.9
 31
0.0
  0
LINE
  8
7
  6
CONTINUOUS
 62
     2
 10
239.075
 20
511.9
 30
0.0
 11
239.075
 21
309.9
 31
0.0
  0
LINE
  8
7
  6
CONTINUOUS
 62
     2
 10
211.075
 20
681.9
 30
0.0
 11
211.075
 21
309.9
 31
0.0
  0
LINE
  8
7
  6
CONTINUOUS
 62
     2
 10
418.075
 20
495.9
 30
0.0
 11
495.344424461
 21
495.9
 31
0.0
  0
LINE
  8
0
  6
LTYPE2
 62
     2
 10
514.075
 20
505.4
 30
0.0
 11
542.075
 21
505.4
 31
0.0
  0
LINE
  8
7
  6
CONTINUOUS
 62
     2
 10
524.075
 20
834.9
 30
0.0
 11
514.415741737
 21
837.488190451
 31
0.0
  0
LINE
  8
7
  6
CONTINUOUS
 62
     2
 10
524.075
 20
834.9
 30
0.0
 11
514.415741737
 21
832.311809549
 31
0.0
  0
LINE
  8
7
  6
CONTINUOUS
 62
     2
 10
524.075
 20
834.9
 30
0.0
 11
311.075
 21
834.9
 31
0.0
  0
LINE
  8
7
  6
CONTINUOUS
 62
     2
 10
311.075
 20
834.9
 30
0.0
 11
320.734258263
 21
832.311809549
 31
0.0
  0
LINE
  8
7
  6
CONTINUOUS
 62
     2
 10
311.075
 20
834.9
 30
0.0
 11
320.734258263
 21
837.488190451
 31
0.0
  0
LINE
  8
7
  6
CONTINUOUS
 62
     2
 10
311.075
 20
828.9
 30
0.0
 11
311.075
 21
828.9
 31
0.0
  0
LINE
  8
7
  6
CONTINUOUS
 62
     2
 10
311.075
 20
834.9
 30
0.0
 11
301.415741737
 21
837.488190451
 31
0.0
  0
LINE
  8
7
  6
CONTINUOUS
 62
     2
 10
311.075
 20
834.9
 30
0.0
 11
301.415741737
 21
832.311809549
 31
0.0
  0
LINE
  8
7
  6
CONTINUOUS
 62
     2
 10
311.075
 20
834.9
 30
0.0
 11
251.075
 21
834.9
 31
0.0
  0
LINE
  8
7
  6
CONTINUOUS
 62
     2
 10
251.075
 20
834.9
 30
0.0
 11
260.734258263
 21
832.311809549
 31
0.0
  0
LINE
  8
7
  6
CONTINUOUS
 62
     2
 10
251.075
 20
834.9
 30
0.0
 11
260.734258263
 21
837.488190451
 31
0.0
  0
LINE
  8
7
  6
CONTINUOUS
 62
     2
 10
524.075
 20
707.90001079
 30
0.0
 11
524.075
 21
840.9
 31
0.0
  0
LINE
  8
7
  6
CONTINUOUS
 62
     2
 10
311.075
 20
754.9
 30
0.0
 11
311.075
 21
840.9
 31
0.0
  0
LINE
  8
7
  6
CONTINUOUS
 62
     2
 10
251.075
 20
728.9
 30
0.0
 11
251.075
 21
840.9
 31
0.0
  0
LINE
  8
0
  6
LTYPE2
 62
     2
 10
433.74968209
 20
782.9
 30
0.0
 11
391.004475845
 21
782.9
 31
0.0
  0
LINE
  8
0
  6
CONTINUOUS
 62
     1
 10
303.575
 20
652.9
 30
0.0
 11
260.575
 21
652.9
 31
0.0
  0
TEXT
  8
0
  6
CONTINUOUS
 62
     2
 10
265.575
 20
641.9
 30
5.0
 40
20.0
  1
銘板
 50
270.0
 41
0.925
 51
0.0
  7
KANJI36
  0
LINE
  8
0
  6
CONTINUOUS
 62
     1
 10
303.575
 20
582.9
 30
0.0
 11
260.575
 21
582.9
 31
0.0
  0
LINE
  8
0
  6
CONTINUOUS
 62
     1
 10
260.575
 20
652.9
 30
0.0
 11
260.575
 21
582.9
 31
0.0
  0
LINE
  8
0
  6
CONTINUOUS
 62
     1
 10
303.575
 20
652.9
 30
0.0
 11
303.575
 21
582.9
 31
0.0
  0
LINE
  8
0
  6
CONTINUOUS
 62
     2
 10
228.741667
 20
701.266683
 30
0.0
 11
226.524409397
 21
711.017773643
 31
0.0
  0
LINE
  8
0
  6
CONTINUOUS
 62
     2
 10
228.741667
 20
701.266683
 30
0.0
 11
221.945920268
 21
708.60274641
 31
0.0
  0
TEXT
  8
7
  6
CONTINUOUS
 62
     2
 10
424.544424461
 20
499.9
 30
0.0
 40
15.0
  1
推力リミッタ
 50
0.0
 41
0.9
 51
0.0
  7
KANJI26
  0
LINE
  8
0
  6
CONTINUOUS
 62
     2
 10
530.075
 20
505.4
 30
0.0
 11
540.074784385
 21
505.465667759
 31
0.0
  0
LINE
  8
0
  6
CONTINUOUS
 62
     2
 10
530.075
 20
505.4
 30
0.0
 11
538.70223343
 21
510.45676214
 31
0.0
  0
LINE
  8
0
  6
CONTINUOUS
 62
     2
 10
530.075
 20
505.4
 30
0.0
 11
570.075
 21
516.4
 31
0.0
  0
LINE
  8
0
  6
CONTINUOUS
 62
     2
 10
570.075
 20
516.4
 30
0.0
 11
636.575
 21
516.4
 31
0.0
  0
TEXT
  8
0
  6
CONTINUOUS
 62
     3
 10
570.075
 20
516.9
 30
0.0
 40
15.0
  1
ＰＦ１／２
 50
0.0
 41
0.9
 51
0.0
  7
KANJI26
  0
LINE
  8
0
  6
CONTINUOUS
 62
     1
 10
487.075
 20
609.65
 30
0.0
 11
630.424814745
 21
609.65
 31
0.0
  0
LINE
  8
0
  6
CONTINUOUS
 62
     1
 10
487.075
 20
546.15
 30
0.0
 11
630.424814745
 21
546.15
 31
0.0
  0
LINE
  8
0
  6
LTYPE4
 62
     2
 10
515.075
 20
577.9
 30
0.0
 11
920.075
 21
577.9
 31
0.0
  0
LINE
  8
0
  6
LTYPE1
 62
     2
 10
545.925
 20
482.9
 30
0.0
 11
310.925
 21
482.9
 31
0.0
  0
LINE
  8
0
  6
LTYPE1
 62
     2
 10
545.925
 20
488.9
 30
0.0
 11
310.925
 21
488.9
 31
0.0
  0
LINE
  8
0
  6
LTYPE4
 62
     2
 10
329.925
 20
468.9
 30
0.0
 11
341.425
 21
468.9
 31
0.0
  0
LINE
  8
0
  6
LTYPE1
 62
     2
 10
308.425
 20
478.7
 30
0.0
 11
302.810640646
 21
478.7
 31
0.0
  0
LINE
  8
0
  6
LTYPE1
 62
     2
 10
308.425
 20
473.8
 30
0.0
 11
302.810640646
 21
473.8
 31
0.0
  0
LINE
  8
0
  6
LTYPE1
 62
     2
 10
308.425
 20
468.9
 30
0.0
 11
308.425
 21
478.7
 31
0.0
  0
LINE
  8
0
  6
LTYPE1
 62
     2
 10
310.925
 20
478.1
 30
0.0
 11
308.425
 21
478.1
 31
0.0
  0
LINE
  8
0
  6
LTYPE1
 62
     2
 10
326.925
 20
479.3
 30
0.0
 11
333.425
 21
479.3
 31
0.0
  0
ARC
  8
0
  6
LTYPE1
 62
     2
 10
330.525
 20
476.7
 30
0.0
 40
3.9
 50
317.9
 51
42.1
  0
LINE
  8
0
  6
LTYPE1
 62
     2
 10
333.425
 20
474.1
 30
0.0
 11
326.925
 21
474.1
 31
0.0
  0
LINE
  8
0
  6
LTYPE1
 62
     2
 10
318.925
 20
478.9
 30
0.0
 11
318.925
 21
494.9
 31
0.0
  0
LINE
  8
0
  6
LTYPE1
 62
     2
 10
334.425
 20
472.9
 30
0.0
 11
341.925
 21
472.9
 31
0.0
  0
LINE
  8
0
  6
LTYPE1
 62
     2
 10
373.925
 20
480.9
 30
0.0
 11
341.925
 21
480.9
 31
0.0
  0
LINE
  8
0
  6
LTYPE1
 62
     2
 10
341.925
 20
472.9
 30
0.0
 11
346.925
 21
472.9
 31
0.0
  0
LINE
  8
0
  6
LTYPE1
 62
     2
 10
373.925
 20
474.9
 30
0.0
 11
341.925
 21
474.9
 31
0.0
  0
LINE
  8
0
  6
LTYPE1
 62
     2
 10
334.425
 20
471.9
 30
0.0
 11
341.925
 21
471.9
 31
0.0
  0
LINE
  8
0
  6
LTYPE1
 62
     2
 10
341.925
 20
471.9
 30
0.0
 11
346.925
 21
471.9
 31
0.0
  0
LINE
  8
0
  6
LTYPE1
 62
     2
 10
308.425000004
 20
468.9
 30
0.0
 11
310.925
 21
471.399999996
 31
0.0
  0
LINE
  8
0
  6
LTYPE1
 62
     2
 10
313.26622
 20
494.3999
 30
0.0
 11
311.43094
 21
493.340300598
 31
0.0
  0
LINE
  8
0
  6
LTYPE1
 62
     2
 10
318.925
 20
494.3999
 30
0.0
 11
313.26622
 21
494.3999
 31
0.0
  0
ARC
  8
0
  6
LTYPE1
 62
     2
 10
313.304455
 20
492.214476233
 30
0.0
 40
2.185758211
 50
31.002313915
 51
92.989498403
  0
ARC
  8
0
  6
LTYPE1
 62
     2
 10
318.925
 20
487.244844663
 30
0.0
 40
7.155055337
 50
58.419912243
 51
121.580087757
  0
LINE
  8
0
  6
LTYPE1
 62
     2
 10
311.43094
 20
488.9
 30
0.0
 11
311.43094
 21
493.340300598
 31
0.0
  0
LINE
  8
0
  6
LTYPE1
 62
     2
 10
315.17797
 20
488.9
 30
0.0
 11
315.17797
 21
493.340300598
 31
0.0
  0
LINE
  8
0
  6
LTYPE1
 62
     2
 10
324.58378
 20
494.3999
 30
0.0
 11
326.41906
 21
493.340300598
 31
0.0
  0
LINE
  8
0
  6
LTYPE1
 62
     2
 10
318.925
 20
494.3999
 30
0.0
 11
324.58378
 21
494.3999
 31
0.0
  0
LINE
  8
0
  6
LTYPE1
 62
     2
 10
324.58378
 20
494.3999
 30
0.0
 11
326.41906
 21
493.340300598
 31
0.0
  0
ARC
  8
0
  6
LTYPE1
 62
     2
 10
324.545545
 20
492.214476233
 30
0.0
 40
2.185758211
 50
87.010501597
 51
148.997686085
  0
LINE
  8
0
  6
LTYPE1
 62
     2
 10
322.67203
 20
488.9
 30
0.0
 11
322.67203
 21
493.340300598
 31
0.0
  0
LINE
  8
0
  6
LTYPE1
 62
     2
 10
326.41906
 20
488.9
 30
0.0
 11
326.41906
 21
493.340300598
 31
0.0
  0
LINE
  8
0
  6
LTYPE1
 62
     2
 10
326.925
 20
458.5
 30
0.0
 11
333.425
 21
458.5
 31
0.0
  0
ARC
  8
0
  6
LTYPE1
 62
     2
 10
330.525
 20
461.1
 30
0.0
 40
3.9
 50
317.9
 51
42.1
  0
LINE
  8
0
  6
LTYPE1
 62
     2
 10
308.425
 20
459.1
 30
0.0
 11
302.810640646
 21
459.1
 31
0.0
  0
LINE
  8
0
  6
LTYPE1
 62
     2
 10
308.425
 20
464.0
 30
0.0
 11
302.810640646
 21
464.0
 31
0.0
  0
LINE
  8
0
  6
LTYPE1
 62
     2
 10
308.425
 20
468.9
 30
0.0
 11
308.425
 21
459.1
 31
0.0
  0
LINE
  8
0
  6
LTYPE1
 62
     2
 10
326.925
 20
463.7
 30
0.0
 11
333.425
 21
463.7
 31
0.0
  0
LINE
  8
0
  6
LTYPE1
 62
     2
 10
334.425
 20
465.9
 30
0.0
 11
341.925
 21
465.9
 31
0.0
  0
LINE
  8
0
  6
LTYPE1
 62
     2
 10
334.425
 20
464.9
 30
0.0
 11
341.925
 21
464.9
 31
0.0
  0
LINE
  8
0
  6
LTYPE1
 62
     2
 10
341.925
 20
464.9
 30
0.0
 11
346.925
 21
464.9
 31
0.0
  0
LINE
  8
0
  6
LTYPE1
 62
     2
 10
341.925
 20
465.9
 30
0.0
 11
346.925
 21
465.9
 31
0.0
  0
LINE
  8
0
  6
LTYPE1
 62
     2
 10
341.925
 20
462.9
 30
0.0
 11
373.925
 21
462.9
 31
0.0
  0
LINE
  8
0
  6
LTYPE1
 62
     2
 10
326.925
 20
455.9
 30
0.0
 11
326.925
 21
482.9
 31
0.0
  0
LINE
  8
0
  6
LTYPE1
 62
     2
 10
326.925
 20
479.3
 30
0.0
 11
326.925
 21
458.5
 31
0.0
  0
ARC
  8
0
  6
LTYPE1
 62
     2
 10
320.425
 20
468.9
 30
0.0
 40
14.0
 50
338.2
 51
21.8
  0
LINE
  8
0
  6
LTYPE1
 62
     2
 10
334.425
 20
461.1
 30
0.0
 11
334.425
 21
476.7
 31
0.0
  0
LINE
  8
0
  6
LTYPE1
 62
     2
 10
310.925
 20
455.9
 30
0.0
 11
326.925
 21
455.9
 31
0.0
  0
LINE
  8
0
  6
LTYPE1
 62
     2
 10
310.925
 20
468.9
 30
0.0
 11
308.425000004
 21
466.400000004
 31
0.0
  0
LINE
  8
0
  6
LTYPE1
 62
     2
 10
310.925
 20
459.7
 30
0.0
 11
308.425
 21
459.7
 31
0.0
  0
LINE
  8
0
  6
LTYPE1
 62
     2
 10
310.925
 20
455.9
 30
0.0
 11
310.925
 21
488.9
 31
0.0
  0
LINE
  8
0
  6
LTYPE1
 62
     2
 10
339.425
 20
450.7
 30
0.0
 11
333.810640646
 21
450.7
 31
0.0
  0
LINE
  8
0
  6
LTYPE1
 62
     2
 10
332.425
 20
448.3
 30
0.0
 11
333.810640646
 21
450.7
 31
0.0
  0
LINE
  8
0
  6
LTYPE1
 62
     2
 10
332.425
 20
448.3
 30
0.0
 11
333.810640646
 21
450.7
 31
0.0
  0
LINE
  8
0
  6
LTYPE1
 62
     2
 10
341.925
 20
450.1
 30
0.0
 11
339.425
 21
450.1
 31
0.0
  0
LINE
  8
0
  6
LTYPE1
 62
     2
 10
332.425
 20
440.9
 30
0.0
 11
332.425
 21
448.3
 31
0.0
  0
LINE
  8
0
  6
LTYPE1
 62
     2
 10
339.425
 20
445.8
 30
0.0
 11
333.810640646
 21
445.8
 31
0.0
  0
ARC
  8
0
  6
LTYPE1
 62
     2
 10
335.282883832
 20
448.25
 30
0.0
 40
2.858321186
 50
177.010501597
 51
238.997686085
  0
LINE
  8
0
  6
LTYPE1
 62
     2
 10
339.425
 20
440.9
 30
0.0
 11
339.425
 21
450.7
 31
0.0
  0
LINE
  8
0
  6
LTYPE1
 62
     2
 10
323.925
 20
444.9
 30
0.0
 11
332.425
 21
444.9
 31
0.0
  0
ARC
  8
0
  6
LTYPE1
 62
     2
 10
341.7816828
 20
440.9
 30
0.0
 40
9.3566828
 50
148.419912243
 51
211.580087757
  0
LINE
  8
0
  6
LTYPE1
 62
     2
 10
323.925
 20
436.9
 30
0.0
 11
323.925
 21
444.9
 31
0.0
  0
LINE
  8
0
  6
LTYPE1
 62
     2
 10
341.925
 20
427.9
 30
0.0
 11
341.925
 21
480.9
 31
0.0
  0
LINE
  8
0
  6
LTYPE1
 62
     2
 10
341.925
 20
427.9
 30
0.0
 11
373.925
 21
427.9
 31
0.0
  0
LINE
  8
0
  6
LTYPE1
 62
     2
 10
339.425
 20
440.9
 30
0.0
 11
339.425
 21
431.1
 31
0.0
  0
LINE
  8
0
  6
LTYPE1
 62
     2
 10
339.425
 20
431.1
 30
0.0
 11
333.810640646
 21
431.1
 31
0.0
  0
LINE
  8
0
  6
LTYPE1
 62
     2
 10
332.425
 20
433.5
 30
0.0
 11
333.810640646
 21
431.1
 31
0.0
  0
LINE
  8
0
  6
LTYPE1
 62
     2
 10
332.425
 20
440.9
 30
0.0
 11
332.425
 21
433.5
 31
0.0
  0
LINE
  8
0
  6
LTYPE1
 62
     2
 10
339.425
 20
436.0
 30
0.0
 11
333.810640646
 21
436.0
 31
0.0
  0
ARC
  8
0
  6
LTYPE1
 62
     2
 10
335.282883832
 20
433.55
 30
0.0
 40
2.858321186
 50
121.002313915
 51
182.989498403
  0
LINE
  8
0
  6
LTYPE1
 62
     2
 10
341.925
 20
431.7
 30
0.0
 11
339.425
 21
431.7
 31
0.0
  0
LINE
  8
0
  6
LTYPE1
 62
     2
 10
341.925
 20
440.9
 30
0.0
 11
339.425000004
 21
438.400000004
 31
0.0
  0
LINE
  8
0
  6
LTYPE1
 62
     2
 10
323.925
 20
436.9
 30
0.0
 11
332.425
 21
436.9
 31
0.0
  0
LINE
  8
0
  6
LTYPE1
 62
     2
 10
323.925
 20
437.9
 30
0.0
 11
332.425
 21
437.9
 31
0.0
  0
LINE
  8
0
  6
LTYPE1
 62
     2
 10
339.425000004
 20
440.9
 30
0.0
 11
341.925
 21
443.399999996
 31
0.0
  0
LINE
  8
0
  6
LTYPE1
 62
     2
 10
323.925
 20
443.9
 30
0.0
 11
332.425
 21
443.9
 31
0.0
  0
LINE
  8
0
  6
LTYPE1
 62
     2
 10
301.425
 20
468.9
 30
0.0
 11
301.425
 21
476.3
 31
0.0
  0
LINE
  8
0
  6
LTYPE1
 62
     2
 10
301.425
 20
476.3
 30
0.0
 11
302.810640646
 21
478.7
 31
0.0
  0
LINE
  8
0
  6
LTYPE1
 62
     2
 10
301.425
 20
476.3
 30
0.0
 11
302.810640646
 21
478.7
 31
0.0
  0
ARC
  8
0
  6
LTYPE1
 62
     2
 10
304.282883832
 20
476.25
 30
0.0
 40
2.858321186
 50
177.010501597
 51
238.997686085
  0
LINE
  8
0
  6
LTYPE1
 62
     2
 10
296.925
 20
472.9
 30
0.0
 11
301.425
 21
472.9
 31
0.0
  0
LINE
  8
0
  6
LTYPE1
 62
     2
 10
296.925
 20
471.9
 30
0.0
 11
301.425
 21
471.9
 31
0.0
  0
LINE
  8
0
  6
LTYPE1
 62
     2
 10
301.425
 20
461.5
 30
0.0
 11
302.810640646
 21
459.1
 31
0.0
  0
LINE
  8
0
  6
LTYPE1
 62
     2
 10
301.425
 20
468.9
 30
0.0
 11
301.425
 21
461.5
 31
0.0
  0
ARC
  8
0
  6
LTYPE1
 62
     2
 10
304.282883832
 20
461.55
 30
0.0
 40
2.858321186
 50
121.002313915
 51
182.989498403
  0
LINE
  8
0
  6
LTYPE1
 62
     2
 10
296.925
 20
464.9
 30
0.0
 11
301.425
 21
464.9
 31
0.0
  0
LINE
  8
0
  6
LTYPE1
 62
     2
 10
296.925
 20
465.9
 30
0.0
 11
301.425
 21
465.9
 31
0.0
  0
ARC
  8
0
  6
LTYPE1
 62
     2
 10
310.7816828
 20
468.9
 30
0.0
 40
9.3566828
 50
148.419912243
 51
211.580087757
  0
LINE
  8
0
  6
LTYPE1
 62
     2
 10
296.925
 20
464.9
 30
0.0
 11
296.925
 21
472.9
 31
0.0
  0
LINE
  8
0
  6
LTYPE1
 62
     2
 10
373.925
 20
427.9
 30
0.0
 11
373.925
 21
480.9
 31
0.0
  0
LINE
  8
0
  6
LTYPE1
 62
     2
 10
346.925
 20
462.9
 30
0.0
 11
346.925
 21
474.9
 31
0.0
  0
LINE
  8
0
  6
CONTINUOUS
 62
     1
 10
360.425
 20
449.45
 30
0.0
 11
360.425
 21
433.45
 31
0.0
  0
LINE
  8
0
  6
CONTINUOUS
 62
     1
 10
360.425
 20
449.45
 30
0.0
 11
373.925
 21
449.45
 31
0.0
  0
LINE
  8
0
  6
CONTINUOUS
 62
     1
 10
373.925
 20
451.9
 30
0.0
 11
382.585254038
 21
456.9
 31
0.0
  0
LINE
  8
0
  6
CONTINUOUS
 62
     1
 10
373.925
 20
429.9
 30
0.0
 11
373.925
 21
451.9
 31
0.0
  0
LINE
  8
0
  6
CONTINUOUS
 62
     1
 10
382.575
 20
424.9
 30
0.0
 11
382.575
 21
456.9
 31
0.0
  0
LINE
  8
0
  6
CONTINUOUS
 62
     1
 10
407.275
 20
424.9
 30
0.0
 11
407.275
 21
456.9
 31
0.0
  0
LINE
  8
0
  6
CONTINUOUS
 62
     1
 10
382.575
 20
424.9
 30
0.0
 11
407.275
 21
424.9
 31
0.0
  0
LINE
  8
0
  6
CONTINUOUS
 62
     1
 10
415.925
 20
429.9
 30
0.0
 11
407.264745962
 21
424.9
 31
0.0
  0
LINE
  8
0
  6
CONTINUOUS
 62
     1
 10
373.925
 20
429.9
 30
0.0
 11
382.585254038
 21
424.9
 31
0.0
  0
LINE
  8
0
  6
CONTINUOUS
 62
     1
 10
360.425
 20
433.45
 30
0.0
 11
373.925
 21
433.45
 31
0.0
  0
LINE
  8
0
  6
LTYPE2
 62
     2
 10
394.925
 20
430.9
 30
0.0
 11
394.925
 21
450.9
 31
0.0
  0
LINE
  8
0
  6
CONTINUOUS
 62
     1
 10
382.575
 20
456.9
 30
0.0
 11
407.275
 21
456.9
 31
0.0
  0
LINE
  8
0
  6
CONTINUOUS
 62
     1
 10
415.925
 20
451.9
 30
0.0
 11
407.264745962
 21
456.9
 31
0.0
  0
CIRCLE
  8
0
  6
CONTINUOUS
 62
     2
 10
394.925
 20
440.9
 30
0.0
 40
5.0
  0
CIRCLE
  8
0
  6
CONTINUOUS
 62
     2
 10
394.925
 20
440.9
 30
0.0
 40
4.0
  0
LINE
  8
0
  6
CONTINUOUS
 62
     1
 10
415.925
 20
429.9
 30
0.0
 11
415.925
 21
451.9
 31
0.0
  0
LINE
  8
0
  6
LTYPE1
 62
     2
 10
531.925
 20
489.4
 30
0.0
 11
531.925
 21
558.4
 31
0.0
  0
LINE
  8
0
  6
LTYPE1
 62
     2
 10
545.425
 20
482.9
 30
0.0
 11
545.425
 21
478.3
 31
0.0
  0
LINE
  8
0
  6
LTYPE1
 62
     2
 10
545.425
 20
482.9
 30
0.0
 11
530.425
 21
482.9
 31
0.0
  0
LINE
  8
0
  6
LTYPE1
 62
     2
 10
530.425
 20
482.9
 30
0.0
 11
530.425
 21
478.3
 31
0.0
  0
LINE
  8
0
  6
LTYPE1
 62
     2
 10
534.125
 20
482.9
 30
0.0
 11
534.125
 21
478.3
 31
0.0
  0
LINE
  8
0
  6
LTYPE1
 62
     2
 10
541.725
 20
482.9
 30
0.0
 11
541.725
 21
478.3
 31
0.0
  0
ARC
  8
0
  6
LTYPE1
 62
     2
 10
532.225
 20
480.4
 30
0.0
 40
2.8
 50
228.5
 51
311.5
  0
ARC
  8
0
  6
LTYPE1
 62
     2
 10
537.925
 20
488.3
 30
0.0
 40
10.7
 50
249.1
 51
290.9
  0
ARC
  8
0
  6
LTYPE1
 62
     2
 10
543.625
 20
480.4
 30
0.0
 40
2.8
 50
228.5
 51
311.5
  0
LINE
  8
0
  6
LTYPE1
 62
     2
 10
537.925
 20
474.1
 30
0.0
 11
537.925
 21
485.9
 31
0.0
  0
LINE
  8
0
  6
LTYPE2
 62
     2
 10
537.925
 20
470.25
 30
0.0
 11
537.925
 21
494.55
 31
0.0
  0
LINE
  8
0
  6
LTYPE1
 62
     2
 10
545.925
 20
482.9
 30
0.0
 11
545.925
 21
558.4
 31
0.0
  0
LINE
  8
0
  6
LTYPE1
 62
     2
 10
543.625
 20
477.6
 30
0.0
 11
532.225
 21
477.6
 31
0.0
  0
LINE
  8
0
  6
LTYPE4
 62
     2
 10
538.925
 20
528.15
 30
0.0
 11
538.925
 21
622.15
 31
0.0
  0
LINE
  8
0
  6
LTYPE1
 62
     2
 10
531.925
 20
538.4
 30
0.0
 11
545.925
 21
538.4
 31
0.0
  0
LINE
  8
0
  6
LTYPE1
 62
     2
 10
531.925
 20
558.4
 30
0.0
 11
545.925
 21
558.4
 31
0.0
  0
LINE
  8
0
  6
LTYPE1
 62
     2
 10
534.925
 20
558.4
 30
0.0
 11
534.925
 21
614.15
 31
0.0
  0
LINE
  8
0
  6
LTYPE1
 62
     2
 10
542.925
 20
558.4
 30
0.0
 11
542.925
 21
614.15
 31
0.0
  0
ARC
  8
0
  6
LTYPE1
 62
     2
 10
538.925
 20
614.15
 30
0.0
 40
4.0
 50
0.0
 51
180.0
  0
LINE
  8
0
  6
LTYPE1
 62
     2
 10
373.925
 20
476.9
 30
0.0
 11
646.375
 21
476.9
 31
0.0
  0
LINE
  8
0
  6
LTYPE1
 62
     2
 10
373.925
 20
460.9
 30
0.0
 11
646.375
 21
460.9
 31
0.0
  0
LINE
  8
0
  6
CONTINUOUS
 62
     1
 10
415.925
 20
448.9
 30
0.0
 11
671.775
 21
448.9
 31
0.0
  0
LINE
  8
0
  6
CONTINUOUS
 62
     1
 10
415.925
 20
432.9
 30
0.0
 11
703.075
 21
432.9
 31
0.0
  0
LINE
  8
0
  6
LTYPE4
 62
     2
 10
319.575
 20
440.9
 30
0.0
 11
886.075
 21
440.9
 31
0.0
  0
LINE
  8
0
  6
LTYPE2
 62
     2
 10
291.425
 20
468.9
 30
0.0
 11
678.685
 21
468.9
 31
0.0
  0
LINE
  8
0
  6
CONTINUOUS
 62
     1
 10
782.075
 20
448.9
 30
0.0
 11
793.075
 21
448.9
 31
0.0
  0
LINE
  8
0
  6
CONTINUOUS
 62
     1
 10
782.075
 20
432.9
 30
0.0
 11
793.075
 21
432.9
 31
0.0
  0
LINE
  8
0
  6
CONTINUOUS
 62
     2
 10
381.075
 20
352.4
 30
0.0
 11
381.075
 21
338.9
 31
0.0
  0
LINE
  8
0
  6
CONTINUOUS
 62
     2
 10
381.075
 20
343.9
 30
0.0
 11
390.734258263
 21
341.311809549
 31
0.0
  0
LINE
  8
0
  6
CONTINUOUS
 62
     2
 10
381.075
 20
343.9
 30
0.0
 11
390.734258263
 21
346.488190451
 31
0.0
  0
LINE
  8
0
  6
CONTINUOUS
 62
     2
 10
381.075
 20
343.9
 30
0.0
 11
894.075
 21
343.9
 31
0.0
  0
LINE
  8
0
  6
CONTINUOUS
 62
     2
 10
824.075
 20
371.9
 30
0.0
 11
381.075
 21
371.9
 31
0.0
  0
LINE
  8
0
  6
CONTINUOUS
 62
     2
 10
381.075
 20
371.9
 30
0.0
 11
390.734258263
 21
369.311809549
 31
0.0
  0
LINE
  8
0
  6
CONTINUOUS
 62
     2
 10
381.075
 20
371.9
 30
0.0
 11
390.734258263
 21
374.488190451
 31
0.0
  0
LINE
  8
0
  6
CONTINUOUS
 62
     2
 10
381.075
 20
372.4
 30
0.0
 11
381.075
 21
376.9
 31
0.0
  0
LINE
  8
0
  6
CONTINUOUS
 62
     2
 10
894.075
 20
315.9
 30
0.0
 11
239.075
 21
315.9
 31
0.0
  0
LINE
  8
0
  6
CONTINUOUS
 62
     2
 10
239.075
 20
315.9
 30
0.0
 11
248.734258263
 21
313.311809549
 31
0.0
  0
LINE
  8
0
  6
CONTINUOUS
 62
     2
 10
239.075
 20
315.9
 30
0.0
 11
248.734258263
 21
318.488190451
 31
0.0
  0
LINE
  8
0
  6
CONTINUOUS
 62
     2
 10
239.075
 20
322.9
 30
0.0
 11
239.075
 21
310.9
 31
0.0
  0
TEXT
  8
0
  6
CONTINUOUS
 62
     2
 10
447.800925263
 20
906.554873451
 30
0.0
 40
20.0
  1
ブレーキ解放装置はありません。
 50
0.0
 41
0.925
 51
0.0
  7
KANJI37
  0
TEXT
  8
0
  6
CONTINUOUS
 62
     2
 10
448.800925263
 20
881.554873451
 30
0.0
 40
20.0
  1
そのまま手動操作をして下さい．
 50
0.0
 41
0.925
 51
0.0
  7
KANJI37
  0
TEXT
  8
0
  6
CONTINUOUS
 62
     2
 10
530.653757109
 20
664.728121884
 30
0.0
 40
15.0
  1
推力リミッタの作動値は、約１１０ｋｇ（設計値）
 50
0.0
 41
0.9
 51
0.0
  7
KANJI26
  0
LINE
  8
0
  6
CONTINUOUS
 62
     2
 10
531.253757109
 20
660.528121884
 30
0.0
 11
834.5
 21
660.528121884
 31
0.0
  0
LINE
  8
7
  6
CONTINUOUS
 62
     2
 10
678.794424461
 20
630.9
 30
0.0
 11
714.344424461
 21
630.9
 31
0.0
  0
LINE
  8
7
  6
CONTINUOUS
 62
     2
 10
661.544424461
 20
587.4
 30
0.0
 11
678.794424461
 21
630.9
 31
0.0
  0
TEXT
  8
7
  6
CONTINUOUS
 62
     2
 10
450.075
 20
813.9
 30
0.0
 40
15.0
  1
ＰＦ３／４
 50
0.0
 41
0.9
 51
0.0
  7
KANJI26
  0
TEXT
  8
7
  6
CONTINUOUS
 62
     2
 10
440.075
 20
664.5
 30
0.0
 40
15.0
  1
φ１１４
 50
90.0
 41
0.9
 51
0.0
  7
KANJI26
  0
TEXT
  8
7
  6
CONTINUOUS
 62
     2
 10
334.675
 20
347.9
 30
0.0
 40
15.0
  1
７０
 50
0.0
 41
0.9
 51
0.0
  7
KANJI26
  0
TEXT
  8
7
  6
CONTINUOUS
 62
     2
 10
263.675
 20
347.9
 30
0.0
 40
15.0
  1
７２
 50
0.0
 41
0.9
 51
0.0
  7
KANJI26
  0
TEXT
  8
7
  6
CONTINUOUS
 62
     2
 10
213.675
 20
319.9
 30
0.0
 40
15.0
  1
２８
 50
0.0
 41
0.9
 51
0.0
  7
KANJI26
  0
TEXT
  8
0
  6
CONTINUOUS
 62
     3
 10
582.325
 20
376.9
 30
0.0
 40
15.0
  1
Ｃ
 50
0.0
 41
0.9
 51
0.0
  7
KANJI26
  0
TEXT
  8
0
  6
CONTINUOUS
 62
     3
 10
617.325
 20
348.9
 30
0.0
 40
15.0
  1
ｍｉｎ．Ｌ
 50
0.0
 41
0.9
 51
0.0
  7
KANJI26
  0
TEXT
  8
0
  6
CONTINUOUS
 62
     3
 10
526.075
 20
320.9
 30
0.0
 40
15.0
  1
ｍｉｎ．ＡＬ
 50
0.0
 41
0.9
 51
0.0
  7
KANJI26
  0
TEXT
  8
7
  6
CONTINUOUS
 62
     2
 10
626.275
 20
403.9
 30
0.0
 40
15.0
  1
ＬＳユニット
 50
0.0
 41
0.9
 51
0.0
  7
KANJI26
  0
TEXT
  8
7
  6
CONTINUOUS
 62
     2
 10
792.044424461
 20
732.5
 30
0.0
 40
15.0
  1
φ９５
 50
90.0
 41
0.9
 51
0.0
  7
KANJI26
  0
TEXT
  8
7
  6
CONTINUOUS
 62
     2
 10
679.544424461
 20
634.9
 30
0.0
 40
15.0
  1
給脂口
 50
0.0
 41
0.9
 51
0.0
  7
KANJI26
  0
TEXT
  8
7
  6
CONTINUOUS
 62
     2
 10
507.075
 20
560.5
 30
0.0
 40
15.0
  1
φ６４
 50
90.0
 41
0.9
 51
0.0
  7
KANJI26
  0
TEXT
  8
7
  6
CONTINUOUS
 62
     2
 10
400.175
 20
838.9
 30
0.0
 40
15.0
  1
２１３
 50
0.0
 41
0.9
 51
0.0
  7
KANJI26
  0
TEXT
  8
7
  6
CONTINUOUS
 62
     2
 10
269.675
 20
838.9
 30
0.0
 40
15.0
  1
６０
 50
0.0
 41
0.9
 51
0.0
  7
KANJI26
  0
LINE
  8
0
  6
CONTINUOUS
 62
     2
 10
659.075
 20
248.5
 30
0.0
 11
584.575
 21
248.5
 31
0.0
  0
LINE
  8
0
  6
CONTINUOUS
 62
     2
 10
589.575
 20
248.5
 30
0.0
 11
586.986809549
 21
238.840741737
 31
0.0
  0
LINE
  8
0
  6
CONTINUOUS
 62
     2
 10
589.575
 20
248.5
 30
0.0
 11
592.163190451
 21
238.840741737
 31
0.0
  0
LINE
  8
0
  6
CONTINUOUS
 62
     2
 10
589.575
 20
248.5
 30
0.0
 11
589.575
 21
83.5
 31
0.0
  0
TEXT
  8
0
  6
CONTINUOUS
 62
     2
 10
329.975
 20
642.9
 30
0.0
 40
15.0
  1
エコノストップモータ
 50
0.0
 41
0.9
 51
0.0
  7
KANJI26
  0
TEXT
  8
0
  6
CONTINUOUS
 62
     2
 10
332.875
 20
659.9
 30
0.0
 40
15.0
  1
日本電産
 50
0.0
 41
0.9
 51
0.0
  7
KANJI26
  0
LINE
  8
7
  6
CONTINUOUS
 62
     2
 10
444.075
 20
642.9
 30
0.0
 11
444.075
 21
630.9
 31
0.0
  0
LINE
  8
7
  6
CONTINUOUS
 62
     2
 10
444.075
 20
744.9
 30
0.0
 11
444.075
 21
656.9
 31
0.0
  0
LINE
  8
0
  6
CONTINUOUS
 62
     1
 10
408.375
 20
480.9
 30
0.0
 11
397.775
 21
480.9
 31
0.0
  0
ARC
  8
0
  6
CONTINUOUS
 62
     1
 10
403.475
 20
481.9
 30
0.0
 40
5.0
 50
272.3
 51
348.5
  0
ARC
  8
0
  6
CONTINUOUS
 62
     1
 10
402.675
 20
481.9
 30
0.0
 40
5.0
 50
191.5
 51
267.7
  0
LINE
  8
0
  6
CONTINUOUS
 62
     1
 10
403.675
 20
476.9
 30
0.0
 11
402.475
 21
476.9
 31
0.0
  0
LINE
  8
0
  6
LTYPE6
 62
     2
 10
403.075
 20
473.5
 30
0.0
 11
403.075
 21
486.9
 31
0.0
  0
LINE
  8
0
  6
CONTINUOUS
 62
     1
 10
524.375
 20
480.9
 30
0.0
 11
513.775
 21
480.9
 31
0.0
  0
ARC
  8
0
  6
CONTINUOUS
 62
     1
 10
519.475
 20
481.9
 30
0.0
 40
5.0
 50
272.3
 51
348.5
  0
ARC
  8
0
  6
CONTINUOUS
 62
     1
 10
518.675
 20
481.9
 30
0.0
 40
5.0
 50
191.5
 51
267.7
  0
LINE
  8
0
  6
CONTINUOUS
 62
     1
 10
519.675
 20
476.9
 30
0.0
 11
518.475
 21
476.9
 31
0.0
  0
LINE
  8
0
  6
LTYPE6
 62
     2
 10
519.075
 20
473.5
 30
0.0
 11
519.075
 21
486.9
 31
0.0
  0
ARC
  8
0
  6
CONTINUOUS
 62
     2
 10
169.575
 20
690.4
 30
0.0
 40
20.0
 50
231.952957468
 51
156.801409486
  0
LINE
  8
0
  6
CONTINUOUS
 62
     2
 10
151.1920994
 20
698.278385972
 30
0.0
 11
153.48679211
 21
708.115824749
 31
0.0
  0
LINE
  8
0
  6
CONTINUOUS
 62
     2
 10
151.1920994
 20
698.278385972
 30
0.0
 11
159.460260778
 21
703.185722507
 31
0.0
  0
TEXT
  8
0
  6
CONTINUOUS
 62
     2
 10
89.1920994
 20
681.278385972
 30
0.0
 40
15.0
  1
前進方向
 50
0.0
 41
0.9
 51
0.0
  7
KANJI26
  0
LINE
  8
0
  6
CONTINUOUS
 62
     2
 10
228.741667
 20
701.266683
 30
0.0
 11
226.524409397
 21
711.017773643
 31
0.0
  0
LINE
  8
0
  6
CONTINUOUS
 62
     2
 10
228.741667
 20
701.266683
 30
0.0
 11
221.945920268
 21
708.60274641
 31
0.0
  0
LINE
  8
0
  6
CONTINUOUS
 62
     2
 10
228.741667
 20
701.266683
 30
0.0
 11
181.128471571
 21
791.533366
 31
0.0
  0
TEXT
  8
0
  6
CONTINUOUS
 62
     3
 10
87.483334
 20
796.533366
 30
1.5
 40
15.0
  1
手動軸カバー
 50
0.0
 41
0.9
 51
0.0
  7
KANJI38
  0
TEXT
  8
0
  6
CONTINUOUS
 62
     3
 10
87.483334
 20
766.533366
 30
1.5
 40
15.0
  1
手動軸□８
 50
0.0
 41
0.9
 51
0.0
  7
KANJI38
  0
LINE
  8
0
  6
CONTINUOUS
 62
     2
 10
181.128471571
 20
791.533366
 30
0.0
 11
87.483334
 21
791.533366
 31
0.0
  0
TEXT
  8
0
  6
CONTINUOUS
 62
     2
 10
127.578726364
 20
850.412221811
 30
0.0
 40
15.6
  1
モーター結線図
 50
0.0
 41
0.925
 51
0.0
  7
KANJI39
  0
LINE
  8
0
  6
LTYPE2
 62
     6
 10
122.483333
 20
971.033317
 30
0.0
 11
122.483333
 21
954.632460936
 31
0.0
  0
LINE
  8
0
  6
LTYPE2
 62
     6
 10
252.880262694
 20
971.033317
 30
0.0
 11
122.483333
 21
971.033317
 31
0.0
  0
TEXT
  8
0
  6
CONTINUOUS
 62
     6
 10
104.948590591
 20
957.548168681
 30
1.093390404
 40
10.933904043
  1
Ｕ
 50
0.0
 41
0.9
 51
0.0
  7
KANJI40
  0
CIRCLE
  8
0
  6
CONTINUOUS
 62
     6
 10
122.483333
 20
951.352289723
 30
0.0
 40
4.373561617
  0
LINE
  8
0
  6
CONTINUOUS
 62
     6
 10
117.45854931
 20
946.327506033
 30
0.0
 11
127.663526417
 21
956.53248314
 31
0.0
  0
TEXT
  8
0
  6
CONTINUOUS
 62
     6
 10
132.728806047
 20
979.699448352
 30
1.518597784
 40
15.185977837
  1
エコノストップモータ
 50
0.0
 41
0.66671875
 51
0.0
  7
KANJI41
  0
CIRCLE
  8
0
  6
CONTINUOUS
 62
     6
 10
167.312339575
 20
925.839846957
 30
0.0
 40
18.223173404
  0
TEXT
  8
0
  6
CONTINUOUS
 62
     6
 10
159.658606745
 20
917.092723723
 30
1.82231734
 40
18.223173404
  1
Ｍ
 50
0.0
 41
0.9
 51
0.0
  7
KANJI42
  0
LINE
  8
0
  6
CONTINUOUS
 62
     6
 10
143.257750681
 20
900.327404191
 30
0.0
 11
154.556118192
 21
913.448089042
 31
0.0
  0
LINE
  8
0
  6
CONTINUOUS
 62
     6
 10
143.257750681
 20
951.352289723
 30
0.0
 11
154.556118192
 21
938.231604872
 31
0.0
  0
LINE
  8
0
  6
CONTINUOUS
 62
     6
 10
143.257750681
 20
951.352289723
 30
0.0
 11
126.856894617
 21
951.352289723
 31
0.0
  0
LINE
  8
0
  6
CONTINUOUS
 62
     6
 10
149.453629639
 20
925.839846957
 30
0.0
 11
126.856894617
 21
925.839846957
 31
0.0
  0
LINE
  8
0
  6
CONTINUOUS
 62
     6
 10
143.257750681
 20
900.327404191
 30
0.0
 11
126.856894617
 21
900.327404191
 31
0.0
  0
TEXT
  8
0
  6
CONTINUOUS
 62
     6
 10
106.041980995
 20
931.671262446
 30
1.093390404
 40
10.933904043
  1
Ｖ
 50
0.0
 41
0.9
 51
0.0
  7
KANJI40
  0
TEXT
  8
0
  6
CONTINUOUS
 62
     6
 10
107.135371399
 20
905.794356212
 30
1.093390404
 40
10.933904043
  1
Ｗ
 50
0.0
 41
0.9
 51
0.0
  7
KANJI40
  0
CIRCLE
  8
0
  6
CONTINUOUS
 62
     6
 10
122.483333
 20
925.839846957
 30
0.0
 40
4.373561617
  0
LINE
  8
0
  6
CONTINUOUS
 62
     6
 10
117.45854931
 20
920.815063267
 30
0.0
 11
127.663526417
 21
931.020040374
 31
0.0
  0
LINE
  8
0
  6
LTYPE2
 62
     6
 10
122.483333
 20
947.343191574
 30
0.0
 11
122.483333
 21
929.12001817
 31
0.0
  0
CIRCLE
  8
0
  6
CONTINUOUS
 62
     6
 10
122.483333
 20
900.327404191
 30
0.0
 40
4.373561617
  0
LINE
  8
0
  6
CONTINUOUS
 62
     6
 10
117.45854931
 20
895.302620501
 30
0.0
 11
127.663526417
 21
905.507597607
 31
0.0
  0
LINE
  8
0
  6
LTYPE2
 62
     6
 10
122.483333
 20
921.830748808
 30
0.0
 11
122.483333
 21
904.700965808
 31
0.0
  0
LINE
  8
0
  6
LTYPE2
 62
     6
 10
252.880262694
 20
875.621584891
 30
0.0
 11
122.483333
 21
875.621584891
 31
0.0
  0
LINE
  8
0
  6
LTYPE2
 62
     6
 10
122.483333
 20
895.953842574
 30
0.0
 11
122.483333
 21
875.621584891
 31
0.0
  0
TEXT
  8
0
  6
CONTINUOUS
 62
     6
 10
193.553709277
 20
917.584749405
 30
1.457853872
 40
14.578538724
  1
Ｂ
 50
0.0
 41
0.9
 51
0.0
  7
KANJI43
  0
CIRCLE
  8
0
  6
CONTINUOUS
 62
     6
 10
200.114051703
 20
925.839846957
 30
0.0
 40
14.578538724
  0
LINE
  8
0
  6
LTYPE2
 62
     6
 10
252.880262694
 20
875.621584891
 30
0.0
 11
252.880262694
 21
971.033317
 31
0.0
  0
LINE
  8
0
  6
CONTINUOUS
 62
     1
 10
703.075
 20
182.0
 30
0.0
 11
735.075
 21
182.0
 31
0.0
  0
LINE
  8
0
  6
CONTINUOUS
 62
     1
 10
703.075
 20
150.0
 30
0.0
 11
703.075
 21
182.0
 31
0.0
  0
LINE
  8
0
  6
LTYPE4
 62
     2
 10
785.336021217
 20
224.0
 30
0.0
 11
694.075
 21
224.0
 31
0.0
  0
LINE
  8
0
  6
CONTINUOUS
 62
     1
 10
735.075
 20
150.0
 30
0.0
 11
735.075
 21
182.0
 31
0.0
  0
LINE
  8
0
  6
CONTINUOUS
 62
     1
 10
784.075
 20
189.54436172
 30
0.0
 11
784.075
 21
211.35
 31
0.0
  0
LINE
  8
0
  6
CONTINUOUS
 62
     1
 10
784.075
 20
174.0
 30
0.0
 11
784.075
 21
182.45563828
 31
0.0
  0
LINE
  8
0
  6
CONTINUOUS
 62
     1
 10
703.075
 20
174.0
 30
0.0
 11
637.765577963
 21
174.0
 31
0.0
  0
LINE
  8
7
  6
CONTINUOUS
 62
     2
 10
697.675
 20
224.0
 30
0.0
 11
689.36652211
 21
218.435002681
 31
0.0
  0
LINE
  8
7
  6
CONTINUOUS
 62
     2
 10
697.675
 20
224.0
 30
0.0
 11
693.26214574
 21
215.026332005
 31
0.0
  0
LINE
  8
7
  6
CONTINUOUS
 62
     2
 10
697.675
 20
224.0
 30
0.0
 11
686.475
 21
211.2
 31
0.0
  0
LINE
  8
7
  6
CONTINUOUS
 62
     2
 10
686.475
 20
211.2
 30
0.0
 11
627.675
 21
211.2
 31
0.0
  0
TEXT
  8
7
  6
CONTINUOUS
 62
     2
 10
627.675
 20
215.2
 30
1.2
 40
12.0
  1
ＰＦ１／２
 50
0.0
 41
0.9
 51
0.0
  7
KANJI1
  0
LINE
  8
0
  6
CONTINUOUS
 62
     1
 10
654.075
 20
174.0
 30
0.0
 11
654.075
 21
208.2
 31
0.0
  0
LINE
  8
0
  6
LTYPE4
 62
     2
 10
708.575
 20
208.9
 30
0.0
 11
697.675
 21
208.9
 31
0.0
  0
LINE
  8
0
  6
LTYPE4
 62
     2
 10
702.675
 20
214.92
 30
0.0
 11
702.675
 21
205.0
 31
0.0
  0
LINE
  8
0
  6
CONTINUOUS
 62
     1
 10
764.375
 20
204.0
 30
0.0
 11
699.675
 21
204.0
 31
0.0
  0
ARC
  8
0
  6
CONTINUOUS
 62
     1
 10
699.675
 20
206.0
 30
0.0
 40
2.0
 50
180.0
 51
270.0
  0
LINE
  8
0
  6
LTYPE4
 62
     2
 10
766.375
 20
208.9
 30
0.0
 11
756.575
 21
208.9
 31
0.0
  0
LINE
  8
0
  6
LTYPE4
 62
     2
 10
761.375
 20
215.02
 30
0.0
 11
761.375
 21
205.0
 31
0.0
  0
ARC
  8
0
  6
CONTINUOUS
 62
     1
 10
764.375
 20
206.0
 30
0.0
 40
2.0
 50
270.0
 51
0.0
  0
LINE
  8
0
  6
CONTINUOUS
 62
     1
 10
770.736021217
 20
211.3
 30
0.0
 11
766.375
 21
211.3
 31
0.0
  0
ARC
  8
0
  6
CONTINUOUS
 62
     1
 10
789.775
 20
234.7
 30
0.0
 40
2.0
 50
0.0
 51
90.0
  0
LINE
  8
0
  6
CONTINUOUS
 62
     1
 10
791.775
 20
234.7
 30
0.0
 11
791.775
 21
213.3
 31
0.0
  0
ARC
  8
0
  6
CONTINUOUS
 62
     1
 10
776.075
 20
224.0
 30
0.0
 40
6.0
 50
356.983045121
 51
183.016954879
  0
LINE
  8
0
  6
LTYPE4
 62
     2
 10
776.075
 20
233.1
 30
0.0
 11
776.075
 21
175.6
 31
0.0
  0
LINE
  8
0
  6
CONTINUOUS
 62
     1
 10
782.066683988
 20
223.684210526
 30
0.0
 11
780.069455992
 21
185.789473684
 31
0.0
  0
LINE
  8
0
  6
CONTINUOUS
 62
     1
 10
770.083316012
 20
223.684210526
 30
0.0
 11
772.080544008
 21
185.789473684
 31
0.0
  0
ARC
  8
0
  6
CONTINUOUS
 62
     1
 10
789.775
 20
213.3
 30
0.0
 40
2.0
 50
270.0
 51
0.0
  0
LINE
  8
0
  6
CONTINUOUS
 62
     1
 10
789.775
 20
211.3
 30
0.0
 11
781.413978783
 21
211.3
 31
0.0
  0
LINE
  8
0
  6
LTYPE4
 62
     2
 10
765.075
 20
186.0
 30
0.0
 11
788.075
 21
186.0
 31
0.0
  0
ARC
  8
0
  6
CONTINUOUS
 62
     1
 10
776.075
 20
186.0
 30
0.0
 40
8.75
 50
120.219855722
 51
59.780144278
  0
ARC
  8
0
  6
CONTINUOUS
 62
     1
 10
776.075
 20
186.0
 30
0.0
 40
4.0
 50
176.983042101
 51
3.016952287
  0
TEXT
  8
0
  6
CONTINUOUS
 62
     3
 10
584.575
 20
145.75
 30
0.0
 40
15.0
  1
１６５
 50
90.0
 41
0.9
 51
0.0
  7
KANJI26
  0
LINE
  8
0
  6
CONTINUOUS
 62
     1
 10
791.575
 20
613.65
 30
0.0
 11
801.575
 21
613.65
 31
0.0
  0
LINE
  8
0
  6
CONTINUOUS
 62
     1
 10
801.575
 20
611.65
 30
0.0
 11
804.075
 21
611.65
 31
0.0
  0
LINE
  8
0
  6
CONTINUOUS
 62
     1
 10
789.075
 20
611.65
 30
0.0
 11
791.575
 21
611.65
 31
0.0
  0
LINE
  8
0
  6
CONTINUOUS
 62
     1
 10
804.075
 20
611.65
 30
0.0
 11
804.075
 21
577.9
 31
0.0
  0
LINE
  8
0
  6
CONTINUOUS
 62
     1
 10
789.075
 20
611.65
 30
0.0
 11
789.075
 21
577.9
 31
0.0
  0
LINE
  8
0
  6
CONTINUOUS
 62
     1
 10
791.575
 20
613.65
 30
0.0
 11
791.575
 21
577.9
 31
0.0
  0
LINE
  8
0
  6
CONTINUOUS
 62
     1
 10
801.575
 20
613.65
 30
0.0
 11
801.575
 21
577.9
 31
0.0
  0
LINE
  8
0
  6
CONTINUOUS
 62
     1
 10
789.075
 20
544.15
 30
0.0
 11
789.075
 21
546.15
 31
0.0
  0
LINE
  8
0
  6
CONTINUOUS
 62
     1
 10
789.075
 20
544.15
 30
0.0
 11
804.075
 21
544.15
 31
0.0
  0
ARC
  8
0
  6
CONTINUOUS
 62
     1
 10
809.196501365
 20
531.4
 30
0.0
 40
1.0
 50
195.0
 51
270.0
  0
ARC
  8
0
  6
CONTINUOUS
 62
     1
 10
809.196501365
 20
531.4
 30
0.0
 40
1.0
 50
270.0
 51
345.0
  0
LINE
  8
0
  6
CONTINUOUS
 62
     1
 10
812.444721439
 20
539.658819045
 30
0.0
 11
810.162427191
 21
531.141180955
 31
0.0
  0
ARC
  8
0
  6
CONTINUOUS
 62
     1
 10
809.196501365
 20
624.4
 30
0.0
 40
1.0
 50
90.0
 51
165.0
  0
ARC
  8
0
  6
CONTINUOUS
 62
     1
 10
809.196501365
 20
624.4
 30
0.0
 40
1.0
 50
15.0
 51
90.0
  0
LINE
  8
0
  6
CONTINUOUS
 62
     1
 10
812.444721439
 20
616.141180955
 30
0.0
 11
810.162427191
 21
624.658819045
 31
0.0
  0
LINE
  8
0
  6
CONTINUOUS
 62
     1
 10
808.230575539
 20
531.141180955
 30
0.0
 11
804.075
 21
544.15
 31
0.0
  0
LINE
  8
0
  6
CONTINUOUS
 62
     1
 10
808.230575539
 20
624.658819045
 30
0.0
 11
804.075
 21
611.65
 31
0.0
  0
LINE
  8
0
  6
CONTINUOUS
 62
     1
 10
809.196501365
 20
625.4
 30
0.0
 11
809.196501365
 21
577.9
 31
0.0
  0
LINE
  8
0
  6
CONTINUOUS
 62
     1
 10
805.075
 20
546.15
 30
0.0
 11
805.075
 21
577.9
 31
0.0
  0
LINE
  8
0
  6
LTYPE4
 62
     3
 10
809.196501365
 20
625.4
 30
0.0
 11
822.953498635
 21
625.4
 31
0.0
  0
LINE
  8
0
  6
LTYPE4
 62
     3
 10
809.196501365
 20
530.4
 30
0.0
 11
822.953498635
 21
530.4
 31
0.0
  0
LINE
  8
0
  6
CONTINUOUS
 62
     1
 10
791.775
 20
481.9
 30
0.0
 11
791.775
 21
456.5
 31
0.0
  0
CIRCLE
  8
0
  6
CONTINUOUS
 62
     2
 10
814.075
 20
440.9
 30
0.0
 40
5.0
  0
CIRCLE
  8
0
  6
CONTINUOUS
 62
     2
 10
814.075
 20
440.9
 30
0.0
 40
4.0
  0
LINE
  8
0
  6
LTYPE4
 62
     3
 10
788.075
 20
702.4
 30
0.0
 11
822.953498635
 21
702.4
 31
0.0
  0
LINE
  8
0
  6
LTYPE4
 62
     3
 10
788.075
 20
797.4
 30
0.0
 11
822.953498635
 21
797.4
 31
0.0
  0
LINE
  8
7
  6
CONTINUOUS
 62
     2
 10
794.044424461
 20
797.4
 30
0.0
 11
790.044424461
 21
797.4
 31
0.0
  0
LINE
  8
7
  6
CONTINUOUS
 62
     2
 10
796.044424461
 20
797.4
 30
0.0
 11
793.45623401
 21
787.740741737
 31
0.0
  0
LINE
  8
7
  6
CONTINUOUS
 62
     2
 10
796.044424461
 20
797.4
 30
0.0
 11
798.632614912
 21
787.740741737
 31
0.0
  0
LINE
  8
7
  6
CONTINUOUS
 62
     2
 10
796.044424461
 20
797.4
 30
0.0
 11
796.044424461
 21
702.4
 31
0.0
  0
LINE
  8
7
  6
CONTINUOUS
 62
     2
 10
796.044424461
 20
702.4
 30
0.0
 11
798.632614912
 21
712.059258263
 31
0.0
  0
LINE
  8
7
  6
CONTINUOUS
 62
     2
 10
796.044424461
 20
702.4
 30
0.0
 11
793.45623401
 21
712.059258263
 31
0.0
  0
LINE
  8
7
  6
CONTINUOUS
 62
     2
 10
801.544424461
 20
702.4
 30
0.0
 11
802.044424461
 21
702.4
 31
0.0
  0
LINE
  8
0
  6
LTYPE4
 62
     3
 10
801.575
 20
787.4
 30
0.0
 11
818.739352735
 21
787.4
 31
0.0
  0
LINE
  8
0
  6
LTYPE4
 62
     3
 10
801.575
 20
712.4
 30
0.0
 11
818.739352735
 21
712.4
 31
0.0
  0
LINE
  8
0
  6
LTYPE2
 62
     2
 10
803.075
 20
749.9
 30
0.0
 11
922.575
 21
749.9
 31
0.0
  0
LINE
  8
0
  6
CONTINUOUS
 62
     1
 10
735.075
 20
150.0
 30
0.0
 11
703.075
 21
150.0
 31
0.0
  0
LINE
  8
0
  6
LTYPE4
 62
     2
 10
729.575
 20
123.1
 30
0.0
 11
740.475
 21
123.1
 31
0.0
  0
LINE
  8
0
  6
LTYPE4
 62
     2
 10
735.475
 20
117.08
 30
0.0
 11
735.475
 21
127.0
 31
0.0
  0
LINE
  8
0
  6
LTYPE4
 62
     2
 10
735.475
 20
89.0
 30
0.0
 11
735.475
 21
97.98
 31
0.0
  0
LINE
  8
0
  6
LTYPE4
 62
     2
 10
676.775
 20
89.0
 30
0.0
 11
676.775
 21
96.88
 31
0.0
  0
LINE
  8
0
  6
LTYPE4
 62
     2
 10
671.775
 20
123.1
 30
0.0
 11
681.575
 21
123.1
 31
0.0
  0
LINE
  8
0
  6
LTYPE4
 62
     2
 10
676.775
 20
116.98
 30
0.0
 11
676.775
 21
127.0
 31
0.0
  0
LINE
  8
0
  6
LTYPE4
 62
     2
 10
673.075
 20
146.0
 30
0.0
 11
650.075
 21
146.0
 31
0.0
  0
ARC
  8
0
  6
CONTINUOUS
 62
     1
 10
648.375
 20
97.3
 30
0.0
 40
2.0
 50
180.0
 51
270.0
  0
LINE
  8
0
  6
CONTINUOUS
 62
     1
 10
646.375
 20
97.3
 30
0.0
 11
646.375
 21
118.7
 31
0.0
  0
ARC
  8
0
  6
CONTINUOUS
 62
     1
 10
648.375
 20
118.7
 30
0.0
 40
2.0
 50
90.0
 51
180.0
  0
LINE
  8
0
  6
CONTINUOUS
 62
     1
 10
671.775
 20
90.0
 30
0.0
 11
671.775
 21
126.0
 31
0.0
  0
ARC
  8
0
  6
CONTINUOUS
 62
     1
 10
673.775
 20
126.0
 30
0.0
 40
2.0
 50
90.0
 51
180.0
  0
LINE
  8
0
  6
CONTINUOUS
 62
     1
 10
673.775
 20
128.0
 30
0.0
 11
738.475
 21
128.0
 31
0.0
  0
ARC
  8
0
  6
CONTINUOUS
 62
     1
 10
738.475
 20
126.0
 30
0.0
 40
2.0
 50
0.0
 51
90.0
  0
LINE
  8
0
  6
CONTINUOUS
 62
     1
 10
740.475
 20
90.0
 30
0.0
 11
740.475
 21
126.0
 31
0.0
  0
LINE
  8
0
  6
CONTINUOUS
 62
     1
 10
656.083316012
 20
108.315789474
 30
0.0
 11
658.080544008
 21
146.210526316
 31
0.0
  0
LINE
  8
0
  6
CONTINUOUS
 62
     1
 10
668.066683988
 20
108.315789474
 30
0.0
 11
666.069455992
 21
146.210526316
 31
0.0
  0
ARC
  8
0
  6
CONTINUOUS
 62
     1
 10
662.075
 20
146.0
 30
0.0
 40
4.0
 50
356.983042101
 51
183.016952287
  0
ARC
  8
0
  6
CONTINUOUS
 62
     1
 10
662.075
 20
146.0
 30
0.0
 40
8.75
 50
300.219855722
 51
239.780144278
  0
ARC
  8
0
  6
CONTINUOUS
 62
     1
 10
662.075
 20
108.0
 30
0.0
 40
6.0
 50
176.983045121
 51
3.016954879
  0
LINE
  8
0
  6
CONTINUOUS
 62
     1
 10
667.413978783
 20
120.7
 30
0.0
 11
671.775
 21
120.7
 31
0.0
  0
LINE
  8
0
  6
CONTINUOUS
 62
     1
 10
648.375
 20
120.7
 30
0.0
 11
656.736021217
 21
120.7
 31
0.0
  0
LINE
  8
0
  6
LTYPE4
 62
     2
 10
662.075
 20
98.9
 30
0.0
 11
662.075
 21
156.4
 31
0.0
  0
LINE
  8
0
  6
LTYPE4
 62
     2
 10
652.813978783
 20
108.0
 30
0.0
 11
744.075
 21
108.0
 31
0.0
  0
LINE
  8
0
  6
CONTINUOUS
 62
     1
 10
654.075
 20
142.45563828
 30
0.0
 11
654.075
 21
120.65
 31
0.0
  0
LINE
  8
0
  6
CONTINUOUS
 62
     1
 10
654.075
 20
158.0
 30
0.0
 11
654.075
 21
149.54436172
 31
0.0
  0
LINE
  8
0
  6
CONTINUOUS
 62
     1
 10
637.695942983
 20
158.0
 30
0.0
 11
703.075
 21
158.0
 31
0.0
  0
ARC
  8
0
  6
CONTINUOUS
 62
     1
 10
643.320468578
 20
170.0
 30
0.0
 40
6.845203412
 50
144.242860688
 51
215.757139312
  0
ARC
  8
0
  6
CONTINUOUS
 62
     1
 10
632.210687347
 20
170.0
 30
0.0
 40
6.845203412
 50
324.242860688
 51
35.757139312
  0
ARC
  8
0
  6
CONTINUOUS
 62
     1
 10
632.210687347
 20
162.0
 30
0.0
 40
6.845203412
 50
324.242860688
 51
35.757139312
  0
LINE
  8
0
  6
LTYPE2
 62
     2
 10
815.575
 20
156.0
 30
0.0
 11
815.575
 21
176.0
 31
0.0
  0
CIRCLE
  8
0
  6
CONTINUOUS
 62
     2
 10
815.575
 20
166.0
 30
0.0
 40
5.0
  0
CIRCLE
  8
0
  6
CONTINUOUS
 62
     2
 10
815.575
 20
166.0
 30
0.0
 40
4.0
  0
LINE
  8
0
  6
LTYPE2
 62
     2
 10
867.575
 20
166.0
 30
0.0
 11
632.730760473
 21
166.0
 31
0.0
  0
LINE
  8
7
  6
CONTINUOUS
 62
     2
 10
740.475
 20
108.0
 30
0.0
 11
748.842307585
 21
113.476144975
 31
0.0
  0
LINE
  8
7
  6
CONTINUOUS
 62
     2
 10
740.475
 20
108.0
 30
0.0
 11
744.983228442
 21
116.926134455
 31
0.0
  0
LINE
  8
7
  6
CONTINUOUS
 62
     2
 10
740.475
 20
108.0
 30
0.0
 11
753.125
 21
122.15
 31
0.0
  0
LINE
  8
7
  6
CONTINUOUS
 62
     2
 10
753.125
 20
122.15
 30
0.0
 11
811.925
 21
122.15
 31
0.0
  0
TEXT
  8
7
  6
CONTINUOUS
 62
     2
 10
753.125
 20
126.15
 30
1.2
 40
12.0
  1
ＰＦ１／２
 50
0.0
 41
0.9
 51
0.0
  7
KANJI1
  0
LINE
  8
0
  6
CONTINUOUS
 62
     1
 10
784.075
 20
119.2
 30
0.0
 11
784.075
 21
93.5
 31
0.0
  0
LINE
  8
0
  6
LTYPE4
 62
     2
 10
729.035
 20
92.9
 30
0.0
 11
740.475
 21
92.9
 31
0.0
  0
LINE
  8
0
  6
LTYPE4
 62
     2
 10
671.775
 20
92.9
 30
0.0
 11
681.735
 21
92.9
 31
0.0
  0
ARC
  8
0
  6
CONTINUOUS
 62
     1
 10
673.775
 20
90.0
 30
0.0
 40
2.0
 50
180.0
 51
270.0
  0
LINE
  8
0
  6
CONTINUOUS
 62
     1
 10
648.375
 20
95.3
 30
0.0
 11
671.775
 21
95.3
 31
0.0
  0
LINE
  8
0
  6
CONTINUOUS
 62
     1
 10
673.775
 20
88.0
 30
0.0
 11
738.475
 21
88.0
 31
0.0
  0
ARC
  8
0
  6
CONTINUOUS
 62
     1
 10
738.475
 20
90.0
 30
0.0
 40
2.0
 50
270.0
 51
0.0
  0
ARC
  8
0
  6
CONTINUOUS
 62
     1
 10
774.075
 20
93.5
 30
0.0
 40
10.0
 50
270.0
 51
0.0
  0
LINE
  8
0
  6
CONTINUOUS
 62
     1
 10
654.075
 20
95.3
 30
0.0
 11
654.075
 21
93.5
 31
0.0
  0
LINE
  8
0
  6
CONTINUOUS
 62
     1
 10
774.075
 20
83.5
 30
0.0
 11
664.075
 21
83.5
 31
0.0
  0
ARC
  8
0
  6
CONTINUOUS
 62
     1
 10
664.075
 20
93.5
 30
0.0
 40
10.0
 50
180.0
 51
270.0
  0
LINE
  8
0
  6
CONTINUOUS
 62
     2
 10
659.075
 20
83.5
 30
0.0
 11
584.575
 21
83.5
 31
0.0
  0
LINE
  8
0
  6
CONTINUOUS
 62
     2
 10
654.075
 20
90.3
 30
0.0
 11
654.075
 21
45.4
 31
0.0
  0
LINE
  8
0
  6
CONTINUOUS
 62
     2
 10
654.075
 20
50.4
 30
0.0
 11
663.734258263
 21
47.811809549
 31
0.0
  0
LINE
  8
0
  6
CONTINUOUS
 62
     2
 10
654.075
 20
50.4
 30
0.0
 11
663.734258263
 21
52.988190451
 31
0.0
  0
LINE
  8
0
  6
CONTINUOUS
 62
     2
 10
654.075
 20
50.4
 30
0.0
 11
784.075
 21
50.4
 31
0.0
  0
LINE
  8
0
  6
CONTINUOUS
 62
     2
 10
784.075
 20
50.4
 30
0.0
 11
774.415741737
 21
52.988190451
 31
0.0
  0
LINE
  8
0
  6
CONTINUOUS
 62
     2
 10
784.075
 20
50.4
 30
0.0
 11
774.415741737
 21
47.811809549
 31
0.0
  0
LINE
  8
0
  6
CONTINUOUS
 62
     2
 10
784.075
 20
88.5
 30
0.0
 11
784.075
 21
45.4
 31
0.0
  0
TEXT
  8
0
  6
CONTINUOUS
 62
     3
 10
698.825
 20
55.4
 30
0.0
 40
15.0
  1
１３０
 50
0.0
 41
0.9
 51
0.0
  7
KANJI26
  0
LINE
  8
0
  6
CONTINUOUS
 62
     2
 10
589.575
 20
83.5
 30
0.0
 11
592.163190451
 21
93.159258263
 31
0.0
  0
LINE
  8
0
  6
CONTINUOUS
 62
     2
 10
589.575
 20
83.5
 30
0.0
 11
586.986809549
 21
93.159258263
 31
0.0
  0
ARC
  8
0
  6
CONTINUOUS
 62
     1
 10
857.329531422
 20
170.0
 30
0.0
 40
6.845203412
 50
324.242860688
 51
35.757139312
  0
ARC
  8
0
  6
CONTINUOUS
 62
     1
 10
868.439312653
 20
170.0
 30
0.0
 40
6.845203412
 50
144.242860688
 51
215.757139312
  0
ARC
  8
0
  6
CONTINUOUS
 62
     1
 10
868.439312653
 20
162.0
 30
0.0
 40
6.845203412
 50
144.242860688
 51
215.757139312
  0
LINE
  8
7
  6
CONTINUOUS
 62
     2
 10
894.075
 20
315.9
 30
0.0
 11
949.875
 21
315.9
 31
0.0
  0
LINE
  8
7
  6
CONTINUOUS
 62
     2
 10
894.075
 20
535.9
 30
0.0
 11
894.075
 21
309.9
 31
0.0
  0
LINE
  8
0
  6
CONTINUOUS
 62
     2
 10
894.075
 20
323.9
 30
0.0
 11
894.075
 21
310.9
 31
0.0
  0
LINE
  8
0
  6
CONTINUOUS
 62
     2
 10
894.075
 20
315.9
 30
0.0
 11
884.415741737
 21
318.488190451
 31
0.0
  0
LINE
  8
0
  6
CONTINUOUS
 62
     2
 10
894.075
 20
315.9
 30
0.0
 11
884.415741737
 21
313.311809549
 31
0.0
  0
LINE
  8
7
  6
CONTINUOUS
 62
     2
 10
1098.54968209
 20
617.965188182
 30
0.0
 11
1061.74968209
 21
699.965188182
 31
0.0
  0
TEXT
  8
7
  6
CONTINUOUS
 62
     2
 10
1073.25585823
 20
583.365232726
 30
0.0
 40
15.0
  1
約１５゜
 50
82.5
 41
0.9
 51
0.0
  7
KANJI26
  0
CIRCLE
  8
0
  6
CONTINUOUS
 62
     1
 10
894.075
 20
577.9
 30
0.0
 40
8.0
  0
LINE
  8
0
  6
LTYPE1
 62
     2
 10
869.075
 20
557.9
 30
0.0
 11
869.075
 21
597.9
 31
0.0
  0
LINE
  8
0
  6
CONTINUOUS
 62
     1
 10
859.075
 20
597.9
 30
0.0
 11
902.075
 21
597.9
 31
0.0
  0
LINE
  8
0
  6
CONTINUOUS
 62
     1
 10
902.075
 20
597.9
 30
0.0
 11
912.075
 21
587.9
 31
0.0
  0
LINE
  8
0
  6
CONTINUOUS
 62
     1
 10
859.075
 20
557.9
 30
0.0
 11
902.075
 21
557.9
 31
0.0
  0
LINE
  8
0
  6
CONTINUOUS
 62
     1
 10
912.075
 20
567.9
 30
0.0
 11
912.075
 21
587.9
 31
0.0
  0
LINE
  8
0
  6
CONTINUOUS
 62
     1
 10
902.075
 20
557.9
 30
0.0
 11
912.075
 21
567.9
 31
0.0
  0
LINE
  8
7
  6
CONTINUOUS
 62
     2
 10
908.075
 20
597.9
 30
0.0
 11
953.575
 21
597.9
 31
0.0
  0
LINE
  8
7
  6
CONTINUOUS
 62
     2
 10
947.575
 20
597.9
 30
0.0
 11
944.986809549
 21
588.240741737
 31
0.0
  0
LINE
  8
7
  6
CONTINUOUS
 62
     2
 10
947.575
 20
597.9
 30
0.0
 11
950.163190451
 21
588.240741737
 31
0.0
  0
LINE
  8
7
  6
CONTINUOUS
 62
     2
 10
947.575
 20
597.9
 30
0.0
 11
947.575
 21
557.9
 31
0.0
  0
LINE
  8
7
  6
CONTINUOUS
 62
     2
 10
947.575
 20
557.9
 30
0.0
 11
950.163190451
 21
567.559258263
 31
0.0
  0
LINE
  8
7
  6
CONTINUOUS
 62
     2
 10
947.575
 20
557.9
 30
0.0
 11
944.986809549
 21
567.559258263
 31
0.0
  0
LINE
  8
7
  6
CONTINUOUS
 62
     2
 10
908.075
 20
557.9
 30
0.0
 11
953.575
 21
557.9
 31
0.0
  0
LINE
  8
7
  6
CONTINUOUS
 62
     2
 10
886.075
 20
714.4
 30
0.0
 11
886.075
 21
658.9
 31
0.0
  0
LINE
  8
7
  6
CONTINUOUS
 62
     2
 10
886.075
 20
664.9
 30
0.0
 11
876.415741737
 21
667.488190451
 31
0.0
  0
LINE
  8
7
  6
CONTINUOUS
 62
     2
 10
886.075
 20
664.9
 30
0.0
 11
876.415741737
 21
662.311809549
 31
0.0
  0
LINE
  8
7
  6
CONTINUOUS
 62
     2
 10
871.075
 20
664.9
 30
0.0
 11
972.755
 21
664.9
 31
0.0
  0
LINE
  8
7
  6
CONTINUOUS
 62
     2
 10
902.075
 20
664.9
 30
0.0
 11
911.734258263
 21
662.311809549
 31
0.0
  0
LINE
  8
7
  6
CONTINUOUS
 62
     2
 10
902.075
 20
664.9
 30
0.0
 11
911.734258263
 21
667.488190451
 31
0.0
  0
LINE
  8
7
  6
CONTINUOUS
 62
     2
 10
902.075
 20
714.4
 30
0.0
 11
902.075
 21
658.9
 31
0.0
  0
LINE
  8
0
  6
LTYPE2
 62
     2
 10
894.075
 20
541.9
 30
0.0
 11
894.075
 21
786.9
 31
0.0
  0
LINE
  8
7
  6
CONTINUOUS
 62
     2
 10
894.075
 20
635.9
 30
0.0
 11
894.075
 21
637.9
 31
0.0
  0
LINE
  8
7
  6
CONTINUOUS
 62
     2
 10
894.075
 20
631.9
 30
0.0
 11
884.415741737
 21
634.488190451
 31
0.0
  0
LINE
  8
7
  6
CONTINUOUS
 62
     2
 10
894.075
 20
631.9
 30
0.0
 11
884.415741737
 21
629.311809549
 31
0.0
  0
LINE
  8
7
  6
CONTINUOUS
 62
     2
 10
894.075
 20
631.9
 30
0.0
 11
869.075
 21
631.9
 31
0.0
  0
LINE
  8
7
  6
CONTINUOUS
 62
     2
 10
869.075
 20
631.9
 30
0.0
 11
878.734258263
 21
629.311809549
 31
0.0
  0
LINE
  8
7
  6
CONTINUOUS
 62
     2
 10
869.075
 20
631.9
 30
0.0
 11
878.734258263
 21
634.488190451
 31
0.0
  0
LINE
  8
7
  6
CONTINUOUS
 62
     2
 10
869.075
 20
735.9
 30
0.0
 11
869.075
 21
625.9
 31
0.0
  0
LINE
  8
0
  6
CONTINUOUS
 62
     1
 10
840.575
 20
613.65
 30
0.0
 11
830.575
 21
613.65
 31
0.0
  0
LINE
  8
0
  6
CONTINUOUS
 62
     1
 10
843.075
 20
611.65
 30
0.0
 11
840.575
 21
611.65
 31
0.0
  0
LINE
  8
0
  6
CONTINUOUS
 62
     1
 10
830.575
 20
611.65
 30
0.0
 11
828.075
 21
611.65
 31
0.0
  0
LINE
  8
0
  6
CONTINUOUS
 62
     1
 10
828.075
 20
611.65
 30
0.0
 11
828.075
 21
577.9
 31
0.0
  0
LINE
  8
0
  6
CONTINUOUS
 62
     1
 10
830.575
 20
613.65
 30
0.0
 11
830.575
 21
577.9
 31
0.0
  0
LINE
  8
0
  6
CONTINUOUS
 62
     1
 10
840.575
 20
613.65
 30
0.0
 11
840.575
 21
577.9
 31
0.0
  0
LINE
  8
0
  6
CONTINUOUS
 62
     1
 10
843.075
 20
611.65
 30
0.0
 11
843.075
 21
577.9
 31
0.0
  0
LINE
  8
0
  6
CONTINUOUS
 62
     1
 10
843.075
 20
544.15
 30
0.0
 11
828.075
 21
544.15
 31
0.0
  0
LINE
  8
0
  6
CONTINUOUS
 62
     1
 10
828.075
 20
544.15
 30
0.0
 11
828.075
 21
558.9
 31
0.0
  0
ARC
  8
0
  6
CONTINUOUS
 62
     1
 10
822.953498635
 20
531.4
 30
0.0
 40
1.0
 50
270.0
 51
345.0
  0
ARC
  8
0
  6
CONTINUOUS
 62
     1
 10
822.953498635
 20
531.4
 30
0.0
 40
1.0
 50
195.0
 51
270.0
  0
LINE
  8
0
  6
CONTINUOUS
 62
     1
 10
819.705278561
 20
539.658819045
 30
0.0
 11
821.987572809
 21
531.141180955
 31
0.0
  0
ARC
  8
0
  6
CONTINUOUS
 62
     1
 10
818.739352735
 20
539.4
 30
0.0
 40
1.0
 50
15.0
 51
90.0
  0
ARC
  8
0
  6
CONTINUOUS
 62
     1
 10
822.953498635
 20
624.4
 30
0.0
 40
1.0
 50
15.0
 51
90.0
  0
ARC
  8
0
  6
CONTINUOUS
 62
     1
 10
822.953498635
 20
624.4
 30
0.0
 40
1.0
 50
90.0
 51
165.0
  0
LINE
  8
0
  6
CONTINUOUS
 62
     1
 10
819.705278561
 20
616.141180955
 30
0.0
 11
821.987572809
 21
624.658819045
 31
0.0
  0
ARC
  8
0
  6
CONTINUOUS
 62
     1
 10
818.739352735
 20
616.4
 30
0.0
 40
1.0
 50
270.0
 51
345.0
  0
LINE
  8
0
  6
CONTINUOUS
 62
     1
 10
823.919424461
 20
531.141180955
 30
0.0
 11
828.075
 21
544.15
 31
0.0
  0
LINE
  8
0
  6
CONTINUOUS
 62
     1
 10
823.919424461
 20
624.658819045
 30
0.0
 11
828.075
 21
611.65
 31
0.0
  0
LINE
  8
0
  6
CONTINUOUS
 62
     1
 10
818.739352735
 20
615.4
 30
0.0
 11
818.739352735
 21
577.9
 31
0.0
  0
LINE
  8
0
  6
CONTINUOUS
 62
     1
 10
822.953498635
 20
577.9
 30
0.0
 11
822.953498635
 21
625.4
 31
0.0
  0
LINE
  8
0
  6
CONTINUOUS
 62
     1
 10
824.075
 20
546.15
 30
0.0
 11
824.075
 21
577.9
 31
0.0
  0
LINE
  8
0
  6
CONTINUOUS
 62
     1
 10
824.075
 20
558.9
 30
0.0
 11
843.075
 21
558.9
 31
0.0
  0
ARC
  8
0
  6
CONTINUOUS
 62
     1
 10
813.410647265
 20
539.4
 30
0.0
 40
1.0
 50
90.0
 51
165.0
  0
ARC
  8
0
  6
CONTINUOUS
 62
     1
 10
813.410647265
 20
616.4
 30
0.0
 40
1.0
 50
195.0
 51
270.0
  0
LINE
  8
0
  6
CONTINUOUS
 62
     1
 10
813.410658055
 20
615.4
 30
0.0
 11
813.410658055
 21
577.9
 31
0.0
  0
LINE
  8
0
  6
LTYPE4
 62
     3
 10
813.410658055
 20
615.4
 30
0.0
 11
818.739352735
 21
615.4
 31
0.0
  0
LINE
  8
0
  6
LTYPE4
 62
     3
 10
813.410658055
 20
540.4
 30
0.0
 11
818.739352735
 21
540.4
 31
0.0
  0
LINE
  8
0
  6
CONTINUOUS
 62
     1
 10
843.075
 20
603.9
 30
0.0
 11
859.075
 21
603.9
 31
0.0
  0
LINE
  8
7
  6
CONTINUOUS
 62
     2
 10
824.075
 20
371.9
 30
0.0
 11
833.734258263
 21
369.311809549
 31
0.0
  0
LINE
  8
7
  6
CONTINUOUS
 62
     2
 10
824.075
 20
371.9
 30
0.0
 11
833.734258263
 21
374.488190451
 31
0.0
  0
LINE
  8
7
  6
CONTINUOUS
 62
     2
 10
824.075
 20
371.9
 30
0.0
 11
859.075
 21
371.9
 31
0.0
  0
LINE
  8
7
  6
CONTINUOUS
 62
     2
 10
859.075
 20
371.9
 30
0.0
 11
849.415741737
 21
374.488190451
 31
0.0
  0
LINE
  8
7
  6
CONTINUOUS
 62
     2
 10
859.075
 20
371.9
 30
0.0
 11
849.415741737
 21
369.311809549
 31
0.0
  0
POINT
  8
7
  6
CONTINUOUS
 62
     2
 10
859.075
 20
365.9
 30
0.0
  0
LINE
  8
7
  6
CONTINUOUS
 62
     2
 10
859.075
 20
371.9
 30
0.0
 11
868.734258263
 21
369.311809549
 31
0.0
  0
LINE
  8
7
  6
CONTINUOUS
 62
     2
 10
859.075
 20
371.9
 30
0.0
 11
868.734258263
 21
374.488190451
 31
0.0
  0
LINE
  8
7
  6
CONTINUOUS
 62
     2
 10
859.075
 20
371.9
 30
0.0
 11
894.075
 21
371.9
 31
0.0
  0
LINE
  8
7
  6
CONTINUOUS
 62
     2
 10
894.075
 20
371.9
 30
0.0
 11
884.415741737
 21
374.488190451
 31
0.0
  0
LINE
  8
7
  6
CONTINUOUS
 62
     2
 10
894.075
 20
371.9
 30
0.0
 11
884.415741737
 21
369.311809549
 31
0.0
  0
LINE
  8
7
  6
CONTINUOUS
 62
     2
 10
894.075
 20
366.9
 30
0.0
 11
894.075
 21
365.9
 31
0.0
  0
LINE
  8
7
  6
CONTINUOUS
 62
     2
 10
912.075
 20
315.9
 30
0.0
 11
921.734258263
 21
313.311809549
 31
0.0
  0
LINE
  8
7
  6
CONTINUOUS
 62
     2
 10
912.075
 20
315.9
 30
0.0
 11
921.734258263
 21
318.488190451
 31
0.0
  0
LINE
  8
7
  6
CONTINUOUS
 62
     2
 10
894.075
 20
321.9
 30
0.0
 11
894.075
 21
321.9
 31
0.0
  0
LINE
  8
7
  6
CONTINUOUS
 62
     2
 10
824.075
 20
540.15
 30
0.0
 11
824.075
 21
365.9
 31
0.0
  0
LINE
  8
7
  6
CONTINUOUS
 62
     2
 10
912.075
 20
561.9
 30
0.0
 11
912.075
 21
309.9
 31
0.0
  0
LINE
  8
7
  6
CONTINUOUS
 62
     2
 10
859.075
 20
423.9
 30
0.0
 11
859.075
 21
365.9
 31
0.0
  0
LINE
  8
0
  6
CONTINUOUS
 62
     1
 10
859.075
 20
427.9
 30
0.0
 11
859.075
 21
603.9
 31
0.0
  0
LINE
  8
0
  6
CONTINUOUS
 62
     1
 10
843.075
 20
427.9
 30
0.0
 11
859.075
 21
427.9
 31
0.0
  0
LINE
  8
0
  6
CONTINUOUS
 62
     1
 10
843.075
 20
427.9
 30
0.0
 11
843.075
 21
577.9
 31
0.0
  0
LINE
  8
0
  6
LTYPE2
 62
     2
 10
814.075
 20
430.9
 30
0.0
 11
814.075
 21
450.9
 31
0.0
  0
LINE
  8
0
  6
CONTINUOUS
 62
     1
 10
862.075
 20
440.9
 30
0.0
 11
862.075
 21
451.84954
 31
0.0
  0
LINE
  8
0
  6
CONTINUOUS
 62
     1
 10
862.075
 20
440.9
 30
0.0
 11
862.075
 21
429.95046
 31
0.0
  0
LINE
  8
0
  6
CONTINUOUS
 62
     1
 10
870.0961
 20
449.16802
 30
0.0
 11
868.547923706
 21
451.84954
 31
0.0
  0
LINE
  8
0
  6
CONTINUOUS
 62
     1
 10
870.0961
 20
440.9
 30
0.0
 11
870.0961
 21
449.16802
 31
0.0
  0
LINE
  8
0
  6
CONTINUOUS
 62
     1
 10
870.0961
 20
432.63198
 30
0.0
 11
868.547923706
 21
429.95046
 31
0.0
  0
LINE
  8
0
  6
CONTINUOUS
 62
     1
 10
870.0961
 20
440.9
 30
0.0
 11
870.0961
 21
432.63198
 31
0.0
  0
ARC
  8
0
  6
CONTINUOUS
 62
     1
 10
859.641878307
 20
440.9
 30
0.0
 40
10.454221693
 50
328.419912243
 51
31.580087757
  0
ARC
  8
0
  6
CONTINUOUS
 62
     1
 10
866.902986394
 20
449.112155
 30
0.0
 40
3.193602261
 50
301.002313915
 51
2.989498403
  0
LINE
  8
0
  6
CONTINUOUS
 62
     1
 10
870.0961
 20
432.63198
 30
0.0
 11
868.547923706
 21
429.95046
 31
0.0
  0
ARC
  8
0
  6
CONTINUOUS
 62
     1
 10
866.902986394
 20
432.687845
 30
0.0
 40
3.193602261
 50
357.010501597
 51
58.997686085
  0
LINE
  8
0
  6
CONTINUOUS
 62
     1
 10
862.075
 20
451.84954
 30
0.0
 11
868.547923706
 21
451.84954
 31
0.0
  0
LINE
  8
0
  6
CONTINUOUS
 62
     1
 10
862.075
 20
446.37477
 30
0.0
 11
868.547923706
 21
446.37477
 31
0.0
  0
LINE
  8
0
  6
CONTINUOUS
 62
     1
 10
862.075
 20
435.42523
 30
0.0
 11
868.547923706
 21
435.42523
 31
0.0
  0
LINE
  8
0
  6
CONTINUOUS
 62
     1
 10
862.075
 20
429.95046
 30
0.0
 11
868.547923706
 21
429.95046
 31
0.0
  0
LINE
  8
0
  6
CONTINUOUS
 62
     1
 10
859.075
 20
451.65
 30
0.0
 11
862.075
 21
451.65
 31
0.0
  0
LINE
  8
0
  6
CONTINUOUS
 62
     1
 10
859.075
 20
440.9
 30
0.0
 11
862.075254073
 21
443.900254073
 31
0.0
  0
LINE
  8
0
  6
CONTINUOUS
 62
     1
 10
862.075254073
 20
440.9
 30
0.0
 11
859.075
 21
437.899745927
 31
0.0
  0
LINE
  8
0
  6
CONTINUOUS
 62
     1
 10
859.075
 20
430.15
 30
0.0
 11
862.075
 21
430.15
 31
0.0
  0
LINE
  8
0
  6
CONTINUOUS
 62
     1
 10
870.0961
 20
434.9
 30
0.0
 11
883.075
 21
434.9
 31
0.0
  0
LINE
  8
0
  6
CONTINUOUS
 62
     1
 10
870.0961
 20
446.9
 30
0.0
 11
883.075
 21
446.9
 31
0.0
  0
LINE
  8
0
  6
CONTINUOUS
 62
     1
 10
883.075
 20
434.9
 30
0.0
 11
883.075
 21
446.9
 31
0.0
  0
LINE
  8
0
  6
CONTINUOUS
 62
     1
 10
954.375
 20
208.5
 30
0.0
 11
954.375
 21
143.8
 31
0.0
  0
LINE
  8
0
  6
CONTINUOUS
 62
     1
 10
956.375
 20
141.8
 30
0.0
 11
992.375
 21
141.8
 31
0.0
  0
ARC
  8
0
  6
CONTINUOUS
 62
     1
 10
956.375
 20
143.8
 30
0.0
 40
2.0
 50
180.0
 51
270.0
  0
LINE
  8
0
  6
CONTINUOUS
 62
     1
 10
994.375
 20
208.5
 30
0.0
 11
994.375
 21
143.8
 31
0.0
  0
ARC
  8
0
  6
CONTINUOUS
 62
     1
 10
992.375
 20
143.8
 30
0.0
 40
2.0
 50
270.0
 51
0.0
  0
ARC
  8
0
  6
CONTINUOUS
 62
     1
 10
956.375
 20
208.5
 30
0.0
 40
2.0
 50
90.0
 51
180.0
  0
LINE
  8
0
  6
CONTINUOUS
 62
     1
 10
961.675
 20
233.9
 30
0.0
 11
961.675
 21
210.5
 31
0.0
  0
LINE
  8
0
  6
CONTINUOUS
 62
     1
 10
956.375
 20
210.5
 30
0.0
 11
992.375
 21
210.5
 31
0.0
  0
ARC
  8
0
  6
CONTINUOUS
 62
     1
 10
992.375
 20
208.5
 30
0.0
 40
2.0
 50
0.0
 51
90.0
  0
ARC
  8
0
  6
CONTINUOUS
 62
     1
 10
963.675
 20
233.9
 30
0.0
 40
2.0
 50
90.0
 51
180.0
  0
ARC
  8
0
  6
CONTINUOUS
 62
     1
 10
974.375
 20
220.2
 30
0.0
 40
6.0
 50
131.983045121
 51
318.016954879
  0
LINE
  8
0
  6
LTYPE4
 62
     2
 10
967.940328291
 20
213.765328291
 30
0.0
 11
1008.598968209
 21
254.423968209
 31
0.0
  0
LINE
  8
0
  6
CONTINUOUS
 62
     1
 10
970.3615365
 20
224.660057257
 30
0.0
 11
998.569415352
 21
250.04342919
 31
0.0
  0
LINE
  8
0
  6
CONTINUOUS
 62
     1
 10
978.835057257
 20
216.1865365
 30
0.0
 11
1004.21842919
 21
244.394415352
 31
0.0
  0
LINE
  8
0
  6
LTYPE4
 62
     2
 10
1009.023232278
 20
239.291883092
 30
0.0
 11
992.759776311
 21
255.555339059
 31
0.0
  0
ARC
  8
0
  6
CONTINUOUS
 62
     1
 10
1001.245057685
 20
247.070057685
 30
0.0
 40
8.75
 50
255.219855722
 51
194.780144278
  0
ARC
  8
0
  6
CONTINUOUS
 62
     1
 10
1001.245057685
 20
247.070057685
 30
0.0
 40
4.0
 50
311.983042101
 51
138.016952287
  0
LINE
  8
0
  6
CONTINUOUS
 62
     1
 10
987.075
 20
225.34336985
 30
0.0
 11
987.075
 21
210.5
 31
0.0
  0
LINE
  8
0
  6
CONTINUOUS
 62
     1
 10
963.675
 20
235.9
 30
0.0
 11
982.852191565
 21
235.9
 31
0.0
  0
LINE
  8
0
  6
LTYPE2
 62
     2
 10
959.5
 20
187.0
 30
0.0
 11
989.5
 21
187.0
 31
0.0
  0
LINE
  8
0
  6
LTYPE2
 62
     2
 10
989.5
 20
187.0
 30
0.0
 11
989.5
 21
196.5
 31
0.0
  0
LINE
  8
0
  6
LTYPE2
 62
     2
 10
989.5
 20
196.5
 30
0.0
 11
959.5
 21
196.5
 31
0.0
  0
LINE
  8
0
  6
LTYPE2
 62
     2
 10
959.5
 20
196.5
 30
0.0
 11
959.5
 21
187.0
 31
0.0
  0
LINE
  8
0
  6
CONTINUOUS
 62
     1
 10
959.5
 20
157.0
 30
0.0
 11
989.5
 21
157.0
 31
0.0
  0
LINE
  8
0
  6
CONTINUOUS
 62
     1
 10
989.5
 20
157.0
 30
0.0
 11
989.5
 21
166.5
 31
0.0
  0
LINE
  8
0
  6
CONTINUOUS
 62
     1
 10
989.5
 20
166.5
 30
0.0
 11
959.5
 21
166.5
 31
0.0
  0
LINE
  8
0
  6
CONTINUOUS
 62
     1
 10
959.5
 20
166.5
 30
0.0
 11
959.5
 21
157.0
 31
0.0
  0
TEXT
  8
0
  6
CONTINUOUS
 62
     2
 10
958.275
 20
199.8
 30
0.0
 40
10.0
  1
４
 50
0.0
 41
0.85
 51
0.0
  7
KANJI44
  0
TEXT
  8
0
  6
CONTINUOUS
 62
     2
 10
983.275
 20
199.8
 30
0.0
 40
10.0
  1
３
 50
0.0
 41
0.85
 51
0.0
  7
KANJI44
  0
POLYLINE
  8
0
  6
CONTINUOUS
 62
     2
 66
     1
 70
     1
  0
VERTEX
  8
0
  6
CONTINUOUS
 62
     2
 10
969.275
 20
199.05
 30
0.0
 42
0.021820078
  0
VERTEX
  8
0
  6
CONTINUOUS
 62
     2
 10
969.266438071
 20
199.246100421
 30
0.0
 42
0.021820078
  0
VERTEX
  8
0
  6
CONTINUOUS
 62
     2
 10
969.240817444
 20
199.4407084
 30
0.0
 42
0.021820078
  0
VERTEX
  8
0
  6
CONTINUOUS
 62
     2
 10
969.198333109
 20
199.632342851
 30
0.0
 42
0.021820078
  0
VERTEX
  8
0
  6
CONTINUOUS
 62
     2
 10
969.139308397
 20
199.819545322
 30
0.0
 42
0.021820078
  0
VERTEX
  8
0
  6
CONTINUOUS
 62
     2
 10
969.064192521
 20
200.000891089
 30
0.0
 42
0.021820078
  0
VERTEX
  8
0
  6
CONTINUOUS
 62
     2
 10
968.973557159
 20
200.175
 30
0.0
 42
0.021820078
  0
VERTEX
  8
0
  6
CONTINUOUS
 62
     2
 10
968.8680921
 20
200.340546982
 30
0.0
 42
0.021820078
  0
VERTEX
  8
0
  6
CONTINUOUS
 62
     2
 10
968.748599997
 20
200.496272122
 30
0.0
 42
0.021820078
  0
VERTEX
  8
0
  6
CONTINUOUS
 62
     2
 10
968.615990258
 20
200.640990258
 30
0.0
 42
0.021820078
  0
VERTEX
  8
0
  6
CONTINUOUS
 62
     2
 10
968.471272122
 20
200.773599997
 30
0.0
 42
0.021820078
  0
VERTEX
  8
0
  6
CONTINUOUS
 62
     2
 10
968.315546982
 20
200.8930921
 30
0.0
 42
0.021820078
  0
VERTEX
  8
0
  6
CONTINUOUS
 62
     2
 10
968.15
 20
200.998557159
 30
0.0
 42
0.021820078
  0
VERTEX
  8
0
  6
CONTINUOUS
 62
     2
 10
967.975891089
 20
201.089192521
 30
0.0
 42
0.021820078
  0
VERTEX
  8
0
  6
CONTINUOUS
 62
     2
 10
967.794545322
 20
201.164308397
 30
0.0
 42
0.021820078
  0
VERTEX
  8
0
  6
CONTINUOUS
 62
     2
 10
967.607342851
 20
201.223333109
 30
0.0
 42
0.021820078
  0
VERTEX
  8
0
  6
CONTINUOUS
 62
     2
 10
967.4157084
 20
201.265817444
 30
0.0
 42
0.021820078
  0
VERTEX
  8
0
  6
CONTINUOUS
 62
     2
 10
967.221100421
 20
201.291438071
 30
0.0
 42
0.021820078
  0
VERTEX
  8
0
  6
CONTINUOUS
 62
     2
 10
967.025
 20
201.3
 30
0.0
 42
0.021820078
  0
VERTEX
  8
0
  6
CONTINUOUS
 62
     2
 10
966.828899579
 20
201.291438071
 30
0.0
 42
0.021820078
  0
VERTEX
  8
0
  6
CONTINUOUS
 62
     2
 10
966.6342916
 20
201.265817444
 30
0.0
 42
0.021820078
  0
VERTEX
  8
0
  6
CONTINUOUS
 62
     2
 10
966.442657149
 20
201.223333109
 30
0.0
 42
0.021820078
  0
VERTEX
  8
0
  6
CONTINUOUS
 62
     2
 10
966.255454678
 20
201.164308397
 30
0.0
 42
0.021820078
  0
VERTEX
  8
0
  6
CONTINUOUS
 62
     2
 10
966.074108911
 20
201.089192521
 30
0.0
 42
0.021820078
  0
VERTEX
  8
0
  6
CONTINUOUS
 62
     2
 10
965.9
 20
200.998557159
 30
0.0
 42
0.021820078
  0
VERTEX
  8
0
  6
CONTINUOUS
 62
     2
 10
965.734453018
 20
200.8930921
 30
0.0
 42
0.021820078
  0
VERTEX
  8
0
  6
CONTINUOUS
 62
     2
 10
965.578727878
 20
200.773599997
 30
0.0
 42
0.021820078
  0
VERTEX
  8
0
  6
CONTINUOUS
 62
     2
 10
965.434009742
 20
200.640990258
 30
0.0
 42
0.021820078
  0
VERTEX
  8
0
  6
CONTINUOUS
 62
     2
 10
965.301400003
 20
200.496272122
 30
0.0
 42
0.021820078
  0
VERTEX
  8
0
  6
CONTINUOUS
 62
     2
 10
965.1819079
 20
200.340546982
 30
0.0
 42
0.021820078
  0
VERTEX
  8
0
  6
CONTINUOUS
 62
     2
 10
965.076442841
 20
200.175
 30
0.0
 42
0.021820078
  0
VERTEX
  8
0
  6
CONTINUOUS
 62
     2
 10
964.985807479
 20
200.000891089
 30
0.0
 42
0.021820078
  0
VERTEX
  8
0
  6
CONTINUOUS
 62
     2
 10
964.910691603
 20
199.819545322
 30
0.0
 42
0.021820078
  0
VERTEX
  8
0
  6
CONTINUOUS
 62
     2
 10
964.851666891
 20
199.632342851
 30
0.0
 42
0.021820078
  0
VERTEX
  8
0
  6
CONTINUOUS
 62
     2
 10
964.809182556
 20
199.4407084
 30
0.0
 42
0.021820078
  0
VERTEX
  8
0
  6
CONTINUOUS
 62
     2
 10
964.783561929
 20
199.246100421
 30
0.0
 42
0.021820078
  0
VERTEX
  8
0
  6
CONTINUOUS
 62
     2
 10
964.775
 20
199.05
 30
0.0
 42
0.021820078
  0
VERTEX
  8
0
  6
CONTINUOUS
 62
     2
 10
964.783561929
 20
198.853899579
 30
0.0
 42
0.021820078
  0
VERTEX
  8
0
  6
CONTINUOUS
 62
     2
 10
964.809182556
 20
198.6592916
 30
0.0
 42
0.021820078
  0
VERTEX
  8
0
  6
CONTINUOUS
 62
     2
 10
964.851666891
 20
198.467657149
 30
0.0
 42
0.021820078
  0
VERTEX
  8
0
  6
CONTINUOUS
 62
     2
 10
964.910691603
 20
198.280454678
 30
0.0
 42
0.021820078
  0
VERTEX
  8
0
  6
CONTINUOUS
 62
     2
 10
964.985807479
 20
198.099108911
 30
0.0
 42
0.021820078
  0
VERTEX
  8
0
  6
CONTINUOUS
 62
     2
 10
965.076442841
 20
197.925
 30
0.0
 42
0.021820078
  0
VERTEX
  8
0
  6
CONTINUOUS
 62
     2
 10
965.1819079
 20
197.759453018
 30
0.0
 42
0.021820078
  0
VERTEX
  8
0
  6
CONTINUOUS
 62
     2
 10
965.301400003
 20
197.603727878
 30
0.0
 42
0.021820078
  0
VERTEX
  8
0
  6
CONTINUOUS
 62
     2
 10
965.434009742
 20
197.459009742
 30
0.0
 42
0.021820078
  0
VERTEX
  8
0
  6
CONTINUOUS
 62
     2
 10
965.578727878
 20
197.326400003
 30
0.0
 42
0.021820078
  0
VERTEX
  8
0
  6
CONTINUOUS
 62
     2
 10
965.734453018
 20
197.2069079
 30
0.0
 42
0.021820078
  0
VERTEX
  8
0
  6
CONTINUOUS
 62
     2
 10
965.9
 20
197.101442841
 30
0.0
 42
0.021820078
  0
VERTEX
  8
0
  6
CONTINUOUS
 62
     2
 10
966.074108911
 20
197.010807479
 30
0.0
 42
0.021820078
  0
VERTEX
  8
0
  6
CONTINUOUS
 62
     2
 10
966.255454678
 20
196.935691603
 30
0.0
 42
0.021820078
  0
VERTEX
  8
0
  6
CONTINUOUS
 62
     2
 10
966.442657149
 20
196.876666891
 30
0.0
 42
0.021820078
  0
VERTEX
  8
0
  6
CONTINUOUS
 62
     2
 10
966.6342916
 20
196.834182556
 30
0.0
 42
0.021820078
  0
VERTEX
  8
0
  6
CONTINUOUS
 62
     2
 10
966.828899579
 20
196.808561929
 30
0.0
 42
0.021820078
  0
VERTEX
  8
0
  6
CONTINUOUS
 62
     2
 10
967.025
 20
196.8
 30
0.0
 42
0.021820078
  0
VERTEX
  8
0
  6
CONTINUOUS
 62
     2
 10
967.221100421
 20
196.808561929
 30
0.0
 42
0.021820078
  0
VERTEX
  8
0
  6
CONTINUOUS
 62
     2
 10
967.4157084
 20
196.834182556
 30
0.0
 42
0.021820078
  0
VERTEX
  8
0
  6
CONTINUOUS
 62
     2
 10
967.607342851
 20
196.876666891
 30
0.0
 42
0.021820078
  0
VERTEX
  8
0
  6
CONTINUOUS
 62
     2
 10
967.794545322
 20
196.935691603
 30
0.0
 42
0.021820078
  0
VERTEX
  8
0
  6
CONTINUOUS
 62
     2
 10
967.975891089
 20
197.010807479
 30
0.0
 42
0.021820078
  0
VERTEX
  8
0
  6
CONTINUOUS
 62
     2
 10
968.15
 20
197.101442841
 30
0.0
 42
0.021820078
  0
VERTEX
  8
0
  6
CONTINUOUS
 62
     2
 10
968.315546982
 20
197.2069079
 30
0.0
 42
0.021820078
  0
VERTEX
  8
0
  6
CONTINUOUS
 62
     2
 10
968.471272122
 20
197.326400003
 30
0.0
 42
0.021820078
  0
VERTEX
  8
0
  6
CONTINUOUS
 62
     2
 10
968.615990258
 20
197.459009742
 30
0.0
 42
0.021820078
  0
VERTEX
  8
0
  6
CONTINUOUS
 62
     2
 10
968.748599997
 20
197.603727878
 30
0.0
 42
0.021820078
  0
VERTEX
  8
0
  6
CONTINUOUS
 62
     2
 10
968.8680921
 20
197.759453018
 30
0.0
 42
0.021820078
  0
VERTEX
  8
0
  6
CONTINUOUS
 62
     2
 10
968.973557159
 20
197.925
 30
0.0
 42
0.021820078
  0
VERTEX
  8
0
  6
CONTINUOUS
 62
     2
 10
969.064192521
 20
198.099108911
 30
0.0
 42
0.021820078
  0
VERTEX
  8
0
  6
CONTINUOUS
 62
     2
 10
969.139308397
 20
198.280454678
 30
0.0
 42
0.021820078
  0
VERTEX
  8
0
  6
CONTINUOUS
 62
     2
 10
969.198333109
 20
198.467657149
 30
0.0
 42
0.021820078
  0
VERTEX
  8
0
  6
CONTINUOUS
 62
     2
 10
969.240817444
 20
198.6592916
 30
0.0
 42
0.021820078
  0
VERTEX
  8
0
  6
CONTINUOUS
 62
     2
 10
969.266438071
 20
198.853899579
 30
0.0
 42
0.021820078
  0
SEQEND
  8
0
  6
CONTINUOUS
 62
     2
  0
POLYLINE
  8
0
  6
CONTINUOUS
 62
     2
 66
     1
 70
     1
  0
VERTEX
  8
0
  6
CONTINUOUS
 62
     2
 10
984.275
 20
199.05
 30
0.0
 42
0.021820078
  0
VERTEX
  8
0
  6
CONTINUOUS
 62
     2
 10
984.266438071
 20
199.246100421
 30
0.0
 42
0.021820078
  0
VERTEX
  8
0
  6
CONTINUOUS
 62
     2
 10
984.240817444
 20
199.4407084
 30
0.0
 42
0.021820078
  0
VERTEX
  8
0
  6
CONTINUOUS
 62
     2
 10
984.198333109
 20
199.632342851
 30
0.0
 42
0.021820078
  0
VERTEX
  8
0
  6
CONTINUOUS
 62
     2
 10
984.139308397
 20
199.819545322
 30
0.0
 42
0.021820078
  0
VERTEX
  8
0
  6
CONTINUOUS
 62
     2
 10
984.064192521
 20
200.000891089
 30
0.0
 42
0.021820078
  0
VERTEX
  8
0
  6
CONTINUOUS
 62
     2
 10
983.973557159
 20
200.175
 30
0.0
 42
0.021820078
  0
VERTEX
  8
0
  6
CONTINUOUS
 62
     2
 10
983.8680921
 20
200.340546982
 30
0.0
 42
0.021820078
  0
VERTEX
  8
0
  6
CONTINUOUS
 62
     2
 10
983.748599997
 20
200.496272122
 30
0.0
 42
0.021820078
  0
VERTEX
  8
0
  6
CONTINUOUS
 62
     2
 10
983.615990258
 20
200.640990258
 30
0.0
 42
0.021820078
  0
VERTEX
  8
0
  6
CONTINUOUS
 62
     2
 10
983.471272122
 20
200.773599997
 30
0.0
 42
0.021820078
  0
VERTEX
  8
0
  6
CONTINUOUS
 62
     2
 10
983.315546982
 20
200.8930921
 30
0.0
 42
0.021820078
  0
VERTEX
  8
0
  6
CONTINUOUS
 62
     2
 10
983.15
 20
200.998557159
 30
0.0
 42
0.021820078
  0
VERTEX
  8
0
  6
CONTINUOUS
 62
     2
 10
982.975891089
 20
201.089192521
 30
0.0
 42
0.021820078
  0
VERTEX
  8
0
  6
CONTINUOUS
 62
     2
 10
982.794545322
 20
201.164308397
 30
0.0
 42
0.021820078
  0
VERTEX
  8
0
  6
CONTINUOUS
 62
     2
 10
982.607342851
 20
201.223333109
 30
0.0
 42
0.021820078
  0
VERTEX
  8
0
  6
CONTINUOUS
 62
     2
 10
982.4157084
 20
201.265817444
 30
0.0
 42
0.021820078
  0
VERTEX
  8
0
  6
CONTINUOUS
 62
     2
 10
982.221100421
 20
201.291438071
 30
0.0
 42
0.021820078
  0
VERTEX
  8
0
  6
CONTINUOUS
 62
     2
 10
982.025
 20
201.3
 30
0.0
 42
0.021820078
  0
VERTEX
  8
0
  6
CONTINUOUS
 62
     2
 10
981.828899579
 20
201.291438071
 30
0.0
 42
0.021820078
  0
VERTEX
  8
0
  6
CONTINUOUS
 62
     2
 10
981.6342916
 20
201.265817444
 30
0.0
 42
0.021820078
  0
VERTEX
  8
0
  6
CONTINUOUS
 62
     2
 10
981.442657149
 20
201.223333109
 30
0.0
 42
0.021820078
  0
VERTEX
  8
0
  6
CONTINUOUS
 62
     2
 10
981.255454678
 20
201.164308397
 30
0.0
 42
0.021820078
  0
VERTEX
  8
0
  6
CONTINUOUS
 62
     2
 10
981.074108911
 20
201.089192521
 30
0.0
 42
0.021820078
  0
VERTEX
  8
0
  6
CONTINUOUS
 62
     2
 10
980.9
 20
200.998557159
 30
0.0
 42
0.021820078
  0
VERTEX
  8
0
  6
CONTINUOUS
 62
     2
 10
980.734453018
 20
200.8930921
 30
0.0
 42
0.021820078
  0
VERTEX
  8
0
  6
CONTINUOUS
 62
     2
 10
980.578727878
 20
200.773599997
 30
0.0
 42
0.021820078
  0
VERTEX
  8
0
  6
CONTINUOUS
 62
     2
 10
980.434009742
 20
200.640990258
 30
0.0
 42
0.021820078
  0
VERTEX
  8
0
  6
CONTINUOUS
 62
     2
 10
980.301400003
 20
200.496272122
 30
0.0
 42
0.021820078
  0
VERTEX
  8
0
  6
CONTINUOUS
 62
     2
 10
980.1819079
 20
200.340546982
 30
0.0
 42
0.021820078
  0
VERTEX
  8
0
  6
CONTINUOUS
 62
     2
 10
980.076442841
 20
200.175
 30
0.0
 42
0.021820078
  0
VERTEX
  8
0
  6
CONTINUOUS
 62
     2
 10
979.985807479
 20
200.000891089
 30
0.0
 42
0.021820078
  0
VERTEX
  8
0
  6
CONTINUOUS
 62
     2
 10
979.910691603
 20
199.819545322
 30
0.0
 42
0.021820078
  0
VERTEX
  8
0
  6
CONTINUOUS
 62
     2
 10
979.851666891
 20
199.632342851
 30
0.0
 42
0.021820078
  0
VERTEX
  8
0
  6
CONTINUOUS
 62
     2
 10
979.809182556
 20
199.4407084
 30
0.0
 42
0.021820078
  0
VERTEX
  8
0
  6
CONTINUOUS
 62
     2
 10
979.783561929
 20
199.246100421
 30
0.0
 42
0.021820078
  0
VERTEX
  8
0
  6
CONTINUOUS
 62
     2
 10
979.775
 20
199.05
 30
0.0
 42
0.021820078
  0
VERTEX
  8
0
  6
CONTINUOUS
 62
     2
 10
979.783561929
 20
198.853899579
 30
0.0
 42
0.021820078
  0
VERTEX
  8
0
  6
CONTINUOUS
 62
     2
 10
979.809182556
 20
198.6592916
 30
0.0
 42
0.021820078
  0
VERTEX
  8
0
  6
CONTINUOUS
 62
     2
 10
979.851666891
 20
198.467657149
 30
0.0
 42
0.021820078
  0
VERTEX
  8
0
  6
CONTINUOUS
 62
     2
 10
979.910691603
 20
198.280454678
 30
0.0
 42
0.021820078
  0
VERTEX
  8
0
  6
CONTINUOUS
 62
     2
 10
979.985807479
 20
198.099108911
 30
0.0
 42
0.021820078
  0
VERTEX
  8
0
  6
CONTINUOUS
 62
     2
 10
980.076442841
 20
197.925
 30
0.0
 42
0.021820078
  0
VERTEX
  8
0
  6
CONTINUOUS
 62
     2
 10
980.1819079
 20
197.759453018
 30
0.0
 42
0.021820078
  0
VERTEX
  8
0
  6
CONTINUOUS
 62
     2
 10
980.301400003
 20
197.603727878
 30
0.0
 42
0.021820078
  0
VERTEX
  8
0
  6
CONTINUOUS
 62
     2
 10
980.434009742
 20
197.459009742
 30
0.0
 42
0.021820078
  0
VERTEX
  8
0
  6
CONTINUOUS
 62
     2
 10
980.578727878
 20
197.326400003
 30
0.0
 42
0.021820078
  0
VERTEX
  8
0
  6
CONTINUOUS
 62
     2
 10
980.734453018
 20
197.2069079
 30
0.0
 42
0.021820078
  0
VERTEX
  8
0
  6
CONTINUOUS
 62
     2
 10
980.9
 20
197.101442841
 30
0.0
 42
0.021820078
  0
VERTEX
  8
0
  6
CONTINUOUS
 62
     2
 10
981.074108911
 20
197.010807479
 30
0.0
 42
0.021820078
  0
VERTEX
  8
0
  6
CONTINUOUS
 62
     2
 10
981.255454678
 20
196.935691603
 30
0.0
 42
0.021820078
  0
VERTEX
  8
0
  6
CONTINUOUS
 62
     2
 10
981.442657149
 20
196.876666891
 30
0.0
 42
0.021820078
  0
VERTEX
  8
0
  6
CONTINUOUS
 62
     2
 10
981.6342916
 20
196.834182556
 30
0.0
 42
0.021820078
  0
VERTEX
  8
0
  6
CONTINUOUS
 62
     2
 10
981.828899579
 20
196.808561929
 30
0.0
 42
0.021820078
  0
VERTEX
  8
0
  6
CONTINUOUS
 62
     2
 10
982.025
 20
196.8
 30
0.0
 42
0.021820078
  0
VERTEX
  8
0
  6
CONTINUOUS
 62
     2
 10
982.221100421
 20
196.808561929
 30
0.0
 42
0.021820078
  0
VERTEX
  8
0
  6
CONTINUOUS
 62
     2
 10
982.4157084
 20
196.834182556
 30
0.0
 42
0.021820078
  0
VERTEX
  8
0
  6
CONTINUOUS
 62
     2
 10
982.607342851
 20
196.876666891
 30
0.0
 42
0.021820078
  0
VERTEX
  8
0
  6
CONTINUOUS
 62
     2
 10
982.794545322
 20
196.935691603
 30
0.0
 42
0.021820078
  0
VERTEX
  8
0
  6
CONTINUOUS
 62
     2
 10
982.975891089
 20
197.010807479
 30
0.0
 42
0.021820078
  0
VERTEX
  8
0
  6
CONTINUOUS
 62
     2
 10
983.15
 20
197.101442841
 30
0.0
 42
0.021820078
  0
VERTEX
  8
0
  6
CONTINUOUS
 62
     2
 10
983.315546982
 20
197.2069079
 30
0.0
 42
0.021820078
  0
VERTEX
  8
0
  6
CONTINUOUS
 62
     2
 10
983.471272122
 20
197.326400003
 30
0.0
 42
0.021820078
  0
VERTEX
  8
0
  6
CONTINUOUS
 62
     2
 10
983.615990258
 20
197.459009742
 30
0.0
 42
0.021820078
  0
VERTEX
  8
0
  6
CONTINUOUS
 62
     2
 10
983.748599997
 20
197.603727878
 30
0.0
 42
0.021820078
  0
VERTEX
  8
0
  6
CONTINUOUS
 62
     2
 10
983.8680921
 20
197.759453018
 30
0.0
 42
0.021820078
  0
VERTEX
  8
0
  6
CONTINUOUS
 62
     2
 10
983.973557159
 20
197.925
 30
0.0
 42
0.021820078
  0
VERTEX
  8
0
  6
CONTINUOUS
 62
     2
 10
984.064192521
 20
198.099108911
 30
0.0
 42
0.021820078
  0
VERTEX
  8
0
  6
CONTINUOUS
 62
     2
 10
984.139308397
 20
198.280454678
 30
0.0
 42
0.021820078
  0
VERTEX
  8
0
  6
CONTINUOUS
 62
     2
 10
984.198333109
 20
198.467657149
 30
0.0
 42
0.021820078
  0
VERTEX
  8
0
  6
CONTINUOUS
 62
     2
 10
984.240817444
 20
198.6592916
 30
0.0
 42
0.021820078
  0
VERTEX
  8
0
  6
CONTINUOUS
 62
     2
 10
984.266438071
 20
198.853899579
 30
0.0
 42
0.021820078
  0
SEQEND
  8
0
  6
CONTINUOUS
 62
     2
  0
POLYLINE
  8
0
  6
CONTINUOUS
 62
     2
 66
     1
 70
     1
  0
VERTEX
  8
0
  6
CONTINUOUS
 62
     2
 10
969.275
 20
154.7
 30
0.0
 42
-0.021820078
  0
VERTEX
  8
0
  6
CONTINUOUS
 62
     2
 10
969.266438071
 20
154.503899579
 30
0.0
 42
-0.021820078
  0
VERTEX
  8
0
  6
CONTINUOUS
 62
     2
 10
969.240817444
 20
154.3092916
 30
0.0
 42
-0.021820078
  0
VERTEX
  8
0
  6
CONTINUOUS
 62
     2
 10
969.198333109
 20
154.117657149
 30
0.0
 42
-0.021820078
  0
VERTEX
  8
0
  6
CONTINUOUS
 62
     2
 10
969.139308397
 20
153.930454678
 30
0.0
 42
-0.021820078
  0
VERTEX
  8
0
  6
CONTINUOUS
 62
     2
 10
969.064192521
 20
153.749108911
 30
0.0
 42
-0.021820078
  0
VERTEX
  8
0
  6
CONTINUOUS
 62
     2
 10
968.973557159
 20
153.575
 30
0.0
 42
-0.021820078
  0
VERTEX
  8
0
  6
CONTINUOUS
 62
     2
 10
968.8680921
 20
153.409453018
 30
0.0
 42
-0.021820078
  0
VERTEX
  8
0
  6
CONTINUOUS
 62
     2
 10
968.748599997
 20
153.253727878
 30
0.0
 42
-0.021820078
  0
VERTEX
  8
0
  6
CONTINUOUS
 62
     2
 10
968.615990258
 20
153.109009742
 30
0.0
 42
-0.021820078
  0
VERTEX
  8
0
  6
CONTINUOUS
 62
     2
 10
968.471272122
 20
152.976400003
 30
0.0
 42
-0.021820078
  0
VERTEX
  8
0
  6
CONTINUOUS
 62
     2
 10
968.315546982
 20
152.8569079
 30
0.0
 42
-0.021820078
  0
VERTEX
  8
0
  6
CONTINUOUS
 62
     2
 10
968.15
 20
152.751442841
 30
0.0
 42
-0.021820078
  0
VERTEX
  8
0
  6
CONTINUOUS
 62
     2
 10
967.975891089
 20
152.660807479
 30
0.0
 42
-0.021820078
  0
VERTEX
  8
0
  6
CONTINUOUS
 62
     2
 10
967.794545322
 20
152.585691603
 30
0.0
 42
-0.021820078
  0
VERTEX
  8
0
  6
CONTINUOUS
 62
     2
 10
967.607342851
 20
152.526666891
 30
0.0
 42
-0.021820078
  0
VERTEX
  8
0
  6
CONTINUOUS
 62
     2
 10
967.4157084
 20
152.484182556
 30
0.0
 42
-0.021820078
  0
VERTEX
  8
0
  6
CONTINUOUS
 62
     2
 10
967.221100421
 20
152.458561929
 30
0.0
 42
-0.021820078
  0
VERTEX
  8
0
  6
CONTINUOUS
 62
     2
 10
967.025
 20
152.45
 30
0.0
 42
-0.021820078
  0
VERTEX
  8
0
  6
CONTINUOUS
 62
     2
 10
966.828899579
 20
152.458561929
 30
0.0
 42
-0.021820078
  0
VERTEX
  8
0
  6
CONTINUOUS
 62
     2
 10
966.6342916
 20
152.484182556
 30
0.0
 42
-0.021820078
  0
VERTEX
  8
0
  6
CONTINUOUS
 62
     2
 10
966.442657149
 20
152.526666891
 30
0.0
 42
-0.021820078
  0
VERTEX
  8
0
  6
CONTINUOUS
 62
     2
 10
966.255454678
 20
152.585691603
 30
0.0
 42
-0.021820078
  0
VERTEX
  8
0
  6
CONTINUOUS
 62
     2
 10
966.074108911
 20
152.660807479
 30
0.0
 42
-0.021820078
  0
VERTEX
  8
0
  6
CONTINUOUS
 62
     2
 10
965.9
 20
152.751442841
 30
0.0
 42
-0.021820078
  0
VERTEX
  8
0
  6
CONTINUOUS
 62
     2
 10
965.734453018
 20
152.8569079
 30
0.0
 42
-0.021820078
  0
VERTEX
  8
0
  6
CONTINUOUS
 62
     2
 10
965.578727878
 20
152.976400003
 30
0.0
 42
-0.021820078
  0
VERTEX
  8
0
  6
CONTINUOUS
 62
     2
 10
965.434009742
 20
153.109009742
 30
0.0
 42
-0.021820078
  0
VERTEX
  8
0
  6
CONTINUOUS
 62
     2
 10
965.301400003
 20
153.253727878
 30
0.0
 42
-0.021820078
  0
VERTEX
  8
0
  6
CONTINUOUS
 62
     2
 10
965.1819079
 20
153.409453018
 30
0.0
 42
-0.021820078
  0
VERTEX
  8
0
  6
CONTINUOUS
 62
     2
 10
965.076442841
 20
153.575
 30
0.0
 42
-0.021820078
  0
VERTEX
  8
0
  6
CONTINUOUS
 62
     2
 10
964.985807479
 20
153.749108911
 30
0.0
 42
-0.021820078
  0
VERTEX
  8
0
  6
CONTINUOUS
 62
     2
 10
964.910691603
 20
153.930454678
 30
0.0
 42
-0.021820078
  0
VERTEX
  8
0
  6
CONTINUOUS
 62
     2
 10
964.851666891
 20
154.117657149
 30
0.0
 42
-0.021820078
  0
VERTEX
  8
0
  6
CONTINUOUS
 62
     2
 10
964.809182556
 20
154.3092916
 30
0.0
 42
-0.021820078
  0
VERTEX
  8
0
  6
CONTINUOUS
 62
     2
 10
964.783561929
 20
154.503899579
 30
0.0
 42
-0.021820078
  0
VERTEX
  8
0
  6
CONTINUOUS
 62
     2
 10
964.775
 20
154.7
 30
0.0
 42
-0.021820078
  0
VERTEX
  8
0
  6
CONTINUOUS
 62
     2
 10
964.783561929
 20
154.896100421
 30
0.0
 42
-0.021820078
  0
VERTEX
  8
0
  6
CONTINUOUS
 62
     2
 10
964.809182556
 20
155.0907084
 30
0.0
 42
-0.021820078
  0
VERTEX
  8
0
  6
CONTINUOUS
 62
     2
 10
964.851666891
 20
155.282342851
 30
0.0
 42
-0.021820078
  0
VERTEX
  8
0
  6
CONTINUOUS
 62
     2
 10
964.910691603
 20
155.469545322
 30
0.0
 42
-0.021820078
  0
VERTEX
  8
0
  6
CONTINUOUS
 62
     2
 10
964.985807479
 20
155.650891089
 30
0.0
 42
-0.021820078
  0
VERTEX
  8
0
  6
CONTINUOUS
 62
     2
 10
965.076442841
 20
155.825
 30
0.0
 42
-0.021820078
  0
VERTEX
  8
0
  6
CONTINUOUS
 62
     2
 10
965.1819079
 20
155.990546982
 30
0.0
 42
-0.021820078
  0
VERTEX
  8
0
  6
CONTINUOUS
 62
     2
 10
965.301400003
 20
156.146272122
 30
0.0
 42
-0.021820078
  0
VERTEX
  8
0
  6
CONTINUOUS
 62
     2
 10
965.434009742
 20
156.290990258
 30
0.0
 42
-0.021820078
  0
VERTEX
  8
0
  6
CONTINUOUS
 62
     2
 10
965.578727878
 20
156.423599997
 30
0.0
 42
-0.021820078
  0
VERTEX
  8
0
  6
CONTINUOUS
 62
     2
 10
965.734453018
 20
156.5430921
 30
0.0
 42
-0.021820078
  0
VERTEX
  8
0
  6
CONTINUOUS
 62
     2
 10
965.9
 20
156.648557159
 30
0.0
 42
-0.021820078
  0
VERTEX
  8
0
  6
CONTINUOUS
 62
     2
 10
966.074108911
 20
156.739192521
 30
0.0
 42
-0.021820078
  0
VERTEX
  8
0
  6
CONTINUOUS
 62
     2
 10
966.255454678
 20
156.814308397
 30
0.0
 42
-0.021820078
  0
VERTEX
  8
0
  6
CONTINUOUS
 62
     2
 10
966.442657149
 20
156.873333109
 30
0.0
 42
-0.021820078
  0
VERTEX
  8
0
  6
CONTINUOUS
 62
     2
 10
966.6342916
 20
156.915817444
 30
0.0
 42
-0.021820078
  0
VERTEX
  8
0
  6
CONTINUOUS
 62
     2
 10
966.828899579
 20
156.941438071
 30
0.0
 42
-0.021820078
  0
VERTEX
  8
0
  6
CONTINUOUS
 62
     2
 10
967.025
 20
156.95
 30
0.0
 42
-0.021820078
  0
VERTEX
  8
0
  6
CONTINUOUS
 62
     2
 10
967.221100421
 20
156.941438071
 30
0.0
 42
-0.021820078
  0
VERTEX
  8
0
  6
CONTINUOUS
 62
     2
 10
967.4157084
 20
156.915817444
 30
0.0
 42
-0.021820078
  0
VERTEX
  8
0
  6
CONTINUOUS
 62
     2
 10
967.607342851
 20
156.873333109
 30
0.0
 42
-0.021820078
  0
VERTEX
  8
0
  6
CONTINUOUS
 62
     2
 10
967.794545322
 20
156.814308397
 30
0.0
 42
-0.021820078
  0
VERTEX
  8
0
  6
CONTINUOUS
 62
     2
 10
967.975891089
 20
156.739192521
 30
0.0
 42
-0.021820078
  0
VERTEX
  8
0
  6
CONTINUOUS
 62
     2
 10
968.15
 20
156.648557159
 30
0.0
 42
-0.021820078
  0
VERTEX
  8
0
  6
CONTINUOUS
 62
     2
 10
968.315546982
 20
156.5430921
 30
0.0
 42
-0.021820078
  0
VERTEX
  8
0
  6
CONTINUOUS
 62
     2
 10
968.471272122
 20
156.423599997
 30
0.0
 42
-0.021820078
  0
VERTEX
  8
0
  6
CONTINUOUS
 62
     2
 10
968.615990258
 20
156.290990258
 30
0.0
 42
-0.021820078
  0
VERTEX
  8
0
  6
CONTINUOUS
 62
     2
 10
968.748599997
 20
156.146272122
 30
0.0
 42
-0.021820078
  0
VERTEX
  8
0
  6
CONTINUOUS
 62
     2
 10
968.8680921
 20
155.990546982
 30
0.0
 42
-0.021820078
  0
VERTEX
  8
0
  6
CONTINUOUS
 62
     2
 10
968.973557159
 20
155.825
 30
0.0
 42
-0.021820078
  0
VERTEX
  8
0
  6
CONTINUOUS
 62
     2
 10
969.064192521
 20
155.650891089
 30
0.0
 42
-0.021820078
  0
VERTEX
  8
0
  6
CONTINUOUS
 62
     2
 10
969.139308397
 20
155.469545322
 30
0.0
 42
-0.021820078
  0
VERTEX
  8
0
  6
CONTINUOUS
 62
     2
 10
969.198333109
 20
155.282342851
 30
0.0
 42
-0.021820078
  0
VERTEX
  8
0
  6
CONTINUOUS
 62
     2
 10
969.240817444
 20
155.0907084
 30
0.0
 42
-0.021820078
  0
VERTEX
  8
0
  6
CONTINUOUS
 62
     2
 10
969.266438071
 20
154.896100421
 30
0.0
 42
-0.021820078
  0
SEQEND
  8
0
  6
CONTINUOUS
 62
     2
  0
POLYLINE
  8
0
  6
CONTINUOUS
 62
     2
 66
     1
 70
     1
  0
VERTEX
  8
0
  6
CONTINUOUS
 62
     2
 10
984.275
 20
154.7
 30
0.0
 42
-0.021820078
  0
VERTEX
  8
0
  6
CONTINUOUS
 62
     2
 10
984.266438071
 20
154.503899579
 30
0.0
 42
-0.021820078
  0
VERTEX
  8
0
  6
CONTINUOUS
 62
     2
 10
984.240817444
 20
154.3092916
 30
0.0
 42
-0.021820078
  0
VERTEX
  8
0
  6
CONTINUOUS
 62
     2
 10
984.198333109
 20
154.117657149
 30
0.0
 42
-0.021820078
  0
VERTEX
  8
0
  6
CONTINUOUS
 62
     2
 10
984.139308397
 20
153.930454678
 30
0.0
 42
-0.021820078
  0
VERTEX
  8
0
  6
CONTINUOUS
 62
     2
 10
984.064192521
 20
153.749108911
 30
0.0
 42
-0.021820078
  0
VERTEX
  8
0
  6
CONTINUOUS
 62
     2
 10
983.973557159
 20
153.575
 30
0.0
 42
-0.021820078
  0
VERTEX
  8
0
  6
CONTINUOUS
 62
     2
 10
983.8680921
 20
153.409453018
 30
0.0
 42
-0.021820078
  0
VERTEX
  8
0
  6
CONTINUOUS
 62
     2
 10
983.748599997
 20
153.253727878
 30
0.0
 42
-0.021820078
  0
VERTEX
  8
0
  6
CONTINUOUS
 62
     2
 10
983.615990258
 20
153.109009742
 30
0.0
 42
-0.021820078
  0
VERTEX
  8
0
  6
CONTINUOUS
 62
     2
 10
983.471272122
 20
152.976400003
 30
0.0
 42
-0.021820078
  0
VERTEX
  8
0
  6
CONTINUOUS
 62
     2
 10
983.315546982
 20
152.8569079
 30
0.0
 42
-0.021820078
  0
VERTEX
  8
0
  6
CONTINUOUS
 62
     2
 10
983.15
 20
152.751442841
 30
0.0
 42
-0.021820078
  0
VERTEX
  8
0
  6
CONTINUOUS
 62
     2
 10
982.975891089
 20
152.660807479
 30
0.0
 42
-0.021820078
  0
VERTEX
  8
0
  6
CONTINUOUS
 62
     2
 10
982.794545322
 20
152.585691603
 30
0.0
 42
-0.021820078
  0
VERTEX
  8
0
  6
CONTINUOUS
 62
     2
 10
982.607342851
 20
152.526666891
 30
0.0
 42
-0.021820078
  0
VERTEX
  8
0
  6
CONTINUOUS
 62
     2
 10
982.4157084
 20
152.484182556
 30
0.0
 42
-0.021820078
  0
VERTEX
  8
0
  6
CONTINUOUS
 62
     2
 10
982.221100421
 20
152.458561929
 30
0.0
 42
-0.021820078
  0
VERTEX
  8
0
  6
CONTINUOUS
 62
     2
 10
982.025
 20
152.45
 30
0.0
 42
-0.021820078
  0
VERTEX
  8
0
  6
CONTINUOUS
 62
     2
 10
981.828899579
 20
152.458561929
 30
0.0
 42
-0.021820078
  0
VERTEX
  8
0
  6
CONTINUOUS
 62
     2
 10
981.6342916
 20
152.484182556
 30
0.0
 42
-0.021820078
  0
VERTEX
  8
0
  6
CONTINUOUS
 62
     2
 10
981.442657149
 20
152.526666891
 30
0.0
 42
-0.021820078
  0
VERTEX
  8
0
  6
CONTINUOUS
 62
     2
 10
981.255454678
 20
152.585691603
 30
0.0
 42
-0.021820078
  0
VERTEX
  8
0
  6
CONTINUOUS
 62
     2
 10
981.074108911
 20
152.660807479
 30
0.0
 42
-0.021820078
  0
VERTEX
  8
0
  6
CONTINUOUS
 62
     2
 10
980.9
 20
152.751442841
 30
0.0
 42
-0.021820078
  0
VERTEX
  8
0
  6
CONTINUOUS
 62
     2
 10
980.734453018
 20
152.8569079
 30
0.0
 42
-0.021820078
  0
VERTEX
  8
0
  6
CONTINUOUS
 62
     2
 10
980.578727878
 20
152.976400003
 30
0.0
 42
-0.021820078
  0
VERTEX
  8
0
  6
CONTINUOUS
 62
     2
 10
980.434009742
 20
153.109009742
 30
0.0
 42
-0.021820078
  0
VERTEX
  8
0
  6
CONTINUOUS
 62
     2
 10
980.301400003
 20
153.253727878
 30
0.0
 42
-0.021820078
  0
VERTEX
  8
0
  6
CONTINUOUS
 62
     2
 10
980.1819079
 20
153.409453018
 30
0.0
 42
-0.021820078
  0
VERTEX
  8
0
  6
CONTINUOUS
 62
     2
 10
980.076442841
 20
153.575
 30
0.0
 42
-0.021820078
  0
VERTEX
  8
0
  6
CONTINUOUS
 62
     2
 10
979.985807479
 20
153.749108911
 30
0.0
 42
-0.021820078
  0
VERTEX
  8
0
  6
CONTINUOUS
 62
     2
 10
979.910691603
 20
153.930454678
 30
0.0
 42
-0.021820078
  0
VERTEX
  8
0
  6
CONTINUOUS
 62
     2
 10
979.851666891
 20
154.117657149
 30
0.0
 42
-0.021820078
  0
VERTEX
  8
0
  6
CONTINUOUS
 62
     2
 10
979.809182556
 20
154.3092916
 30
0.0
 42
-0.021820078
  0
VERTEX
  8
0
  6
CONTINUOUS
 62
     2
 10
979.783561929
 20
154.503899579
 30
0.0
 42
-0.021820078
  0
VERTEX
  8
0
  6
CONTINUOUS
 62
     2
 10
979.775
 20
154.7
 30
0.0
 42
-0.021820078
  0
VERTEX
  8
0
  6
CONTINUOUS
 62
     2
 10
979.783561929
 20
154.896100421
 30
0.0
 42
-0.021820078
  0
VERTEX
  8
0
  6
CONTINUOUS
 62
     2
 10
979.809182556
 20
155.0907084
 30
0.0
 42
-0.021820078
  0
VERTEX
  8
0
  6
CONTINUOUS
 62
     2
 10
979.851666891
 20
155.282342851
 30
0.0
 42
-0.021820078
  0
VERTEX
  8
0
  6
CONTINUOUS
 62
     2
 10
979.910691603
 20
155.469545322
 30
0.0
 42
-0.021820078
  0
VERTEX
  8
0
  6
CONTINUOUS
 62
     2
 10
979.985807479
 20
155.650891089
 30
0.0
 42
-0.021820078
  0
VERTEX
  8
0
  6
CONTINUOUS
 62
     2
 10
980.076442841
 20
155.825
 30
0.0
 42
-0.021820078
  0
VERTEX
  8
0
  6
CONTINUOUS
 62
     2
 10
980.1819079
 20
155.990546982
 30
0.0
 42
-0.021820078
  0
VERTEX
  8
0
  6
CONTINUOUS
 62
     2
 10
980.301400003
 20
156.146272122
 30
0.0
 42
-0.021820078
  0
VERTEX
  8
0
  6
CONTINUOUS
 62
     2
 10
980.434009742
 20
156.290990258
 30
0.0
 42
-0.021820078
  0
VERTEX
  8
0
  6
CONTINUOUS
 62
     2
 10
980.578727878
 20
156.423599997
 30
0.0
 42
-0.021820078
  0
VERTEX
  8
0
  6
CONTINUOUS
 62
     2
 10
980.734453018
 20
156.5430921
 30
0.0
 42
-0.021820078
  0
VERTEX
  8
0
  6
CONTINUOUS
 62
     2
 10
980.9
 20
156.648557159
 30
0.0
 42
-0.021820078
  0
VERTEX
  8
0
  6
CONTINUOUS
 62
     2
 10
981.074108911
 20
156.739192521
 30
0.0
 42
-0.021820078
  0
VERTEX
  8
0
  6
CONTINUOUS
 62
     2
 10
981.255454678
 20
156.814308397
 30
0.0
 42
-0.021820078
  0
VERTEX
  8
0
  6
CONTINUOUS
 62
     2
 10
981.442657149
 20
156.873333109
 30
0.0
 42
-0.021820078
  0
VERTEX
  8
0
  6
CONTINUOUS
 62
     2
 10
981.6342916
 20
156.915817444
 30
0.0
 42
-0.021820078
  0
VERTEX
  8
0
  6
CONTINUOUS
 62
     2
 10
981.828899579
 20
156.941438071
 30
0.0
 42
-0.021820078
  0
VERTEX
  8
0
  6
CONTINUOUS
 62
     2
 10
982.025
 20
156.95
 30
0.0
 42
-0.021820078
  0
VERTEX
  8
0
  6
CONTINUOUS
 62
     2
 10
982.221100421
 20
156.941438071
 30
0.0
 42
-0.021820078
  0
VERTEX
  8
0
  6
CONTINUOUS
 62
     2
 10
982.4157084
 20
156.915817444
 30
0.0
 42
-0.021820078
  0
VERTEX
  8
0
  6
CONTINUOUS
 62
     2
 10
982.607342851
 20
156.873333109
 30
0.0
 42
-0.021820078
  0
VERTEX
  8
0
  6
CONTINUOUS
 62
     2
 10
982.794545322
 20
156.814308397
 30
0.0
 42
-0.021820078
  0
VERTEX
  8
0
  6
CONTINUOUS
 62
     2
 10
982.975891089
 20
156.739192521
 30
0.0
 42
-0.021820078
  0
VERTEX
  8
0
  6
CONTINUOUS
 62
     2
 10
983.15
 20
156.648557159
 30
0.0
 42
-0.021820078
  0
VERTEX
  8
0
  6
CONTINUOUS
 62
     2
 10
983.315546982
 20
156.5430921
 30
0.0
 42
-0.021820078
  0
VERTEX
  8
0
  6
CONTINUOUS
 62
     2
 10
983.471272122
 20
156.423599997
 30
0.0
 42
-0.021820078
  0
VERTEX
  8
0
  6
CONTINUOUS
 62
     2
 10
983.615990258
 20
156.290990258
 30
0.0
 42
-0.021820078
  0
VERTEX
  8
0
  6
CONTINUOUS
 62
     2
 10
983.748599997
 20
156.146272122
 30
0.0
 42
-0.021820078
  0
VERTEX
  8
0
  6
CONTINUOUS
 62
     2
 10
983.8680921
 20
155.990546982
 30
0.0
 42
-0.021820078
  0
VERTEX
  8
0
  6
CONTINUOUS
 62
     2
 10
983.973557159
 20
155.825
 30
0.0
 42
-0.021820078
  0
VERTEX
  8
0
  6
CONTINUOUS
 62
     2
 10
984.064192521
 20
155.650891089
 30
0.0
 42
-0.021820078
  0
VERTEX
  8
0
  6
CONTINUOUS
 62
     2
 10
984.139308397
 20
155.469545322
 30
0.0
 42
-0.021820078
  0
VERTEX
  8
0
  6
CONTINUOUS
 62
     2
 10
984.198333109
 20
155.282342851
 30
0.0
 42
-0.021820078
  0
VERTEX
  8
0
  6
CONTINUOUS
 62
     2
 10
984.240817444
 20
155.0907084
 30
0.0
 42
-0.021820078
  0
VERTEX
  8
0
  6
CONTINUOUS
 62
     2
 10
984.266438071
 20
154.896100421
 30
0.0
 42
-0.021820078
  0
SEQEND
  8
0
  6
CONTINUOUS
 62
     2
  0
TEXT
  8
0
  6
CONTINUOUS
 62
     2
 10
958.275
 20
144.3
 30
0.0
 40
10.0
  1
１
 50
0.0
 41
0.85
 51
0.0
  7
KANJI44
  0
TEXT
  8
0
  6
CONTINUOUS
 62
     2
 10
983.275
 20
144.3
 30
0.0
 40
10.0
  1
２
 50
0.0
 41
0.85
 51
0.0
  7
KANJI44
  0
TEXT
  8
0
  6
CONTINUOUS
 62
     2
 10
926.375
 20
199.0
 30
0.0
 40
10.0
  1
（ＮＯ）
 50
0.0
 41
0.75
 51
0.0
  7
KANJI45
  0
TEXT
  8
0
  6
CONTINUOUS
 62
     2
 10
992.375
 20
199.0
 30
0.0
 40
10.0
  1
（ＮＯ）
 50
0.0
 41
0.75
 51
0.0
  7
KANJI45
  0
TEXT
  8
0
  6
CONTINUOUS
 62
     2
 10
926.375
 20
141.5
 30
0.0
 40
10.0
  1
（ＮＣ）
 50
0.0
 41
0.75
 51
0.0
  7
KANJI45
  0
TEXT
  8
0
  6
CONTINUOUS
 62
     2
 10
992.375
 20
141.5
 30
0.0
 40
10.0
  1
（ＮＣ）
 50
0.0
 41
0.75
 51
0.0
  7
KANJI45
  0
TEXT
  8
0
  6
CONTINUOUS
 62
     2
 10
910.25
 20
112.5
 30
0.0
 40
15.0
  1
外部ＬＳリミットＳＷ
 50
0.0
 41
0.9
 51
0.0
  7
KANJI26
  0
TEXT
  8
0
  6
CONTINUOUS
 62
     2
 10
947.5
 20
93.5
 30
0.0
 40
15.0
  1
端子符号
 50
0.0
 41
0.9
 51
0.0
  7
KANJI26
  0
LINE
  8
0
  6
CONTINUOUS
 62
     2
 10
1052.0
 20
100.0
 30
0.0
 11
1052.0
 21
269.75
 31
0.0
  0
LINE
  8
0
  6
CONTINUOUS
 62
     2
 10
1052.0
 20
269.75
 30
0.0
 11
898.75
 21
269.75
 31
0.0
  0
LINE
  8
0
  6
CONTINUOUS
 62
     2
 10
898.75
 20
269.75
 30
0.0
 11
898.75
 21
100.0
 31
0.0
  0
LINE
  8
0
  6
CONTINUOUS
 62
     2
 10
1007.0
 20
100.0
 30
0.0
 11
1052.0
 21
100.0
 31
0.0
  0
LINE
  8
0
  6
CONTINUOUS
 62
     2
 10
898.75
 20
100.0
 30
0.0
 11
937.75
 21
100.0
 31
0.0
  0
LINE
  8
0
  6
CONTINUOUS
 62
     1
 10
889.875
 20
565.6
 30
0.0
 11
891.875
 21
565.3
 31
0.0
  0
LINE
  8
0
  6
CONTINUOUS
 62
     1
 10
892.375
 20
570.0
 30
0.0
 11
892.139615385
 21
568.430769231
 31
0.0
  0
LINE
  8
0
  6
CONTINUOUS
 62
     1
 10
892.139615385
 20
568.430769231
 30
0.0
 11
889.875
 21
565.6
 31
0.0
  0
LINE
  8
0
  6
CONTINUOUS
 62
     1
 10
894.075
 20
568.0
 30
0.0
 11
891.875
 21
565.3
 31
0.0
  0
LINE
  8
0
  6
CONTINUOUS
 62
     1
 10
898.275
 20
565.6
 30
0.0
 11
896.275
 21
565.3
 31
0.0
  0
LINE
  8
0
  6
CONTINUOUS
 62
     1
 10
895.775
 20
570.0
 30
0.0
 11
896.010384615
 21
568.430769231
 31
0.0
  0
LINE
  8
0
  6
CONTINUOUS
 62
     1
 10
896.010384615
 20
568.430769231
 30
0.0
 11
898.275
 21
565.6
 31
0.0
  0
LINE
  8
0
  6
CONTINUOUS
 62
     1
 10
894.075
 20
568.0
 30
0.0
 11
896.275
 21
565.3
 31
0.0
  0
CIRCLE
  8
0
  6
CONTINUOUS
 62
     1
 10
894.074984741
 20
588.9
 30
0.0
 40
3.0
  0
CIRCLE
  8
0
  6
CONTINUOUS
 62
     1
 10
894.075
 20
577.9
 30
0.0
 40
15.0
  0
LINE
  8
0
  6
CONTINUOUS
 62
     1
 10
859.075
 20
769.9
 30
0.0
 11
912.075
 21
769.9
 31
0.0
  0
LINE
  8
0
  6
CONTINUOUS
 62
     1
 10
912.075
 20
757.9
 30
0.0
 11
912.075
 21
769.9
 31
0.0
  0
LINE
  8
0
  6
CONTINUOUS
 62
     1
 10
869.075
 20
757.9
 30
0.0
 11
912.075
 21
757.9
 31
0.0
  0
LINE
  8
0
  6
CONTINUOUS
 62
     1
 10
859.075
 20
729.9
 30
0.0
 11
912.075
 21
729.9
 31
0.0
  0
LINE
  8
0
  6
CONTINUOUS
 62
     1
 10
912.075
 20
741.9
 30
0.0
 11
912.075
 21
729.9
 31
0.0
  0
LINE
  8
0
  6
CONTINUOUS
 62
     1
 10
869.075
 20
741.9
 30
0.0
 11
912.075
 21
741.9
 31
0.0
  0
LINE
  8
0
  6
CONTINUOUS
 62
     1
 10
869.075
 20
741.9
 30
0.0
 11
869.075
 21
757.9
 31
0.0
  0
LINE
  8
0
  6
CONTINUOUS
 62
     1
 10
886.075
 20
741.9
 30
0.0
 11
886.075
 21
757.9
 31
0.0
  0
LINE
  8
0
  6
CONTINUOUS
 62
     1
 10
902.075
 20
741.9
 30
0.0
 11
902.075
 21
757.9
 31
0.0
  0
LINE
  8
7
  6
CONTINUOUS
 62
     2
 10
918.075
 20
757.9
 30
0.0
 11
953.575
 21
757.9
 31
0.0
  0
LINE
  8
7
  6
CONTINUOUS
 62
     2
 10
918.075
 20
741.9
 30
0.0
 11
953.575
 21
741.9
 31
0.0
  0
LINE
  8
7
  6
CONTINUOUS
 62
     2
 10
918.075
 20
769.9
 30
0.0
 11
999.575
 21
769.9
 31
0.0
  0
LINE
  8
7
  6
CONTINUOUS
 62
     2
 10
918.075
 20
729.9
 30
0.0
 11
999.575
 21
729.9
 31
0.0
  0
LINE
  8
7
  6
CONTINUOUS
 62
     2
 10
945.075
 20
769.9
 30
0.0
 11
947.663190451
 21
779.559258263
 31
0.0
  0
LINE
  8
7
  6
CONTINUOUS
 62
     2
 10
945.075
 20
769.9
 30
0.0
 11
942.486809549
 21
779.559258263
 31
0.0
  0
LINE
  8
7
  6
CONTINUOUS
 62
     2
 10
945.075
 20
729.9
 30
0.0
 11
942.486809549
 21
720.240741737
 31
0.0
  0
LINE
  8
7
  6
CONTINUOUS
 62
     2
 10
945.075
 20
729.9
 30
0.0
 11
947.663190451
 21
720.240741737
 31
0.0
  0
LINE
  8
7
  6
CONTINUOUS
 62
     2
 10
949.075
 20
729.9
 30
0.0
 11
951.075
 21
729.9
 31
0.0
  0
LINE
  8
7
  6
CONTINUOUS
 62
     2
 10
945.075
 20
807.7
 30
0.0
 11
945.075
 21
741.9
 31
0.0
  0
LINE
  8
7
  6
CONTINUOUS
 62
     2
 10
945.075
 20
741.9
 30
0.0
 11
945.075
 21
692.1
 31
0.0
  0
LINE
  8
0
  6
CONTINUOUS
 62
     1
 10
840.575
 20
785.65
 30
0.0
 11
830.575
 21
785.65
 31
0.0
  0
LINE
  8
0
  6
CONTINUOUS
 62
     1
 10
843.075
 20
783.65
 30
0.0
 11
840.575
 21
783.65
 31
0.0
  0
LINE
  8
0
  6
CONTINUOUS
 62
     1
 10
830.575
 20
783.65
 30
0.0
 11
828.075
 21
783.65
 31
0.0
  0
LINE
  8
0
  6
CONTINUOUS
 62
     1
 10
840.575
 20
714.15
 30
0.0
 11
830.575
 21
714.15
 31
0.0
  0
LINE
  8
0
  6
CONTINUOUS
 62
     1
 10
843.075
 20
716.15
 30
0.0
 11
840.575
 21
716.15
 31
0.0
  0
LINE
  8
0
  6
CONTINUOUS
 62
     1
 10
830.575
 20
716.15
 30
0.0
 11
828.075
 21
716.15
 31
0.0
  0
LINE
  8
0
  6
CONTINUOUS
 62
     1
 10
830.575
 20
785.65
 30
0.0
 11
830.575
 21
714.15
 31
0.0
  0
LINE
  8
0
  6
CONTINUOUS
 62
     1
 10
840.575
 20
785.65
 30
0.0
 11
840.575
 21
714.15
 31
0.0
  0
LINE
  8
0
  6
CONTINUOUS
 62
     1
 10
828.075
 20
783.65
 30
0.0
 11
828.075
 21
716.15
 31
0.0
  0
ARC
  8
0
  6
CONTINUOUS
 62
     1
 10
822.953498635
 20
703.4
 30
0.0
 40
1.0
 50
270.0
 51
345.0
  0
ARC
  8
0
  6
CONTINUOUS
 62
     1
 10
822.953498635
 20
703.4
 30
0.0
 40
1.0
 50
195.0
 51
270.0
  0
LINE
  8
0
  6
CONTINUOUS
 62
     1
 10
819.705278561
 20
711.658819045
 30
0.0
 11
821.987572809
 21
703.141180955
 31
0.0
  0
ARC
  8
0
  6
CONTINUOUS
 62
     1
 10
818.739352735
 20
711.4
 30
0.0
 40
1.0
 50
15.0
 51
90.0
  0
ARC
  8
0
  6
CONTINUOUS
 62
     1
 10
822.953498635
 20
796.4
 30
0.0
 40
1.0
 50
15.0
 51
90.0
  0
ARC
  8
0
  6
CONTINUOUS
 62
     1
 10
822.953498635
 20
796.4
 30
0.0
 40
1.0
 50
90.0
 51
165.0
  0
LINE
  8
0
  6
CONTINUOUS
 62
     1
 10
819.705278561
 20
788.141180955
 30
0.0
 11
821.987572809
 21
796.658819045
 31
0.0
  0
ARC
  8
0
  6
CONTINUOUS
 62
     1
 10
818.739352735
 20
788.4
 30
0.0
 40
1.0
 50
270.0
 51
345.0
  0
LINE
  8
0
  6
CONTINUOUS
 62
     1
 10
818.739352735
 20
787.4
 30
0.0
 11
818.739352735
 21
712.4
 31
0.0
  0
LINE
  8
0
  6
CONTINUOUS
 62
     1
 10
822.953498635
 20
702.4
 30
0.0
 11
822.953498635
 21
797.4
 31
0.0
  0
LINE
  8
0
  6
CONTINUOUS
 62
     1
 10
828.075
 20
716.15
 30
0.0
 11
823.919424461
 21
703.141180955
 31
0.0
  0
LINE
  8
0
  6
CONTINUOUS
 62
     1
 10
828.075
 20
783.65
 30
0.0
 11
823.919424461
 21
796.658819045
 31
0.0
  0
LINE
  8
0
  6
CONTINUOUS
 62
     1
 10
843.075
 20
714.9
 30
0.0
 11
859.075
 21
714.9
 31
0.0
  0
LINE
  8
0
  6
CONTINUOUS
 62
     1
 10
843.075
 20
784.9
 30
0.0
 11
843.075
 21
714.9
 31
0.0
  0
LINE
  8
0
  6
CONTINUOUS
 62
     1
 10
843.075
 20
784.9
 30
0.0
 11
859.075
 21
784.9
 31
0.0
  0
LINE
  8
0
  6
CONTINUOUS
 62
     1
 10
859.075
 20
784.9
 30
0.0
 11
859.075
 21
714.9
 31
0.0
  0
LINE
  8
0
  6
LTYPE2
 62
     2
 10
851.075
 20
782.9
 30
0.0
 11
851.075
 21
768.9
 31
0.0
  0
LINE
  8
0
  6
LTYPE2
 62
     2
 10
845.075
 20
775.9
 30
0.0
 11
857.075
 21
775.9
 31
0.0
  0
LINE
  8
0
  6
LTYPE2
 62
     2
 10
851.075
 20
716.9
 30
0.0
 11
851.075
 21
730.9
 31
0.0
  0
LINE
  8
0
  6
LTYPE2
 62
     2
 10
845.075
 20
723.9
 30
0.0
 11
857.075
 21
723.9
 31
0.0
  0
LINE
  8
7
  6
CONTINUOUS
 62
     2
 10
993.575
 20
769.9
 30
0.0
 11
990.986809549
 21
760.240741737
 31
0.0
  0
LINE
  8
7
  6
CONTINUOUS
 62
     2
 10
993.575
 20
769.9
 30
0.0
 11
996.163190451
 21
760.240741737
 31
0.0
  0
LINE
  8
7
  6
CONTINUOUS
 62
     2
 10
993.575
 20
769.9
 30
0.0
 11
993.575
 21
729.9
 31
0.0
  0
LINE
  8
7
  6
CONTINUOUS
 62
     2
 10
993.575
 20
729.9
 30
0.0
 11
996.163190451
 21
739.559258263
 31
0.0
  0
LINE
  8
7
  6
CONTINUOUS
 62
     2
 10
993.575
 20
729.9
 30
0.0
 11
990.986809549
 21
739.559258263
 31
0.0
  0
LINE
  8
0
  6
CONTINUOUS
 62
     1
 10
835.075
 20
448.9
 30
0.0
 11
843.075
 21
448.9
 31
0.0
  0
LINE
  8
0
  6
CONTINUOUS
 62
     1
 10
835.075
 20
432.9
 30
0.0
 11
843.075
 21
432.9
 31
0.0
  0
LINE
  8
0
  6
CONTINUOUS
 62
     2
 10
894.075
 20
343.9
 30
0.0
 11
884.415741737
 21
346.488190451
 31
0.0
  0
LINE
  8
0
  6
CONTINUOUS
 62
     2
 10
894.075
 20
343.9
 30
0.0
 11
884.415741737
 21
341.311809549
 31
0.0
  0
LINE
  8
0
  6
CONTINUOUS
 62
     2
 10
894.075
 20
346.4
 30
0.0
 11
894.075
 21
338.9
 31
0.0
  0
LINE
  8
0
  6
CONTINUOUS
 62
     2
 10
824.075
 20
378.4
 30
0.0
 11
824.075
 21
366.9
 31
0.0
  0
LINE
  8
0
  6
CONTINUOUS
 62
     2
 10
824.075
 20
371.9
 30
0.0
 11
814.415741737
 21
374.488190451
 31
0.0
  0
LINE
  8
0
  6
CONTINUOUS
 62
     2
 10
824.075
 20
371.9
 30
0.0
 11
814.415741737
 21
369.311809549
 31
0.0
  0
TEXT
  8
7
  6
CONTINUOUS
 62
     2
 10
865.175
 20
375.9
 30
0.0
 40
15.0
  1
３５
 50
0.0
 41
0.9
 51
0.0
  7
KANJI26
  0
TEXT
  8
7
  6
CONTINUOUS
 62
     2
 10
927.075
 20
319.9
 30
0.0
 40
15.0
  1
１８
 50
0.0
 41
0.9
 51
0.0
  7
KANJI26
  0
TEXT
  8
7
  6
CONTINUOUS
 62
     2
 10
836.175
 20
375.9
 30
0.0
 40
15.0
  1
Ｐ
 50
0.0
 41
0.9
 51
0.0
  7
KANJI26
  0
TEXT
  8
7
  6
CONTINUOUS
 62
     2
 10
943.575
 20
566.5
 30
0.0
 40
15.0
  1
４０
 50
90.0
 41
0.9
 51
0.0
  7
KANJI26
  0
TEXT
  8
7
  6
CONTINUOUS
 62
     2
 10
995.149126767
 20
703.965188182
 30
0.0
 40
15.0
  1
ＬＳユニット組付位置
 50
0.0
 41
0.9
 51
0.0
  7
KANJI26
  0
TEXT
  8
7
  6
CONTINUOUS
 62
     2
 10
989.575
 20
738.5
 30
0.0
 40
15.0
  1
４０
 50
90.0
 41
0.9
 51
0.0
  7
KANJI26
  0
TEXT
  8
7
  6
CONTINUOUS
 62
     2
 10
968.575
 20
738.5
 30
0.0
 40
15.0
  1
１６
 50
90.0
 41
0.9
 51
0.0
  7
KANJI26
  0
TEXT
  8
7
  6
CONTINUOUS
 62
     2
 10
941.075
 20
784.9
 30
0.0
 40
15.0
  1
１２
 50
90.0
 41
0.9
 51
0.0
  7
KANJI26
  0
TEXT
  8
7
  6
CONTINUOUS
 62
     2
 10
941.075
 20
692.1
 30
0.0
 40
15.0
  1
１２
 50
90.0
 41
0.9
 51
0.0
  7
KANJI26
  0
TEXT
  8
7
  6
CONTINUOUS
 62
     2
 10
828.175
 20
390.9
 30
-1.5
 40
15.0
  1
ｍｉｎ
 50
0.0
 41
0.8
 51
0.0
  7
KANJI46
  0
TEXT
  8
7
  6
CONTINUOUS
 62
     2
 10
868.175
 20
635.9
 30
0.0
 40
15.0
  1
２５
 50
0.0
 41
0.9
 51
0.0
  7
KANJI26
  0
TEXT
  8
0
  6
CONTINUOUS
 62
     2
 10
949.825
 20
677.56
 30
0.84
 40
8.4
  1
Ｈ１０
 50
0.0
 41
0.9
 51
0.0
  7
KANJI47
  0
TEXT
  8
0
  6
CONTINUOUS
 62
     2
 10
949.825
 20
669.16
 30
0.84
 40
8.4
  1
ｄ９
 50
0.0
 41
0.9
 51
0.0
  7
KANJI47
  0
TEXT
  8
0
  6
CONTINUOUS
 62
     2
 10
911.075
 20
669.9
 30
0.0
 40
15.0
  1
φ１６
 50
0.0
 41
0.9
 51
0.0
  7
KANJI26
  0
LINE
  8
0
  6
CONTINUOUS
 62
     1
 10
902.075
 20
780.9
 30
0.0
 11
886.075
 21
780.9
 31
0.0
  0
LINE
  8
0
  6
CONTINUOUS
 62
     1
 10
879.075
 20
772.9
 30
0.0
 11
909.075
 21
772.9
 31
0.0
  0
LINE
  8
0
  6
LTYPE2
 62
     2
 10
889.675
 20
775.55
 30
0.0
 11
898.075
 21
775.55
 31
0.0
  0
CIRCLE
  8
0
  6
CONTINUOUS
 62
     1
 10
894.075
 20
775.55
 30
0.0
 40
2.0
  0
LINE
  8
0
  6
CONTINUOUS
 62
     1
 10
879.075
 20
769.9
 30
0.0
 11
879.075
 21
772.9
 31
0.0
  0
LINE
  8
0
  6
CONTINUOUS
 62
     1
 10
886.075
 20
772.9
 30
0.0
 11
886.075
 21
780.9
 31
0.0
  0
LINE
  8
0
  6
LTYPE1
 62
     2
 10
886.075
 20
772.9
 30
0.0
 11
886.075
 21
757.9
 31
0.0
  0
LINE
  8
0
  6
CONTINUOUS
 62
     1
 10
909.075
 20
769.9
 30
0.0
 11
909.075
 21
772.9
 31
0.0
  0
LINE
  8
0
  6
CONTINUOUS
 62
     1
 10
902.075
 20
772.9
 30
0.0
 11
902.075
 21
780.9
 31
0.0
  0
LINE
  8
0
  6
LTYPE1
 62
     2
 10
902.075
 20
757.9
 30
0.0
 11
902.075
 21
772.9
 31
0.0
  0
LINE
  8
0
  6
CONTINUOUS
 62
     1
 10
902.075
 20
718.9
 30
0.0
 11
886.075
 21
718.9
 31
0.0
  0
LINE
  8
0
  6
CONTINUOUS
 62
     1
 10
902.075
 20
718.9
 30
0.0
 11
886.075
 21
718.9
 31
0.0
  0
LINE
  8
0
  6
CONTINUOUS
 62
     1
 10
879.075
 20
726.9
 30
0.0
 11
909.075
 21
726.9
 31
0.0
  0
LINE
  8
0
  6
LTYPE2
 62
     2
 10
889.675
 20
724.25
 30
0.0
 11
898.075
 21
724.25
 31
0.0
  0
LINE
  8
0
  6
CONTINUOUS
 62
     1
 10
909.075
 20
729.9
 30
0.0
 11
909.075
 21
726.9
 31
0.0
  0
LINE
  8
0
  6
CONTINUOUS
 62
     1
 10
902.075
 20
726.9
 30
0.0
 11
902.075
 21
718.9
 31
0.0
  0
LINE
  8
0
  6
CONTINUOUS
 62
     1
 10
902.075
 20
726.9
 30
0.0
 11
902.075
 21
718.9
 31
0.0
  0
LINE
  8
0
  6
LTYPE1
 62
     2
 10
902.075
 20
741.9
 30
0.0
 11
902.075
 21
726.9
 31
0.0
  0
CIRCLE
  8
0
  6
CONTINUOUS
 62
     1
 10
894.075
 20
724.25
 30
0.0
 40
2.0
  0
LINE
  8
0
  6
CONTINUOUS
 62
     1
 10
886.075
 20
718.9
 30
0.0
 11
886.075
 21
726.9
 31
0.0
  0
LINE
  8
0
  6
CONTINUOUS
 62
     1
 10
886.075
 20
718.9
 30
0.0
 11
886.075
 21
726.9
 31
0.0
  0
LINE
  8
0
  6
CONTINUOUS
 62
     1
 10
879.075
 20
729.9
 30
0.0
 11
879.075
 21
726.9
 31
0.0
  0
LINE
  8
0
  6
LTYPE1
 62
     2
 10
886.075
 20
726.9
 30
0.0
 11
886.075
 21
741.9
 31
0.0
  0
LINE
  8
0
  6
LTYPE4
 62
     2
 10
1113.754371872
 20
673.937122298
 30
0.0
 11
1169.778069796
 21
658.925617682
 31
0.0
  0
LINE
  8
0
  6
LTYPE4
 62
     2
 10
1133.117352673
 20
684.381497553
 30
0.0
 11
1178.515866509
 21
672.217002433
 31
0.0
  0
LINE
  8
0
  6
CONTINUOUS
 62
     1
 10
1175.534006194
 20
678.08884278
 30
0.0
 11
1136.896973143
 21
688.441604584
 31
0.0
  0
CIRCLE
  8
0
  6
CONTINUOUS
 62
     1
 10
1149.493627444
 20
664.360817629
 30
0.0
 40
9.36
  0
LINE
  8
0
  6
LTYPE4
 62
     2
 10
1152.858275031
 20
676.917853371
 30
0.0
 11
1146.128979858
 21
651.803781887
 31
0.0
  0
CIRCLE
  8
0
  6
CONTINUOUS
 62
     2
 10
1149.493627444
 20
664.360817629
 30
0.0
 40
10.47
  0
LINE
  8
0
  6
CONTINUOUS
 62
     1
 10
1151.995743407
 20
655.925806324
 30
0.0
 11
1164.552779149
 21
652.561158738
 31
0.0
  0
LINE
  8
0
  6
CONTINUOUS
 62
     1
 10
1161.271298663
 20
624.85969362
 30
0.0
 11
1176.698691897
 21
682.435508999
 31
0.0
  0
LINE
  8
0
  6
CONTINUOUS
 62
     1
 10
1182.494246855
 20
680.882594728
 30
0.0
 11
1167.351356999
 21
624.368560411
 31
0.0
  0
LINE
  8
0
  6
CONTINUOUS
 62
     1
 10
1171.670302889
 20
679.124118961
 30
0.0
 11
1161.317541085
 21
640.487085909
 31
0.0
  0
LINE
  8
0
  6
CONTINUOUS
 62
     1
 10
1155.878029084
 20
670.414693719
 30
0.0
 11
1168.435064825
 21
667.050046132
 31
0.0
  0
LINE
  8
0
  6
CONTINUOUS
 62
     1
 10
1158.419763606
 20
641.263543045
 30
0.0
 11
1161.65500167
 21
653.337615873
 31
0.0
  0
LINE
  8
7
  6
CONTINUOUS
 62
     2
 10
1087.199404429
 20
448.75050745
 30
0.0
 11
1096.858662692
 21
451.338697901
 31
0.0
  0
LINE
  8
7
  6
CONTINUOUS
 62
     2
 10
1087.199404429
 20
547.195896098
 30
0.0
 11
1087.199404429
 21
442.75050745
 31
0.0
  0
LINE
  8
7
  6
CONTINUOUS
 62
     2
 10
1098.54968209
 20
617.965188182
 30
0.0
 11
1096.956105843
 21
627.837397395
 31
0.0
  0
LINE
  8
7
  6
CONTINUOUS
 62
     2
 10
1098.54968209
 20
617.965188182
 30
0.0
 11
1092.233499971
 21
625.717984028
 31
0.0
  0
LINE
  8
0
  6
LTYPE4
 62
     2
 10
1161.74968209
 20
577.9
 30
0.0
 11
1319.075
 21
577.9
 31
0.0
  0
LINE
  8
7
  6
CONTINUOUS
 62
     2
 10
1092.754127133
 20
619.518102452
 30
0.0
 11
1078.036415972
 21
623.461701272
 31
0.0
  0
LINE
  8
7
  6
CONTINUOUS
 62
     2
 10
1083.83197093
 20
621.908787002
 30
0.0
 11
1078.83197093
 21
613.248532964
 31
0.0
  0
LINE
  8
7
  6
CONTINUOUS
 62
     2
 10
1083.83197093
 20
621.908787002
 30
0.0
 11
1083.83197093
 21
611.908787002
 31
0.0
  0
ARC
  8
7
  6
CONTINUOUS
 62
     2
 10
1248.075
 20
577.9
 30
0.0
 40
170.036895795
 50
165.0
 51
180.0
  0
LINE
  8
7
  6
CONTINUOUS
 62
     2
 10
1078.038104205
 20
577.9
 30
0.0
 11
1080.626294656
 21
587.559258263
 31
0.0
  0
LINE
  8
7
  6
CONTINUOUS
 62
     2
 10
1078.038104205
 20
577.9
 30
0.0
 11
1075.449913754
 21
587.559258263
 31
0.0
  0
LINE
  8
7
  6
CONTINUOUS
 62
     2
 10
1155.74968209
 20
577.9
 30
0.0
 11
1072.038104205
 21
577.9
 31
0.0
  0
LINE
  8
7
  6
CONTINUOUS
 62
     2
 10
1248.075
 20
448.75050745
 30
0.0
 11
1087.199404429
 21
448.75050745
 31
0.0
  0
LINE
  8
7
  6
CONTINUOUS
 62
     2
 10
1087.199404429
 20
448.75050745
 30
0.0
 11
1096.858662692
 21
446.162316999
 31
0.0
  0
TEXT
  8
7
  6
CONTINUOUS
 62
     2
 10
1143.737202214
 20
452.75050745
 30
0.0
 40
15.0
  1
１６５
 50
0.0
 41
0.9
 51
0.0
  7
KANJI26
  0
LINE
  8
0
  6
LTYPE5
 62
     2
 10
1109.065630435
 20
588.437322861
 30
0.0
 11
1122.00658269
 21
636.733614175
 31
0.0
  0
ARC
  8
0
  6
LTYPE1
 62
     1
 10
1115.743161798
 20
613.358209179
 30
0.0
 40
16.0
 50
255.0
 51
129.340912304
  0
ARC
  8
0
  6
CONTINUOUS
 62
     1
 10
1115.743161798
 20
613.358209179
 30
0.0
 40
16.0
 50
129.340912304
 51
200.659087696
  0
LINE
  8
0
  6
CONTINUOUS
 62
     1
 10
1107.9166651
 20
597.672287425
 30
0.0
 11
1104.92137386
 21
586.493708331
 31
0.0
  0
LINE
  8
0
  6
CONTINUOUS
 62
     1
 10
1099.954330495
 20
600.797928225
 30
0.0
 11
1087.199404429
 21
553.195896098
 31
0.0
  0
LINE
  8
0
  6
CONTINUOUS
 62
     1
 10
1107.228803777
 20
597.037005668
 30
0.0
 11
1104.438410947
 21
586.623117854
 31
0.0
  0
LINE
  8
0
  6
LTYPE4
 62
     2
 10
1097.816559989
 20
597.456104049
 30
0.0
 11
1116.362335854
 21
592.486778383
 31
0.0
  0
LINE
  8
0
  6
LTYPE1
 62
     2
 10
1109.450707149
 20
603.397410291
 30
0.0
 11
1116.212187933
 21
601.585676975
 31
0.0
  0
LINE
  8
0
  6
LTYPE1
 62
     2
 10
1116.212187933
 20
601.585676975
 30
0.0
 11
1114.262957
 21
594.311048096
 31
0.0
  0
ARC
  8
0
  6
LTYPE1
 62
     1
 10
1115.743161798
 20
613.358209179
 30
0.0
 40
16.0
 50
200.659087696
 51
255.0
  0
LINE
  8
0
  6
LTYPE1
 62
     2
 10
1109.450707149
 20
603.397410291
 30
0.0
 11
1107.9166651
 21
597.672287425
 31
0.0
  0
LINE
  8
0
  6
LTYPE1
 62
     1
 10
1100.269766206
 20
601.975150326
 30
0.0
 11
1099.954330495
 21
600.797928225
 31
0.0
  0
LINE
  8
0
  6
LTYPE1
 62
     1
 10
1107.997172817
 20
599.904597965
 30
0.0
 11
1107.228803777
 21
597.037005668
 31
0.0
  0
LINE
  8
0
  6
LTYPE5
 62
     2
 10
1098.54968209
 20
617.965188182
 30
0.0
 11
1255.238497148
 21
575.980546724
 31
0.0
  0
LINE
  8
0
  6
CONTINUOUS
 62
     1
 10
1099.82147847
 20
604.165821024
 30
0.0
 11
1220.146104632
 21
547.078306284
 31
0.0
  0
LINE
  8
0
  6
CONTINUOUS
 62
     1
 10
1099.82147847
 20
604.165821024
 30
0.0
 11
1106.550773643
 21
629.279892507
 31
0.0
  0
LINE
  8
0
  6
LTYPE1
 62
     1
 10
1100.269766206
 20
601.975150326
 30
0.0
 11
1109.84853065
 21
599.408528129
 31
0.0
  0
CIRCLE
  8
0
  6
CONTINUOUS
 62
     1
 10
1115.743161798
 20
613.358209179
 30
0.0
 40
6.49995
  0
LINE
  8
0
  6
CONTINUOUS
 62
     1
 10
1113.806119602
 20
620.60648148
 30
0.0
 11
1108.504455701
 21
615.297814632
 31
0.0
  0
CIRCLE
  8
0
  6
LTYPE1
 62
     2
 10
1115.743161798
 20
613.358209179
 30
0.0
 40
3.2
  0
CIRCLE
  8
0
  6
CONTINUOUS
 62
     1
 10
1115.743161798
 20
613.358209179
 30
0.0
 40
4.0
  0
LINE
  8
0
  6
CONTINUOUS
 62
     1
 10
1121.044825699
 20
618.666876027
 30
0.0
 11
1122.981867896
 21
611.418603726
 31
0.0
  0
LINE
  8
0
  6
CONTINUOUS
 62
     1
 10
1121.044825699
 20
618.666876027
 30
0.0
 11
1113.806119602
 21
620.60648148
 31
0.0
  0
LINE
  8
0
  6
LTYPE1
 62
     1
 10
1108.034337559
 20
630.952925115
 30
0.0
 11
1108.349773271
 21
632.130147215
 31
0.0
  0
LINE
  8
0
  6
LTYPE4
 62
     2
 10
1105.85109981
 20
636.714302808
 30
0.0
 11
1126.715097658
 21
631.123811434
 31
0.0
  0
LINE
  8
0
  6
LTYPE1
 62
     2
 10
1115.274135664
 20
625.130741383
 30
0.0
 11
1122.035616448
 21
623.319008067
 31
0.0
  0
LINE
  8
0
  6
LTYPE1
 62
     2
 10
1123.984847381
 20
630.593636946
 30
0.0
 11
1122.035616448
 21
623.319008067
 31
0.0
  0
LINE
  8
0
  6
CONTINUOUS
 62
     1
 10
1116.53011321
 20
631.749965051
 30
0.0
 11
1119.32050604
 21
642.163852865
 31
0.0
  0
LINE
  8
0
  6
CONTINUOUS
 62
     1
 10
1108.349773271
 20
632.130147215
 30
0.0
 11
1121.104699337
 21
679.732179342
 31
0.0
  0
LINE
  8
0
  6
LTYPE1
 62
     1
 10
1115.76174417
 20
628.882372754
 30
0.0
 11
1116.53011321
 21
631.749965051
 31
0.0
  0
LINE
  8
0
  6
CONTINUOUS
 62
     1
 10
1117.680203995
 20
606.109936878
 30
0.0
 11
1110.441497897
 21
608.049542331
 31
0.0
  0
LINE
  8
0
  6
CONTINUOUS
 62
     1
 10
1110.441497897
 20
608.049542331
 30
0.0
 11
1108.504455701
 21
615.297814632
 31
0.0
  0
LINE
  8
0
  6
CONTINUOUS
 62
     1
 10
1117.680203995
 20
606.109936878
 30
0.0
 11
1122.981867896
 21
611.418603726
 31
0.0
  0
LINE
  8
0
  6
LTYPE1
 62
     1
 10
1108.034337559
 20
630.952925115
 30
0.0
 11
1117.613102004
 21
628.386302917
 31
0.0
  0
LINE
  8
0
  6
CONTINUOUS
 62
     1
 10
1119.803468953
 20
642.034443343
 30
0.0
 11
1116.244707083
 21
628.752963231
 31
0.0
  0
LINE
  8
0
  6
LTYPE1
 62
     2
 10
1116.808177712
 20
630.855864249
 30
0.0
 11
1116.244707083
 21
628.752963231
 31
0.0
  0
LINE
  8
0
  6
CONTINUOUS
 62
     1
 10
1104.92137386
 20
586.493708331
 30
0.0
 11
1111.682854644
 21
584.681975015
 31
0.0
  0
LINE
  8
0
  6
CONTINUOUS
 62
     1
 10
1104.341818364
 20
586.648999758
 30
0.0
 11
1103.976186432
 21
577.17066587
 31
0.0
  0
LINE
  8
0
  6
CONTINUOUS
 62
     1
 10
1133.993549455
 20
523.057747661
 30
0.0
 11
1139.789104413
 21
521.50483339
 31
0.0
  0
LINE
  8
0
  6
LTYPE4
 62
     2
 10
1139.710596289
 20
531.257465675
 30
0.0
 11
1094.312082453
 21
543.421960795
 31
0.0
  0
LINE
  8
0
  6
LTYPE4
 62
     2
 10
1103.094343441
 20
572.334101703
 30
0.0
 11
1148.492857277
 21
560.169606584
 31
0.0
  0
LINE
  8
0
  6
CONTINUOUS
 62
     1
 10
1145.510996962
 20
566.041446931
 30
0.0
 11
1135.158235158
 21
527.404413879
 31
0.0
  0
LINE
  8
0
  6
CONTINUOUS
 62
     1
 10
1135.158235158
 20
527.404413879
 30
0.0
 11
1135.254827741
 21
527.378531975
 31
0.0
  0
LINE
  8
0
  6
CONTINUOUS
 62
     1
 10
1096.521202107
 20
537.757175683
 30
0.0
 11
1135.158235158
 21
527.404413879
 31
0.0
  0
LINE
  8
0
  6
CONTINUOUS
 62
     1
 10
1145.510996962
 20
566.041446931
 30
0.0
 11
1106.873963911
 21
576.394208735
 31
0.0
  0
LINE
  8
0
  6
LTYPE4
 62
     2
 10
1085.663214292
 20
561.372088358
 30
0.0
 11
1141.686912217
 21
546.360583742
 31
0.0
  0
LINE
  8
0
  6
CONTINUOUS
 62
     1
 10
1103.976186432
 20
577.17066587
 30
0.0
 11
1100.740948368
 21
565.096593042
 31
0.0
  0
LINE
  8
0
  6
CONTINUOUS
 62
     1
 10
1118.183093525
 20
563.73586811
 30
0.0
 11
1112.644365959
 21
543.065055427
 31
0.0
  0
ARC
  8
0
  6
CONTINUOUS
 62
     1
 10
1120.114945177
 20
563.21823002
 30
0.0
 40
2.0
 50
75.0
 51
165.0
  0
LINE
  8
0
  6
CONTINUOUS
 62
     1
 10
1114.058579522
 20
540.615565685
 30
0.0
 11
1134.729392204
 21
535.076838119
 31
0.0
  0
ARC
  8
0
  6
CONTINUOUS
 62
     1
 10
1135.247030295
 20
537.008689772
 30
0.0
 40
2.0
 50
255.0
 51
345.0
  0
LINE
  8
0
  6
LTYPE4
 62
     2
 10
1124.0316392
 20
536.493905745
 30
0.0
 11
1131.382100081
 21
563.926199212
 31
0.0
  0
LINE
  8
0
  6
CONTINUOUS
 62
     1
 10
1091.081690105
 20
567.684783493
 30
0.0
 11
1117.35487258
 21
560.644905466
 31
0.0
  0
LINE
  8
0
  6
CONTINUOUS
 62
     1
 10
1111.703593042
 20
575.100113509
 30
0.0
 11
1108.442473074
 21
562.929448098
 31
0.0
  0
LINE
  8
0
  6
CONTINUOUS
 62
     1
 10
1106.873963911
 20
576.394208735
 30
0.0
 11
1103.638725847
 21
564.320135906
 31
0.0
  0
LINE
  8
0
  6
CONTINUOUS
 62
     1
 10
1114.262957
 20
594.311048096
 30
0.0
 11
1111.682854644
 21
584.681975015
 31
0.0
  0
LINE
  8
0
  6
CONTINUOUS
 62
     1
 10
1120.632583267
 20
565.150081672
 30
0.0
 11
1141.30339595
 21
559.611354107
 31
0.0
  0
LINE
  8
0
  6
CONTINUOUS
 62
     1
 10
1142.717609512
 20
557.161864364
 30
0.0
 11
1137.178881947
 21
536.491051682
 31
0.0
  0
LINE
  8
0
  6
CONTINUOUS
 62
     1
 10
1154.931994269
 20
578.018867708
 30
0.0
 11
1139.789104413
 21
521.50483339
 31
0.0
  0
LINE
  8
0
  6
CONTINUOUS
 62
     1
 10
1133.993549455
 20
523.057747661
 30
0.0
 11
1149.42094269
 21
580.633563039
 31
0.0
  0
ARC
  8
0
  6
CONTINUOUS
 62
     1
 10
1140.78575786
 20
557.679502455
 30
0.0
 40
2.0
 50
345.0
 51
75.0
  0
LINE
  8
0
  6
CONTINUOUS
 62
     1
 10
1152.083009055
 20
567.386310139
 30
0.0
 11
1179.611895105
 21
560.009967354
 31
0.0
  0
LINE
  8
0
  6
CONTINUOUS
 62
     1
 10
1239.298713969
 20
618.55681743
 30
0.0
 11
1106.550773643
 21
629.279892507
 31
0.0
  0
LINE
  8
0
  6
CONTINUOUS
 62
     1
 10
1099.82147847
 20
604.165821024
 30
0.0
 11
1106.550773643
 21
629.279892507
 31
0.0
  0
LINE
  8
0
  6
CONTINUOUS
 62
     1
 10
1119.803468953
 20
642.034443343
 30
0.0
 11
1126.564949737
 21
640.222710027
 31
0.0
  0
LINE
  8
0
  6
CONTINUOUS
 62
     1
 10
1119.223913457
 20
642.18973477
 30
0.0
 11
1123.64643386
 21
650.581028668
 31
0.0
  0
LINE
  8
0
  6
CONTINUOUS
 62
     1
 10
1126.564949737
 20
640.222710027
 30
0.0
 11
1123.270934066
 21
627.929276181
 31
0.0
  0
LINE
  8
0
  6
CONTINUOUS
 62
     1
 10
1117.222413661
 20
665.243291948
 30
0.0
 11
1129.779449402
 21
661.878644362
 31
0.0
  0
LINE
  8
0
  6
CONTINUOUS
 62
     1
 10
1123.64643386
 20
650.581028668
 30
0.0
 11
1126.881671923
 21
662.655101497
 31
0.0
  0
LINE
  8
0
  6
CONTINUOUS
 62
     1
 10
1100.740948368
 20
565.096593042
 30
0.0
 11
1096.858662692
 21
550.607705647
 31
0.0
  0
ARC
  8
0
  6
CONTINUOUS
 62
     1
 10
1114.576217612
 20
542.547417337
 30
0.0
 40
2.0
 50
165.0
 51
255.0
  0
LINE
  8
0
  6
CONTINUOUS
 62
     1
 10
1104.586069302
 20
548.537153286
 30
0.0
 11
1101.350831238
 21
536.463080458
 31
0.0
  0
LINE
  8
0
  6
CONTINUOUS
 62
     1
 10
1099.730558266
 20
549.734655929
 30
0.0
 11
1096.521202107
 21
537.757175683
 31
0.0
  0
LINE
  8
0
  6
CONTINUOUS
 62
     1
 10
1087.199404429
 20
553.195896098
 30
0.0
 11
1113.472586904
 21
546.156018072
 31
0.0
  0
LINE
  8
0
  6
CONTINUOUS
 62
     1
 10
1141.726602274
 20
687.147509359
 30
0.0
 11
1131.37384047
 21
648.510476307
 31
0.0
  0
LINE
  8
0
  6
CONTINUOUS
 62
     1
 10
1140.414254054
 20
682.249759125
 30
0.0
 11
1131.37384047
 21
648.510476307
 31
0.0
  0
LINE
  8
0
  6
CONTINUOUS
 62
     1
 10
1136.896973143
 20
688.441604584
 30
0.0
 11
1126.544211339
 21
649.804571533
 31
0.0
  0
LINE
  8
0
  6
CONTINUOUS
 62
     1
 10
1121.104699337
 20
679.732179342
 30
0.0
 11
1133.661735079
 21
676.367531756
 31
0.0
  0
LINE
  8
0
  6
LTYPE4
 62
     2
 10
1169.733605521
 20
643.304861524
 30
0.0
 11
1124.335091685
 21
655.469356644
 31
0.0
  0
LINE
  8
0
  6
CONTINUOUS
 62
     1
 10
1126.544211339
 20
649.804571533
 30
0.0
 11
1165.18124439
 21
639.451809729
 31
0.0
  0
LINE
  8
0
  6
CONTINUOUS
 62
     1
 10
1309.075
 20
631.9
 30
0.0
 11
1309.075
 21
743.9
 31
0.0
  0
CIRCLE
  8
0
  6
CONTINUOUS
 62
     1
 10
1248.075
 20
687.9
 30
0.0
 40
15.5
  0
LINE
  8
0
  6
CONTINUOUS
 62
     1
 10
1253.027830189
 20
704.684500979
 30
0.0
 11
1277.405188679
 21
697.491143417
 31
0.0
  0
LINE
  8
0
  6
CONTINUOUS
 62
     1
 10
1253.027830189
 20
671.115499021
 30
0.0
 11
1277.405188679
 21
678.308856583
 31
0.0
  0
ARC
  8
0
  6
CONTINUOUS
 62
     1
 10
1274.575
 20
687.9
 30
0.0
 40
10.0
 50
0.0
 51
150.0
  0
ARC
  8
0
  6
CONTINUOUS
 62
     1
 10
1274.575
 20
687.9
 30
0.0
 40
10.0
 50
210.0
 51
0.0
  0
LINE
  8
0
  6
CONTINUOUS
 62
     1
 10
1262.746400751
 20
682.9
 30
0.0
 11
1265.914745962
 21
682.9
 31
0.0
  0
LINE
  8
0
  6
CONTINUOUS
 62
     1
 10
1262.746400751
 20
692.9
 30
0.0
 11
1265.914745962
 21
692.9
 31
0.0
  0
ARC
  8
0
  6
LTYPE2
 62
     2
 10
1248.075
 20
687.9
 30
0.0
 40
26.5
 50
345.963756532
 51
14.715071651
  0
LINE
  8
0
  6
CONTINUOUS
 62
     1
 10
1243.122169811
 20
704.684500979
 30
0.0
 11
1218.744811321
 21
697.491143417
 31
0.0
  0
LINE
  8
0
  6
CONTINUOUS
 62
     1
 10
1243.122169811
 20
671.115499021
 30
0.0
 11
1218.744811321
 21
678.308856583
 31
0.0
  0
ARC
  8
0
  6
CONTINUOUS
 62
     1
 10
1221.575
 20
687.9
 30
0.0
 40
10.0
 50
30.0
 51
180.0
  0
ARC
  8
0
  6
CONTINUOUS
 62
     1
 10
1221.575
 20
687.9
 30
0.0
 40
10.0
 50
180.0
 51
330.0
  0
LINE
  8
0
  6
CONTINUOUS
 62
     1
 10
1233.403599249
 20
682.9
 30
0.0
 11
1230.235254038
 21
682.9
 31
0.0
  0
LINE
  8
0
  6
CONTINUOUS
 62
     1
 10
1233.403599249
 20
692.9
 30
0.0
 11
1230.235254038
 21
692.9
 31
0.0
  0
ARC
  8
0
  6
LTYPE2
 62
     2
 10
1248.075
 20
687.9
 30
0.0
 40
26.5
 50
165.284928349
 51
194.036243468
  0
ARC
  8
0
  6
CONTINUOUS
 62
     1
 10
1248.075
 20
687.9
 30
0.0
 40
17.5
 50
16.601549599
 51
163.398450401
  0
ARC
  8
0
  6
CONTINUOUS
 62
     1
 10
1248.075
 20
687.9
 30
0.0
 40
17.5
 50
196.601549599
 51
343.398450401
  0
ARC
  8
0
  6
LTYPE2
 62
     2
 10
1248.075
 20
687.9
 30
0.0
 40
25.0
 50
63.434948823
 51
114.623564786
  0
ARC
  8
0
  6
LTYPE2
 62
     2
 10
1248.075
 20
687.9
 30
0.0
 40
25.0
 50
245.376435214
 51
296.565051177
  0
ARC
  8
0
  6
LTYPE2
 62
     2
 10
1248.075
 20
687.9
 30
0.0
 40
51.0
 50
307.303948278
 51
325.097504384
  0
LINE
  8
0
  6
LTYPE2
 62
     2
 10
1280.075
 20
655.9
 30
0.0
 11
1289.075
 21
646.9
 31
0.0
  0
ARC
  8
0
  6
LTYPE2
 62
     2
 10
1248.075
 20
687.9
 30
0.0
 40
51.0
 50
217.303948278
 51
235.097504384
  0
LINE
  8
0
  6
LTYPE2
 62
     2
 10
1216.075
 20
655.9
 30
0.0
 11
1207.075
 21
646.9
 31
0.0
  0
CIRCLE
  8
0
  6
CONTINUOUS
 62
     6
 10
1248.075
 20
712.9
 30
0.0
 40
3.999998
  0
LINE
  8
0
  6
CONTINUOUS
 62
     6
 10
1252.074998
 20
715.2058812
 30
0.0
 11
1252.074998
 21
710.5941188
 31
0.0
  0
LINE
  8
0
  6
CONTINUOUS
 62
     6
 10
1252.074998
 20
710.5941188
 30
0.0
 11
1248.075
 21
708.2882376
 31
0.0
  0
LINE
  8
0
  6
CONTINUOUS
 62
     6
 10
1244.075002
 20
715.2058812
 30
0.0
 11
1244.075002
 21
710.5941188
 31
0.0
  0
LINE
  8
0
  6
CONTINUOUS
 62
     6
 10
1244.075002
 20
710.5941188
 30
0.0
 11
1248.075
 21
708.2882376
 31
0.0
  0
LINE
  8
0
  6
CONTINUOUS
 62
     6
 10
1252.074998
 20
715.2058812
 30
0.0
 11
1248.075
 21
717.5117624
 31
0.0
  0
LINE
  8
0
  6
CONTINUOUS
 62
     6
 10
1244.075002
 20
715.2058812
 30
0.0
 11
1248.075
 21
717.5117624
 31
0.0
  0
CIRCLE
  8
0
  6
CONTINUOUS
 62
     6
 10
1248.075
 20
662.9
 30
0.0
 40
3.999998
  0
LINE
  8
0
  6
CONTINUOUS
 62
     6
 10
1252.074998
 20
660.5941188
 30
0.0
 11
1252.074998
 21
665.2058812
 31
0.0
  0
LINE
  8
0
  6
CONTINUOUS
 62
     6
 10
1252.074998
 20
665.2058812
 30
0.0
 11
1248.075
 21
667.5117624
 31
0.0
  0
LINE
  8
0
  6
CONTINUOUS
 62
     6
 10
1244.075002
 20
660.5941188
 30
0.0
 11
1244.075002
 21
665.2058812
 31
0.0
  0
LINE
  8
0
  6
CONTINUOUS
 62
     6
 10
1244.075002
 20
665.2058812
 30
0.0
 11
1248.075
 21
667.5117624
 31
0.0
  0
LINE
  8
0
  6
CONTINUOUS
 62
     6
 10
1252.074998
 20
660.5941188
 30
0.0
 11
1248.075
 21
658.2882376
 31
0.0
  0
LINE
  8
0
  6
CONTINUOUS
 62
     6
 10
1244.075002
 20
660.5941188
 30
0.0
 11
1248.075
 21
658.2882376
 31
0.0
  0
CIRCLE
  8
0
  6
CONTINUOUS
 62
     6
 10
1221.575
 20
687.9
 30
0.0
 40
3.5
  0
LINE
  8
0
  6
CONTINUOUS
 62
     6
 10
1218.067597115
 20
689.925
 30
0.0
 11
1221.575
 21
691.95
 31
0.0
  0
LINE
  8
0
  6
CONTINUOUS
 62
     6
 10
1221.575
 20
691.95
 30
0.0
 11
1225.082402885
 21
689.925
 31
0.0
  0
LINE
  8
0
  6
CONTINUOUS
 62
     6
 10
1225.082402885
 20
689.925
 30
0.0
 11
1225.082402885
 21
685.875
 31
0.0
  0
LINE
  8
0
  6
CONTINUOUS
 62
     6
 10
1218.067597115
 20
685.875
 30
0.0
 11
1218.067597115
 21
689.925
 31
0.0
  0
LINE
  8
0
  6
CONTINUOUS
 62
     6
 10
1225.082402885
 20
685.875
 30
0.0
 11
1221.575
 21
683.85
 31
0.0
  0
LINE
  8
0
  6
CONTINUOUS
 62
     6
 10
1221.575
 20
683.85
 30
0.0
 11
1218.067597115
 21
685.875
 31
0.0
  0
CIRCLE
  8
0
  6
CONTINUOUS
 62
     6
 10
1274.575
 20
687.9
 30
0.0
 40
3.5
  0
LINE
  8
0
  6
CONTINUOUS
 62
     6
 10
1278.082402885
 20
689.925
 30
0.0
 11
1274.575
 21
691.95
 31
0.0
  0
LINE
  8
0
  6
CONTINUOUS
 62
     6
 10
1274.575
 20
691.95
 30
0.0
 11
1271.067597115
 21
689.925
 31
0.0
  0
LINE
  8
0
  6
CONTINUOUS
 62
     6
 10
1271.067597115
 20
689.925
 30
0.0
 11
1271.067597115
 21
685.875
 31
0.0
  0
LINE
  8
0
  6
CONTINUOUS
 62
     6
 10
1271.067597115
 20
685.875
 30
0.0
 11
1274.575
 21
683.85
 31
0.0
  0
LINE
  8
0
  6
CONTINUOUS
 62
     6
 10
1274.575
 20
683.85
 30
0.0
 11
1278.082402885
 21
685.875
 31
0.0
  0
LINE
  8
0
  6
CONTINUOUS
 62
     6
 10
1278.082402885
 20
685.875
 30
0.0
 11
1278.082402885
 21
689.925
 31
0.0
  0
LINE
  8
0
  6
CONTINUOUS
 62
     6
 10
1280.137447841
 20
649.531672959
 30
0.0
 11
1280.137447841
 21
654.143435359
 31
0.0
  0
LINE
  8
0
  6
CONTINUOUS
 62
     6
 10
1288.137443841
 20
654.143435359
 30
0.0
 11
1284.137445841
 21
656.449316559
 31
0.0
  0
LINE
  8
0
  6
CONTINUOUS
 62
     6
 10
1280.137447841
 20
654.143435359
 30
0.0
 11
1284.137445841
 21
656.449316559
 31
0.0
  0
LINE
  8
0
  6
CONTINUOUS
 62
     6
 10
1288.137443841
 20
649.531672959
 30
0.0
 11
1288.137443841
 21
654.143435359
 31
0.0
  0
CIRCLE
  8
0
  6
CONTINUOUS
 62
     6
 10
1284.137445841
 20
651.837554159
 30
0.0
 40
3.999998
  0
LINE
  8
0
  6
CONTINUOUS
 62
     6
 10
1214.318435359
 20
647.837556159
 30
0.0
 11
1216.624316559
 21
651.837554159
 31
0.0
  0
LINE
  8
0
  6
CONTINUOUS
 62
     6
 10
1214.318435359
 20
655.837552159
 30
0.0
 11
1216.624316559
 21
651.837554159
 31
0.0
  0
LINE
  8
0
  6
CONTINUOUS
 62
     6
 10
1209.706672959
 20
655.837552159
 30
0.0
 11
1214.318435359
 21
655.837552159
 31
0.0
  0
LINE
  8
0
  6
CONTINUOUS
 62
     6
 10
1209.706672959
 20
647.837556159
 30
0.0
 11
1207.400791759
 21
651.837554159
 31
0.0
  0
LINE
  8
0
  6
CONTINUOUS
 62
     6
 10
1209.706672959
 20
655.837552159
 30
0.0
 11
1207.400791759
 21
651.837554159
 31
0.0
  0
CIRCLE
  8
0
  6
CONTINUOUS
 62
     6
 10
1212.012554159
 20
651.837554159
 30
0.0
 40
3.999998
  0
LINE
  8
0
  6
LTYPE4
 62
     2
 10
1176.075
 20
687.9
 30
0.0
 11
1315.592857143
 21
687.9
 31
0.0
  0
LINE
  8
0
  6
LTYPE2
 62
     2
 10
1248.075
 20
476.853571429
 30
0.0
 11
1248.075
 21
820.853571429
 31
0.0
  0
LINE
  8
7
  6
CONTINUOUS
 62
     2
 10
1362.075
 20
700.9
 30
0.0
 11
1362.075
 21
554.9
 31
0.0
  0
LINE
  8
7
  6
CONTINUOUS
 62
     2
 10
1365.075
 20
687.9
 30
0.0
 11
1400.075
 21
687.9
 31
0.0
  0
ARC
  8
0
  6
CONTINUOUS
 62
     1
 10
1304.075
 20
743.9
 30
0.0
 40
5.0
 50
0.0
 51
90.0
  0
ARC
  8
0
  6
CONTINUOUS
 62
     1
 10
1192.075
 20
743.9
 30
0.0
 40
5.0
 50
90.0
 51
180.0
  0
ARC
  8
0
  6
LTYPE2
 62
     2
 10
1248.075
 20
687.9
 30
0.0
 40
51.0
 50
34.902495616
 51
52.696051722
  0
LINE
  8
0
  6
LTYPE2
 62
     2
 10
1280.075
 20
719.9
 30
0.0
 11
1289.075
 21
728.9
 31
0.0
  0
ARC
  8
0
  6
LTYPE2
 62
     2
 10
1248.075
 20
687.9
 30
0.0
 40
51.0
 50
124.902495616
 51
142.696051722
  0
LINE
  8
0
  6
LTYPE2
 62
     2
 10
1216.075
 20
719.9
 30
0.0
 11
1207.075
 21
728.9
 31
0.0
  0
LINE
  8
0
  6
LTYPE2
 62
     2
 10
1290.075
 20
738.9
 30
0.0
 11
1307.075
 21
738.9
 31
0.0
  0
LINE
  8
0
  6
LTYPE2
 62
     2
 10
1299.075
 20
746.9
 30
0.0
 11
1299.075
 21
730.4
 31
0.0
  0
LINE
  8
0
  6
LTYPE2
 62
     2
 10
1206.075
 20
738.9
 30
0.0
 11
1189.075
 21
738.9
 31
0.0
  0
LINE
  8
0
  6
LTYPE2
 62
     2
 10
1197.075
 20
746.9
 30
0.0
 11
1197.075
 21
730.4
 31
0.0
  0
LINE
  8
0
  6
CONTINUOUS
 62
     1
 10
1278.075
 20
757.9
 30
0.0
 11
1278.075
 21
760.9
 31
0.0
  0
ARC
  8
0
  6
CONTINUOUS
 62
     1
 10
1274.075
 20
754.9
 30
0.0
 40
3.0
 50
90.0
 51
180.0
  0
LINE
  8
0
  6
CONTINUOUS
 62
     1
 10
1271.075
 20
744.053619242
 30
0.0
 11
1271.075
 21
754.9
 31
0.0
  0
ARC
  8
0
  6
CONTINUOUS
 62
     1
 10
1267.075
 20
744.053619242
 30
0.0
 40
4.0
 50
304.936144888
 51
0.0
  0
ARC
  8
0
  6
CONTINUOUS
 62
     1
 10
1222.075
 20
754.9
 30
0.0
 40
3.0
 50
0.0
 51
90.0
  0
LINE
  8
0
  6
CONTINUOUS
 62
     1
 10
1225.075
 20
744.053619242
 30
0.0
 11
1225.075
 21
754.9
 31
0.0
  0
ARC
  8
0
  6
CONTINUOUS
 62
     1
 10
1229.075
 20
744.053619242
 30
0.0
 40
4.0
 50
180.0
 51
235.063855112
  0
LINE
  8
0
  6
CONTINUOUS
 62
     1
 10
1271.075
 20
748.9
 30
0.0
 11
1304.075
 21
748.9
 31
0.0
  0
LINE
  8
0
  6
CONTINUOUS
 62
     1
 10
1192.075
 20
748.9
 30
0.0
 11
1225.075
 21
748.9
 31
0.0
  0
CIRCLE
  8
0
  6
CONTINUOUS
 62
     1
 10
1248.075
 20
782.9
 30
0.0
 40
17.0
  0
LINE
  8
0
  6
LTYPE2
 62
     2
 10
1225.075
 20
782.9
 30
0.0
 11
1271.075
 21
782.9
 31
0.0
  0
ARC
  8
0
  6
CONTINUOUS
 62
     1
 10
1206.075
 20
804.920045888
 30
0.0
 40
2.0
 50
90.0
 51
180.0
  0
ARC
  8
0
  6
CONTINUOUS
 62
     1
 10
1214.075
 20
810.9
 30
0.0
 40
2.0
 50
90.0
 51
180.0
  0
LINE
  8
0
  6
CONTINUOUS
 62
     1
 10
1214.075
 20
812.9
 30
0.0
 11
1282.075
 21
812.9
 31
0.0
  0
ARC
  8
0
  6
CONTINUOUS
 62
     1
 10
1282.075
 20
810.9
 30
0.0
 40
2.0
 50
0.0
 51
90.0
  0
LINE
  8
0
  6
CONTINUOUS
 62
     1
 10
1290.075
 20
806.920045888
 30
0.0
 11
1206.075
 21
806.920045888
 31
0.0
  0
ARC
  8
0
  6
CONTINUOUS
 62
     1
 10
1290.075
 20
804.920045888
 30
0.0
 40
2.0
 50
0.0
 51
90.0
  0
ARC
  8
0
  6
CONTINUOUS
 62
     1
 10
1206.075
 20
808.920045888
 30
0.0
 40
2.0
 50
90.0
 51
180.0
  0
ARC
  8
0
  6
CONTINUOUS
 62
     1
 10
1214.075
 20
801.9
 30
0.0
 40
2.0
 50
90.0
 51
180.0
  0
LINE
  8
0
  6
CONTINUOUS
 62
     1
 10
1214.075
 20
803.9
 30
0.0
 11
1282.075
 21
803.9
 31
0.0
  0
ARC
  8
0
  6
CONTINUOUS
 62
     1
 10
1282.075
 20
801.9
 30
0.0
 40
2.0
 50
0.0
 51
90.0
  0
LINE
  8
0
  6
CONTINUOUS
 62
     1
 10
1290.075
 20
810.920045888
 30
0.0
 11
1206.075
 21
810.920045888
 31
0.0
  0
ARC
  8
0
  6
CONTINUOUS
 62
     1
 10
1290.075
 20
808.920045888
 30
0.0
 40
2.0
 50
0.0
 51
90.0
  0
LINE
  8
0
  6
CONTINUOUS
 62
     1
 10
1218.075
 20
757.9
 30
0.0
 11
1278.075
 21
757.9
 31
0.0
  0
LINE
  8
0
  6
CONTINUOUS
 62
     1
 10
1218.075
 20
757.9
 30
0.0
 11
1218.075
 21
760.9
 31
0.0
  0
LINE
  8
0
  6
CONTINUOUS
 62
     1
 10
1284.075
 20
762.9
 30
0.0
 11
1290.075
 21
762.9
 31
0.0
  0
LINE
  8
0
  6
CONTINUOUS
 62
     1
 10
1292.075
 20
764.9
 30
0.0
 11
1292.075
 21
808.920045888
 31
0.0
  0
ARC
  8
0
  6
CONTINUOUS
 62
     1
 10
1290.075
 20
764.9
 30
0.0
 40
2.0
 50
270.0
 51
0.0
  0
LINE
  8
0
  6
CONTINUOUS
 62
     1
 10
1284.075
 20
762.9
 30
0.0
 11
1284.075
 21
801.9
 31
0.0
  0
ARC
  8
0
  6
CONTINUOUS
 62
     1
 10
1282.075
 20
762.9
 30
0.0
 40
2.0
 50
270.0
 51
0.0
  0
LINE
  8
0
  6
CONTINUOUS
 62
     1
 10
1212.075
 20
762.9
 30
0.0
 11
1212.075
 21
801.9
 31
0.0
  0
LINE
  8
0
  6
CONTINUOUS
 62
     1
 10
1214.075
 20
760.9
 30
0.0
 11
1282.075
 21
760.9
 31
0.0
  0
ARC
  8
0
  6
CONTINUOUS
 62
     1
 10
1214.075
 20
762.9
 30
0.0
 40
2.0
 50
180.0
 51
270.0
  0
LINE
  8
0
  6
CONTINUOUS
 62
     1
 10
1212.075
 20
762.9
 30
0.0
 11
1206.075
 21
762.9
 31
0.0
  0
LINE
  8
0
  6
CONTINUOUS
 62
     1
 10
1204.075
 20
764.9
 30
0.0
 11
1204.075
 21
808.920045888
 31
0.0
  0
ARC
  8
0
  6
CONTINUOUS
 62
     1
 10
1206.075
 20
764.9
 30
0.0
 40
2.0
 50
180.0
 51
270.0
  0
CIRCLE
  8
0
  6
CONTINUOUS
 62
     2
 10
1248.075
 20
782.9
 30
0.0
 40
15.0
  0
LINE
  8
0
  6
CONTINUOUS
 62
     6
 10
1190.57505
 20
742.64703
 30
0.0
 11
1190.57505
 21
735.15297
 31
0.0
  0
LINE
  8
0
  6
CONTINUOUS
 62
     6
 10
1203.57495
 20
742.64703
 30
0.0
 11
1203.57495
 21
735.15297
 31
0.0
  0
LINE
  8
0
  6
CONTINUOUS
 62
     6
 10
1190.57505
 20
742.64703
 30
0.0
 11
1197.075
 21
746.39406
 31
0.0
  0
LINE
  8
0
  6
CONTINUOUS
 62
     6
 10
1203.57495
 20
742.64703
 30
0.0
 11
1197.075
 21
746.39406
 31
0.0
  0
LINE
  8
0
  6
CONTINUOUS
 62
     6
 10
1190.57505
 20
735.15297
 30
0.0
 11
1197.075
 21
731.40594
 31
0.0
  0
CIRCLE
  8
0
  6
CONTINUOUS
 62
     6
 10
1197.075
 20
738.9
 30
0.0
 40
6.49995
  0
LINE
  8
0
  6
CONTINUOUS
 62
     6
 10
1203.57495
 20
735.15297
 30
0.0
 11
1197.075
 21
731.40594
 31
0.0
  0
LINE
  8
0
  6
CONTINUOUS
 62
     6
 10
1209.706672959
 20
727.962443841
 30
0.0
 11
1214.318435359
 21
727.962443841
 31
0.0
  0
LINE
  8
0
  6
CONTINUOUS
 62
     6
 10
1214.318435359
 20
727.962443841
 30
0.0
 11
1216.624316559
 21
723.962445841
 31
0.0
  0
LINE
  8
0
  6
CONTINUOUS
 62
     6
 10
1214.318435359
 20
719.962447841
 30
0.0
 11
1216.624316559
 21
723.962445841
 31
0.0
  0
LINE
  8
0
  6
CONTINUOUS
 62
     6
 10
1209.706672959
 20
727.962443841
 30
0.0
 11
1207.400791759
 21
723.962445841
 31
0.0
  0
LINE
  8
0
  6
CONTINUOUS
 62
     6
 10
1209.706672959
 20
719.962447841
 30
0.0
 11
1207.400791759
 21
723.962445841
 31
0.0
  0
LINE
  8
0
  6
CONTINUOUS
 62
     6
 10
1209.706672959
 20
719.962447841
 30
0.0
 11
1214.318435359
 21
719.962447841
 31
0.0
  0
CIRCLE
  8
0
  6
CONTINUOUS
 62
     6
 10
1212.012554159
 20
723.962445841
 30
0.0
 40
3.999998
  0
LINE
  8
0
  6
CONTINUOUS
 62
     6
 10
1288.137443841
 20
726.268327041
 30
0.0
 11
1284.137445841
 21
728.574208241
 31
0.0
  0
LINE
  8
0
  6
CONTINUOUS
 62
     6
 10
1280.137447841
 20
726.268327041
 30
0.0
 11
1284.137445841
 21
728.574208241
 31
0.0
  0
LINE
  8
0
  6
CONTINUOUS
 62
     6
 10
1288.137443841
 20
726.268327041
 30
0.0
 11
1288.137443841
 21
721.656564641
 31
0.0
  0
LINE
  8
0
  6
CONTINUOUS
 62
     6
 10
1288.137443841
 20
721.656564641
 30
0.0
 11
1284.137445841
 21
719.350683441
 31
0.0
  0
LINE
  8
0
  6
CONTINUOUS
 62
     6
 10
1280.137447841
 20
721.656564641
 30
0.0
 11
1284.137445841
 21
719.350683441
 31
0.0
  0
LINE
  8
0
  6
CONTINUOUS
 62
     6
 10
1280.137447841
 20
726.268327041
 30
0.0
 11
1280.137447841
 21
721.656564641
 31
0.0
  0
CIRCLE
  8
0
  6
CONTINUOUS
 62
     6
 10
1284.137445841
 20
723.962445841
 30
0.0
 40
3.999998
  0
LINE
  8
0
  6
CONTINUOUS
 62
     6
 10
1292.57505
 20
742.64703
 30
0.0
 11
1292.57505
 21
735.15297
 31
0.0
  0
LINE
  8
0
  6
CONTINUOUS
 62
     6
 10
1292.57505
 20
735.15297
 30
0.0
 11
1299.075
 21
731.40594
 31
0.0
  0
LINE
  8
0
  6
CONTINUOUS
 62
     6
 10
1305.57495
 20
742.64703
 30
0.0
 11
1305.57495
 21
735.15297
 31
0.0
  0
LINE
  8
0
  6
CONTINUOUS
 62
     6
 10
1305.57495
 20
742.64703
 30
0.0
 11
1299.075
 21
746.39406
 31
0.0
  0
LINE
  8
0
  6
CONTINUOUS
 62
     6
 10
1292.57505
 20
742.64703
 30
0.0
 11
1299.075
 21
746.39406
 31
0.0
  0
LINE
  8
0
  6
CONTINUOUS
 62
     6
 10
1305.57495
 20
735.15297
 30
0.0
 11
1299.075
 21
731.40594
 31
0.0
  0
CIRCLE
  8
0
  6
CONTINUOUS
 62
     6
 10
1299.075
 20
738.9
 30
0.0
 40
6.49995
  0
LINE
  8
7
  6
CONTINUOUS
 62
     2
 10
1288.075
 20
812.9
 30
0.0
 11
1432.075
 21
812.9
 31
0.0
  0
LINE
  8
7
  6
CONTINUOUS
 62
     2
 10
1187.075
 20
749.900015259
 30
0.0
 11
1187.075
 21
843.9
 31
0.0
  0
LINE
  8
7
  6
CONTINUOUS
 62
     2
 10
1187.075
 20
837.9
 30
0.0
 11
1196.734258263
 21
835.311809549
 31
0.0
  0
LINE
  8
7
  6
CONTINUOUS
 62
     2
 10
1187.075
 20
837.9
 30
0.0
 11
1196.734258263
 21
840.488190451
 31
0.0
  0
LINE
  8
7
  6
CONTINUOUS
 62
     2
 10
1187.075
 20
837.9
 30
0.0
 11
1309.075
 21
837.9
 31
0.0
  0
LINE
  8
7
  6
CONTINUOUS
 62
     2
 10
1309.075
 20
837.9
 30
0.0
 11
1299.415741737
 21
840.488190451
 31
0.0
  0
LINE
  8
7
  6
CONTINUOUS
 62
     2
 10
1309.075
 20
837.9
 30
0.0
 11
1299.415741737
 21
835.311809549
 31
0.0
  0
LINE
  8
7
  6
CONTINUOUS
 62
     2
 10
1309.075
 20
749.900015259
 30
0.0
 11
1309.075
 21
843.9
 31
0.0
  0
TEXT
  8
7
  6
CONTINUOUS
 62
     2
 10
1358.075
 20
595.9
 30
0.0
 40
15.0
  1
φ１６Ｈ１０深２２
 50
90.0
 41
0.9
 51
0.0
  7
KANJI26
  0
TEXT
  8
7
  6
CONTINUOUS
 62
     2
 10
1230.675
 20
841.9
 30
0.0
 40
15.0
  1
１２２
 50
0.0
 41
0.9
 51
0.0
  7
KANJI26
  0
LINE
  8
0
  6
CONTINUOUS
 62
     1
 10
1176.698691897
 20
682.435508999
 30
0.0
 11
1182.494246855
 21
680.882594728
 31
0.0
  0
ARC
  8
0
  6
CONTINUOUS
 62
     1
 10
1302.075
 20
523.9
 30
0.0
 40
6.0
 50
270.0
 51
0.0
  0
ARC
  8
0
  6
CONTINUOUS
 62
     1
 10
1194.075
 20
523.9
 30
0.0
 40
6.0
 50
180.0
 51
270.0
  0
LINE
  8
0
  6
CONTINUOUS
 62
     1
 10
1203.075
 20
554.9
 30
0.0
 11
1203.075
 21
532.9
 31
0.0
  0
LINE
  8
0
  6
CONTINUOUS
 62
     1
 10
1203.075
 20
555.112516539
 30
0.0
 11
1188.075
 21
557.9
 31
0.0
  0
LINE
  8
0
  6
CONTINUOUS
 62
     1
 10
1293.075
 20
554.9
 30
0.0
 11
1293.075
 21
532.9
 31
0.0
  0
LINE
  8
0
  6
CONTINUOUS
 62
     1
 10
1293.075
 20
555.112516539
 30
0.0
 11
1308.075
 21
557.9
 31
0.0
  0
ARC
  8
0
  6
CONTINUOUS
 62
     1
 10
1206.953679656
 20
619.021320344
 30
0.0
 40
7.0
 50
172.721057981
 51
180.0
  0
CIRCLE
  8
0
  6
CONTINUOUS
 62
     1
 10
1287.075
 20
616.9
 30
0.0
 40
5.0
  0
ARC
  8
0
  6
CONTINUOUS
 62
     1
 10
1289.196320344
 20
619.021320344
 30
0.0
 40
7.0
 50
0.0
 51
7.278942019
  0
ARC
  8
0
  6
CONTINUOUS
 62
     1
 10
1289.196320344
 20
619.021320344
 30
0.0
 40
7.0
 50
7.278942019
 51
74.724135925
  0
LINE
  8
0
  6
CONTINUOUS
 62
     1
 10
1296.139907874
 20
619.908220679
 30
0.0
 11
1298.752546324
 21
599.453742279
 31
0.0
  0
ARC
  8
0
  6
CONTINUOUS
 62
     1
 10
1206.953679656
 20
536.778679656
 30
0.0
 40
7.0
 50
180.0
 51
187.278942019
  0
LINE
  8
0
  6
CONTINUOUS
 62
     1
 10
1200.010092126
 20
535.891779321
 30
0.0
 11
1197.397453676
 21
556.346257721
 31
0.0
  0
ARC
  8
0
  6
CONTINUOUS
 62
     1
 10
1289.196320344
 20
536.778679656
 30
0.0
 40
7.0
 50
352.721057981
 51
0.0
  0
LINE
  8
0
  6
CONTINUOUS
 62
     1
 10
1296.139907874
 20
535.891779321
 30
0.0
 11
1298.752546324
 21
556.346257721
 31
0.0
  0
LINE
  8
0
  6
CONTINUOUS
 62
     1
 10
1228.075
 20
597.9
 30
0.0
 11
1268.075
 21
597.9
 31
0.0
  0
LINE
  8
0
  6
CONTINUOUS
 62
     1
 10
1268.075
 20
557.9
 30
0.0
 11
1268.075
 21
597.9
 31
0.0
  0
LINE
  8
0
  6
CONTINUOUS
 62
     1
 10
1228.075
 20
557.9
 30
0.0
 11
1268.075
 21
557.9
 31
0.0
  0
LINE
  8
0
  6
CONTINUOUS
 62
     1
 10
1228.075
 20
557.9
 30
0.0
 11
1228.075
 21
597.9
 31
0.0
  0
LINE
  8
0
  6
CONTINUOUS
 62
     1
 10
1240.075
 20
557.9
 30
0.0
 11
1240.075
 21
597.9
 31
0.0
  0
LINE
  8
0
  6
CONTINUOUS
 62
     1
 10
1256.075
 20
557.9
 30
0.0
 11
1256.075
 21
597.9
 31
0.0
  0
LINE
  8
0
  6
CONTINUOUS
 62
     1
 10
1240.075
 20
569.9
 30
0.0
 11
1256.075
 21
569.9
 31
0.0
  0
LINE
  8
0
  6
CONTINUOUS
 62
     1
 10
1228.075
 20
567.9
 30
0.0
 11
1240.075
 21
567.9
 31
0.0
  0
LINE
  8
0
  6
CONTINUOUS
 62
     1
 10
1240.075
 20
585.9
 30
0.0
 11
1256.075
 21
585.9
 31
0.0
  0
LINE
  8
0
  6
CONTINUOUS
 62
     1
 10
1228.075
 20
587.9
 30
0.0
 11
1240.075
 21
587.9
 31
0.0
  0
LINE
  8
0
  6
CONTINUOUS
 62
     1
 10
1268.075
 20
567.9
 30
0.0
 11
1256.075
 21
567.9
 31
0.0
  0
LINE
  8
0
  6
CONTINUOUS
 62
     1
 10
1268.075
 20
587.9
 30
0.0
 11
1256.075
 21
587.9
 31
0.0
  0
ARC
  8
0
  6
CONTINUOUS
 62
     1
 10
1298.075
 20
528.4
 30
0.0
 40
3.0
 50
0.0
 51
90.0
  0
LINE
  8
0
  6
CONTINUOUS
 62
     1
 10
1298.075
 20
532.9
 30
0.0
 11
1298.075
 21
531.4
 31
0.0
  0
LINE
  8
0
  6
CONTINUOUS
 62
     1
 10
1301.075
 20
480.9
 30
0.0
 11
1301.075
 21
528.4
 31
0.0
  0
LINE
  8
0
  6
CONTINUOUS
 62
     1
 10
1195.075
 20
480.9
 30
0.0
 11
1195.075
 21
528.4
 31
0.0
  0
LINE
  8
0
  6
CONTINUOUS
 62
     1
 10
1195.075
 20
480.9
 30
0.0
 11
1301.075
 21
480.9
 31
0.0
  0
LINE
  8
0
  6
CONTINUOUS
 62
     1
 10
1195.075
 20
488.4
 30
0.0
 11
1301.075
 21
488.4
 31
0.0
  0
LINE
  8
0
  6
CONTINUOUS
 62
     1
 10
1195.075
 20
486.9
 30
0.0
 11
1301.075
 21
486.9
 31
0.0
  0
LINE
  8
0
  6
CONTINUOUS
 62
     1
 10
1301.075
 20
517.9
 30
0.0
 11
1302.075
 21
517.9
 31
0.0
  0
LINE
  8
0
  6
CONTINUOUS
 62
     1
 10
1194.075
 20
517.9
 30
0.0
 11
1195.075
 21
517.9
 31
0.0
  0
ARC
  8
0
  6
CONTINUOUS
 62
     1
 10
1289.196320344
 20
536.778679656
 30
0.0
 40
7.0
 50
326.35145266
 51
352.721057981
  0
ARC
  8
0
  6
CONTINUOUS
 62
     1
 10
1206.953679656
 20
536.778679656
 30
0.0
 40
7.0
 50
187.278942019
 51
213.64854734
  0
ARC
  8
0
  6
CONTINUOUS
 62
     1
 10
1304.075
 20
631.9
 30
0.0
 40
5.0
 50
270.0
 51
0.0
  0
LINE
  8
0
  6
LTYPE2
 62
     2
 10
1290.075
 20
636.9
 30
0.0
 11
1307.075
 21
636.9
 31
0.0
  0
LINE
  8
0
  6
LTYPE2
 62
     2
 10
1299.075
 20
628.9
 30
0.0
 11
1299.075
 21
645.4
 31
0.0
  0
LINE
  8
0
  6
LTYPE2
 62
     2
 10
1206.075
 20
636.9
 30
0.0
 11
1189.075
 21
636.9
 31
0.0
  0
LINE
  8
0
  6
LTYPE2
 62
     2
 10
1197.075
 20
628.9
 30
0.0
 11
1197.075
 21
645.4
 31
0.0
  0
LINE
  8
0
  6
CONTINUOUS
 62
     6
 10
1288.137443841
 20
649.531672959
 30
0.0
 11
1284.137445841
 21
647.225791759
 31
0.0
  0
LINE
  8
0
  6
CONTINUOUS
 62
     6
 10
1280.137447841
 20
649.531672959
 30
0.0
 11
1284.137445841
 21
647.225791759
 31
0.0
  0
LINE
  8
0
  6
CONTINUOUS
 62
     6
 10
1209.706672959
 20
647.837556159
 30
0.0
 11
1214.318435359
 21
647.837556159
 31
0.0
  0
LINE
  8
0
  6
CONTINUOUS
 62
     6
 10
1203.57495
 20
633.15297
 30
0.0
 11
1203.57495
 21
640.64703
 31
0.0
  0
LINE
  8
0
  6
CONTINUOUS
 62
     6
 10
1203.57495
 20
640.64703
 30
0.0
 11
1197.075
 21
644.39406
 31
0.0
  0
LINE
  8
0
  6
CONTINUOUS
 62
     6
 10
1190.57505
 20
633.15297
 30
0.0
 11
1197.075
 21
629.40594
 31
0.0
  0
LINE
  8
0
  6
CONTINUOUS
 62
     6
 10
1203.57495
 20
633.15297
 30
0.0
 11
1197.075
 21
629.40594
 31
0.0
  0
LINE
  8
0
  6
CONTINUOUS
 62
     6
 10
1190.57505
 20
640.64703
 30
0.0
 11
1197.075
 21
644.39406
 31
0.0
  0
LINE
  8
0
  6
CONTINUOUS
 62
     6
 10
1190.57505
 20
633.15297
 30
0.0
 11
1190.57505
 21
640.64703
 31
0.0
  0
CIRCLE
  8
0
  6
CONTINUOUS
 62
     6
 10
1197.075
 20
636.9
 30
0.0
 40
6.49995
  0
LINE
  8
0
  6
CONTINUOUS
 62
     6
 10
1292.57505
 20
633.15297
 30
0.0
 11
1292.57505
 21
640.64703
 31
0.0
  0
LINE
  8
0
  6
CONTINUOUS
 62
     6
 10
1292.57505
 20
633.15297
 30
0.0
 11
1299.075
 21
629.40594
 31
0.0
  0
LINE
  8
0
  6
CONTINUOUS
 62
     6
 10
1305.57495
 20
633.15297
 30
0.0
 11
1305.57495
 21
640.64703
 31
0.0
  0
LINE
  8
0
  6
CONTINUOUS
 62
     6
 10
1305.57495
 20
633.15297
 30
0.0
 11
1299.075
 21
629.40594
 31
0.0
  0
LINE
  8
0
  6
CONTINUOUS
 62
     6
 10
1305.57495
 20
640.64703
 30
0.0
 11
1299.075
 21
644.39406
 31
0.0
  0
LINE
  8
0
  6
CONTINUOUS
 62
     6
 10
1292.57505
 20
640.64703
 30
0.0
 11
1299.075
 21
644.39406
 31
0.0
  0
CIRCLE
  8
0
  6
CONTINUOUS
 62
     6
 10
1299.075
 20
636.9
 30
0.0
 40
6.49995
  0
LINE
  8
0
  6
CONTINUOUS
 62
     1
 10
1308.075
 20
523.9
 30
0.0
 11
1308.075
 21
628.9
 31
0.0
  0
LINE
  8
0
  6
CONTINUOUS
 62
     1
 10
1290.083220679
 20
625.964907874
 30
0.0
 11
1282.76233719
 21
626.9
 31
0.0
  0
LINE
  8
0
  6
LTYPE2
 62
     2
 10
1278.990102543
 20
616.9
 30
0.0
 11
1295.490102543
 21
616.9
 31
0.0
  0
LINE
  8
0
  6
LTYPE2
 62
     2
 10
1287.075
 20
624.572877017
 30
0.0
 11
1287.075
 21
608.272877017
 31
0.0
  0
LINE
  8
0
  6
LTYPE2
 62
     2
 10
1217.159897457
 20
616.9
 30
0.0
 11
1200.659897457
 21
616.9
 31
0.0
  0
LINE
  8
0
  6
LTYPE2
 62
     2
 10
1209.075
 20
624.572877017
 30
0.0
 11
1209.075
 21
608.272877017
 31
0.0
  0
LINE
  8
0
  6
LTYPE1
 62
     2
 10
1286.075
 20
569.9
 30
0.0
 11
1286.075
 21
585.9
 31
0.0
  0
LINE
  8
0
  6
LTYPE1
 62
     2
 10
1286.075
 20
569.9
 30
0.0
 11
1308.075
 21
569.9
 31
0.0
  0
LINE
  8
0
  6
LTYPE1
 62
     2
 10
1286.075
 20
585.9
 30
0.0
 11
1308.075
 21
585.9
 31
0.0
  0
LINE
  8
0
  6
LTYPE1
 62
     2
 10
1210.075
 20
569.9
 30
0.0
 11
1210.075
 21
585.9
 31
0.0
  0
LINE
  8
0
  6
LTYPE1
 62
     2
 10
1210.075
 20
569.9
 30
0.0
 11
1188.075
 21
569.9
 31
0.0
  0
LINE
  8
0
  6
LTYPE1
 62
     2
 10
1210.075
 20
585.9
 30
0.0
 11
1188.075
 21
585.9
 31
0.0
  0
LINE
  8
7
  6
CONTINUOUS
 62
     2
 10
1314.075
 20
585.9
 30
0.0
 11
1368.075
 21
585.9
 31
0.0
  0
LINE
  8
7
  6
CONTINUOUS
 62
     2
 10
1362.075
 20
585.9
 30
0.0
 11
1364.663190451
 21
595.559258263
 31
0.0
  0
LINE
  8
7
  6
CONTINUOUS
 62
     2
 10
1362.075
 20
585.9
 30
0.0
 11
1359.486809549
 21
595.559258263
 31
0.0
  0
LINE
  8
7
  6
CONTINUOUS
 62
     2
 10
1362.075
 20
569.9
 30
0.0
 11
1359.486809549
 21
560.240741737
 31
0.0
  0
LINE
  8
7
  6
CONTINUOUS
 62
     2
 10
1362.075
 20
569.9
 30
0.0
 11
1364.663190451
 21
560.240741737
 31
0.0
  0
LINE
  8
7
  6
CONTINUOUS
 62
     2
 10
1314.075
 20
569.9
 30
0.0
 11
1368.075
 21
569.9
 31
0.0
  0
LINE
  8
7
  6
CONTINUOUS
 62
     2
 10
1325.075
 20
577.9
 30
0.0
 11
1400.075
 21
577.9
 31
0.0
  0
LINE
  8
7
  6
CONTINUOUS
 62
     2
 10
1305.427902
 20
475.40039
 30
0.0
 11
1432.075
 21
475.40039
 31
0.0
  0
LINE
  8
0
  6
CONTINUOUS
 62
     1
 10
1268.075
 20
488.4
 30
0.0
 11
1268.075
 21
531.4
 31
0.0
  0
LINE
  8
0
  6
CONTINUOUS
 62
     1
 10
1228.075
 20
488.4
 30
0.0
 11
1228.075
 21
531.4
 31
0.0
  0
LINE
  8
0
  6
LTYPE2
 62
     2
 10
1232.075
 20
505.4
 30
0.0
 11
1263.075
 21
505.4
 31
0.0
  0
CIRCLE
  8
0
  6
CONTINUOUS
 62
     2
 10
1248.075
 20
505.4
 30
0.0
 40
11.0
  0
CIRCLE
  8
0
  6
CONTINUOUS
 62
     2
 10
1248.075
 20
505.4
 30
0.0
 40
9.5
  0
LINE
  8
0
  6
CONTINUOUS
 62
     1
 10
1203.075
 20
554.9
 30
0.0
 11
1203.523423881
 21
556.675969408
 31
0.0
  0
LINE
  8
0
  6
LTYPE1
 62
     2
 10
1206.559603014
 20
600.980767169
 30
0.0
 11
1188.075
 21
597.9
 31
0.0
  0
LINE
  8
0
  6
CONTINUOUS
 62
     1
 10
1188.075
 20
523.9
 30
0.0
 11
1188.075
 21
563.75050745
 31
0.0
  0
LINE
  8
7
  6
CONTINUOUS
 62
     2
 10
1248.075
 20
470.853571429
 30
0.0
 11
1248.075
 21
442.75050745
 31
0.0
  0
LINE
  8
7
  6
CONTINUOUS
 62
     2
 10
1248.075
 20
448.75050745
 30
0.0
 11
1238.415741737
 21
451.338697901
 31
0.0
  0
LINE
  8
7
  6
CONTINUOUS
 62
     2
 10
1248.075
 20
448.75050745
 30
0.0
 11
1238.415741737
 21
446.162316999
 31
0.0
  0
LINE
  8
7
  6
CONTINUOUS
 62
     2
 10
1308.075
 20
420.75050745
 30
0.0
 11
1298.415741737
 21
423.338697901
 31
0.0
  0
LINE
  8
7
  6
CONTINUOUS
 62
     2
 10
1308.075
 20
420.75050745
 30
0.0
 11
1298.415741737
 21
418.162316999
 31
0.0
  0
LINE
  8
7
  6
CONTINUOUS
 62
     2
 10
1308.075
 20
420.75050745
 30
0.0
 11
1188.075
 21
420.75050745
 31
0.0
  0
LINE
  8
7
  6
CONTINUOUS
 62
     2
 10
1188.075
 20
420.75050745
 30
0.0
 11
1197.734258263
 21
418.162316999
 31
0.0
  0
LINE
  8
7
  6
CONTINUOUS
 62
     2
 10
1188.075
 20
420.75050745
 30
0.0
 11
1197.734258263
 21
423.338697901
 31
0.0
  0
LINE
  8
0
  6
CONTINUOUS
 62
     1
 10
1293.075
 20
554.9
 30
0.0
 11
1287.267608718
 21
577.9
 31
0.0
  0
LINE
  8
0
  6
CONTINUOUS
 62
     1
 10
1198.075
 20
532.9
 30
0.0
 11
1198.075
 21
531.4
 31
0.0
  0
LINE
  8
0
  6
CONTINUOUS
 62
     1
 10
1198.075
 20
532.9
 30
0.0
 11
1298.075
 21
532.9
 31
0.0
  0
LINE
  8
0
  6
CONTINUOUS
 62
     1
 10
1198.075015259
 20
531.4
 30
0.0
 11
1298.075
 21
531.4
 31
0.0
  0
ARC
  8
0
  6
CONTINUOUS
 62
     1
 10
1198.075
 20
528.4
 30
0.0
 40
3.0
 50
89.999708579
 51
180.0
  0
TEXT
  8
7
  6
CONTINUOUS
 62
     2
 10
1230.675
 20
424.75050745
 30
0.0
 40
15.0
  1
１２０
 50
0.0
 41
0.9
 51
0.0
  7
KANJI26
  0
LINE
  8
0
  6
CONTINUOUS
 62
     1
 10
1217.075
 20
585.9
 30
0.0
 11
1217.075
 21
569.9
 31
0.0
  0
LINE
  8
0
  6
CONTINUOUS
 62
     1
 10
1225.075
 20
562.9
 30
0.0
 11
1225.075
 21
592.9
 31
0.0
  0
LINE
  8
0
  6
LTYPE2
 62
     2
 10
1222.425
 20
573.5
 30
0.0
 11
1222.425
 21
581.9
 31
0.0
  0
CIRCLE
  8
0
  6
CONTINUOUS
 62
     1
 10
1222.425
 20
577.9
 30
0.0
 40
2.0
  0
LINE
  8
0
  6
CONTINUOUS
 62
     1
 10
1228.075
 20
562.9
 30
0.0
 11
1225.075
 21
562.9
 31
0.0
  0
LINE
  8
0
  6
LTYPE1
 62
     2
 10
1225.075
 20
569.9
 30
0.0
 11
1240.075
 21
569.9
 31
0.0
  0
LINE
  8
0
  6
CONTINUOUS
 62
     1
 10
1228.075
 20
592.9
 30
0.0
 11
1225.075
 21
592.9
 31
0.0
  0
LINE
  8
0
  6
CONTINUOUS
 62
     1
 10
1225.075
 20
585.9
 30
0.0
 11
1217.075
 21
585.9
 31
0.0
  0
LINE
  8
0
  6
LTYPE1
 62
     2
 10
1240.075
 20
585.9
 30
0.0
 11
1225.075
 21
585.9
 31
0.0
  0
LINE
  8
0
  6
CONTINUOUS
 62
     1
 10
1279.075
 20
585.9
 30
0.0
 11
1279.075
 21
569.9
 31
0.0
  0
LINE
  8
0
  6
CONTINUOUS
 62
     1
 10
1279.075
 20
585.9
 30
0.0
 11
1279.075
 21
569.9
 31
0.0
  0
LINE
  8
0
  6
CONTINUOUS
 62
     1
 10
1271.075
 20
562.9
 30
0.0
 11
1271.075
 21
592.9
 31
0.0
  0
LINE
  8
0
  6
LTYPE2
 62
     2
 10
1273.725
 20
573.5
 30
0.0
 11
1273.725
 21
581.9
 31
0.0
  0
LINE
  8
0
  6
CONTINUOUS
 62
     1
 10
1268.075
 20
592.9
 30
0.0
 11
1271.075
 21
592.9
 31
0.0
  0
LINE
  8
0
  6
CONTINUOUS
 62
     1
 10
1271.075
 20
585.9
 30
0.0
 11
1279.075
 21
585.9
 31
0.0
  0
LINE
  8
0
  6
CONTINUOUS
 62
     1
 10
1271.075
 20
585.9
 30
0.0
 11
1279.075
 21
585.9
 31
0.0
  0
LINE
  8
0
  6
LTYPE1
 62
     2
 10
1256.075
 20
585.9
 30
0.0
 11
1271.075
 21
585.9
 31
0.0
  0
LINE
  8
0
  6
CONTINUOUS
 62
     1
 10
1268.075
 20
562.9
 30
0.0
 11
1271.075
 21
562.9
 31
0.0
  0
LINE
  8
0
  6
CONTINUOUS
 62
     1
 10
1279.075
 20
569.9
 30
0.0
 11
1271.075
 21
569.9
 31
0.0
  0
LINE
  8
0
  6
CONTINUOUS
 62
     1
 10
1279.075
 20
569.9
 30
0.0
 11
1271.075
 21
569.9
 31
0.0
  0
LINE
  8
0
  6
LTYPE1
 62
     2
 10
1271.075
 20
569.9
 30
0.0
 11
1256.075
 21
569.9
 31
0.0
  0
CIRCLE
  8
0
  6
CONTINUOUS
 62
     1
 10
1273.725
 20
577.9
 30
0.0
 40
2.0
  0
LINE
  8
0
  6
CONTINUOUS
 62
     1
 10
1225.075
 20
569.9
 30
0.0
 11
1217.075
 21
569.9
 31
0.0
  0
ARC
  8
0
  6
CONTINUOUS
 62
     1
 10
1180.129533195
 20
561.941819006
 30
0.0
 40
2.0
 50
255.0
 51
345.0
  0
LINE
  8
0
  6
CONTINUOUS
 62
     1
 10
1182.837841983
 20
564.321958395
 30
0.0
 11
1182.061384847
 21
561.424180916
 31
0.0
  0
LINE
  8
0
  6
CONTINUOUS
 62
     1
 10
1170.200342213
 20
635.001117979
 30
0.0
 11
1197.729228262
 21
627.624775194
 31
0.0
  0
ARC
  8
0
  6
CONTINUOUS
 62
     1
 10
1197.211590172
 20
625.692923541
 30
0.0
 40
2.0
 50
345.0
 51
75.0
  0
LINE
  8
0
  6
CONTINUOUS
 62
     1
 10
1198.366984689
 20
622.277507972
 30
0.0
 11
1199.143441824
 21
625.175285451
 31
0.0
  0
LINE
  8
0
  6
CONTINUOUS
 62
     1
 10
1228.58808672
 20
630.744206975
 30
0.0
 11
1244.042899941
 21
626.603102253
 31
0.0
  0
ARC
  8
0
  6
CONTINUOUS
 62
     1
 10
1228.07044863
 20
628.812355323
 30
0.0
 40
2.0
 50
75.0
 51
165.0
  0
LINE
  8
0
  6
CONTINUOUS
 62
     1
 10
1223.605509936
 20
619.876383874
 30
0.0
 11
1226.138596978
 21
629.329993413
 31
0.0
  0
LINE
  8
0
  6
CONTINUOUS
 62
     1
 10
1256.202415929
 20
614.02748414
 30
0.0
 11
1239.298713969
 21
618.55681743
 31
0.0
  0
ARC
  8
0
  6
CONTINUOUS
 62
     1
 10
1243.525261851
 20
624.671250601
 30
0.0
 40
2.0
 50
345.0
 51
75.0
  0
LINE
  8
0
  6
LTYPE1
 62
     2
 10
1224.49277085
 20
545.913620581
 30
0.0
 11
1243.754491277
 21
617.799339855
 31
0.0
  0
LINE
  8
0
  6
LTYPE1
 62
     2
 10
1242.415989723
 20
612.803984052
 30
0.0
 11
1256.421943682
 21
609.051099999
 31
0.0
  0
LINE
  8
0
  6
CONTINUOUS
 62
     1
 10
1237.049806592
 20
542.548972995
 30
0.0
 11
1220.146104632
 21
547.078306284
 31
0.0
  0
LINE
  8
0
  6
LTYPE1
 62
     2
 10
1225.722161314
 20
550.501768256
 30
0.0
 11
1239.728085795
 21
546.748892102
 31
0.0
  0
LINE
  8
0
  6
CONTINUOUS
 62
     1
 10
1204.776734571
 20
541.879030957
 30
0.0
 11
1220.231547792
 21
537.737926235
 31
0.0
  0
ARC
  8
0
  6
CONTINUOUS
 62
     1
 10
1220.749185882
 20
539.669777887
 30
0.0
 40
2.0
 50
255.0
 51
345.0
  0
LINE
  8
0
  6
CONTINUOUS
 62
     1
 10
1205.811311518
 20
553.467531297
 30
0.0
 11
1203.362521009
 21
544.328520699
 31
0.0
  0
ARC
  8
0
  6
CONTINUOUS
 62
     1
 10
1205.294372661
 20
543.810882609
 30
0.0
 40
2.0
 50
165.0
 51
255.0
  0
LINE
  8
0
  6
CONTINUOUS
 62
     1
 10
1282.765376152
 20
606.9099604
 30
0.0
 11
1259.100193408
 21
613.251027005
 31
0.0
  0
LINE
  8
0
  6
CONTINUOUS
 62
     1
 10
1282.765376152
 20
606.9099604
 30
0.0
 11
1263.612766815
 21
535.431449255
 31
0.0
  0
LINE
  8
0
  6
CONTINUOUS
 62
     1
 10
1263.612766815
 20
535.431449255
 30
0.0
 11
1239.947584071
 21
541.77251586
 31
0.0
  0
LINE
  8
0
  6
CONTINUOUS
 62
     1
 10
1244.042899941
 20
626.9
 30
0.0
 11
1304.075
 21
626.9
 31
0.0
  0
LINE
  8
0
  6
LTYPE1
 62
     2
 10
1225.987482205
 20
626.9
 30
0.0
 11
1243.525261851
 21
626.9
 31
0.0
  0
LINE
  8
0
  6
CONTINUOUS
 62
     1
 10
1256.202415929
 20
614.02748414
 30
0.0
 11
1251.881069578
 21
597.9
 31
0.0
  0
LINE
  8
0
  6
CONTINUOUS
 62
     1
 10
1259.100193408
 20
613.251027005
 30
0.0
 11
1254.986898119
 21
597.9
 31
0.0
  0
LINE
  8
0
  6
CONTINUOUS
 62
     1
 10
1244.268930422
 20
557.9
 30
0.0
 11
1239.947584071
 21
541.77251586
 31
0.0
  0
LINE
  8
0
  6
CONTINUOUS
 62
     1
 10
1241.163101881
 20
557.9
 30
0.0
 11
1237.049806592
 21
542.548972995
 31
0.0
  0
ARC
  8
0
  6
CONTINUOUS
 62
     1
 10
1248.075
 20
577.9
 30
0.0
 40
47.5
 50
212.559405213
 51
113.436601413
  0
ARC
  8
0
  6
LTYPE1
 62
     2
 10
1248.075
 20
577.9
 30
0.0
 40
47.5
 50
118.423107436
 51
210.032034511
  0
LINE
  8
0
  6
LTYPE1
 62
     2
 10
1243.645380188
 20
617.392131727
 30
0.0
 11
1245.457113503
 21
624.153612511
 31
0.0
  0
LINE
  8
0
  6
LTYPE1
 62
     2
 10
1222.681037534
 20
539.152139797
 30
0.0
 11
1224.49277085
 21
545.913620581
 31
0.0
  0
LINE
  8
0
  6
CONTINUOUS
 62
     1
 10
1289.590396986
 20
600.980767169
 30
0.0
 11
1308.075
 21
597.9
 31
0.0
  0
LINE
  8
7
  6
CONTINUOUS
 62
     2
 10
1188.075
 20
520.480767169
 30
0.0
 11
1188.075
 21
414.75050745
 31
0.0
  0
LINE
  8
7
  6
CONTINUOUS
 62
     2
 10
1308.075
 20
519.480767169
 30
0.0
 11
1308.075
 21
414.75050745
 31
0.0
  0
ARC
  8
0
  6
CONTINUOUS
 62
     1
 10
1248.075
 20
687.9
 30
0.0
 40
57.0
 50
228.39141429
 51
221.560742862
  0
ARC
  8
0
  6
CONTINUOUS
 62
     1
 10
1248.075
 20
687.9
 30
0.0
 40
42.0
 50
217.565441944
 51
206.861394151
  0
ARC
  8
0
  6
CONTINUOUS
 62
     1
 10
1248.075
 20
687.9
 30
0.0
 40
36.5
 50
210.61714978
 51
0.0
  0
ARC
  8
0
  6
CONTINUOUS
 62
     1
 10
1248.075
 20
687.9
 30
0.0
 40
36.5
 50
0.0
 51
207.933689262
  0
LINE
  8
0
  6
CONTINUOUS
 62
     1
 10
1206.375
 20
480.9
 30
0.0
 11
1195.775
 21
480.9
 31
0.0
  0
ARC
  8
0
  6
CONTINUOUS
 62
     1
 10
1201.475
 20
481.9
 30
0.0
 40
5.0
 50
272.3
 51
348.5
  0
ARC
  8
0
  6
CONTINUOUS
 62
     1
 10
1200.675
 20
481.9
 30
0.0
 40
5.0
 50
191.5
 51
267.7
  0
LINE
  8
0
  6
CONTINUOUS
 62
     1
 10
1201.675
 20
476.9
 30
0.0
 11
1200.475
 21
476.9
 31
0.0
  0
LINE
  8
0
  6
LTYPE6
 62
     2
 10
1201.075
 20
473.5
 30
0.0
 11
1201.075
 21
486.9
 31
0.0
  0
LINE
  8
0
  6
CONTINUOUS
 62
     1
 10
1300.375
 20
480.9
 30
0.0
 11
1289.775
 21
480.9
 31
0.0
  0
ARC
  8
0
  6
CONTINUOUS
 62
     1
 10
1295.475
 20
481.9
 30
0.0
 40
5.0
 50
272.3
 51
348.5
  0
ARC
  8
0
  6
CONTINUOUS
 62
     1
 10
1294.675
 20
481.9
 30
0.0
 40
5.0
 50
191.5
 51
267.7
  0
LINE
  8
0
  6
CONTINUOUS
 62
     1
 10
1295.675
 20
476.9
 30
0.0
 11
1294.475
 21
476.9
 31
0.0
  0
LINE
  8
0
  6
LTYPE6
 62
     2
 10
1295.075
 20
473.5
 30
0.0
 11
1295.075
 21
486.9
 31
0.0
  0
LINE
  8
7
  6
CONTINUOUS
 62
     2
 10
1394.075
 20
577.9
 30
0.0
 11
1394.075
 21
687.9
 31
0.0
  0
LINE
  8
7
  6
CONTINUOUS
 62
     2
 10
1394.075
 20
687.9
 30
0.0
 11
1391.486809549
 21
678.240741737
 31
0.0
  0
LINE
  8
7
  6
CONTINUOUS
 62
     2
 10
1394.075
 20
687.9
 30
0.0
 11
1396.663190451
 21
678.240741737
 31
0.0
  0
LINE
  8
7
  6
CONTINUOUS
 62
     2
 10
1426.075
 20
812.9
 30
0.0
 11
1426.075
 21
475.40039
 31
0.0
  0
LINE
  8
7
  6
CONTINUOUS
 62
     2
 10
1394.075
 20
687.9
 30
0.0
 11
1396.663190451
 21
697.559258263
 31
0.0
  0
LINE
  8
7
  6
CONTINUOUS
 62
     2
 10
1394.075
 20
687.9
 30
0.0
 11
1391.486809549
 21
697.559258263
 31
0.0
  0
LINE
  8
7
  6
CONTINUOUS
 62
     2
 10
1394.075
 20
687.9
 30
0.0
 11
1394.075
 21
812.9
 31
0.0
  0
LINE
  8
7
  6
CONTINUOUS
 62
     2
 10
1426.075
 20
812.9
 30
0.0
 11
1423.486809549
 21
803.240741737
 31
0.0
  0
LINE
  8
7
  6
CONTINUOUS
 62
     2
 10
1426.075
 20
812.9
 30
0.0
 11
1428.663190451
 21
803.240741737
 31
0.0
  0
LINE
  8
7
  6
CONTINUOUS
 62
     2
 10
1394.075
 20
812.9
 30
0.0
 11
1391.486809549
 21
803.240741737
 31
0.0
  0
LINE
  8
7
  6
CONTINUOUS
 62
     2
 10
1394.075
 20
812.9
 30
0.0
 11
1396.663190451
 21
803.240741737
 31
0.0
  0
LINE
  8
7
  6
CONTINUOUS
 62
     2
 10
1389.075
 20
812.9
 30
0.0
 11
1388.075
 21
812.9
 31
0.0
  0
TEXT
  8
7
  6
CONTINUOUS
 62
     2
 10
1390.075
 20
615.5
 30
0.0
 40
15.0
  1
１１０
 50
90.0
 41
0.9
 51
0.0
  7
KANJI26
  0
TEXT
  8
7
  6
CONTINUOUS
 62
     2
 10
1422.075
 20
626.750195
 30
0.0
 40
15.0
  1
３３８
 50
90.0
 41
0.9
 51
0.0
  7
KANJI26
  0
TEXT
  8
7
  6
CONTINUOUS
 62
     2
 10
1390.075
 20
733.0
 30
0.0
 40
15.0
  1
１２５
 50
90.0
 41
0.9
 51
0.0
  7
KANJI26
  0
LINE
  8
7
  6
CONTINUOUS
 62
     2
 10
1394.075
 20
577.9
 30
0.0
 11
1396.663190451
 21
587.559258263
 31
0.0
  0
LINE
  8
7
  6
CONTINUOUS
 62
     2
 10
1394.075
 20
577.9
 30
0.0
 11
1391.486809549
 21
587.559258263
 31
0.0
  0
LINE
  8
7
  6
CONTINUOUS
 62
     2
 10
1426.075
 20
475.40039
 30
0.0
 11
1428.663190451
 21
485.059648263
 31
0.0
  0
LINE
  8
7
  6
CONTINUOUS
 62
     2
 10
1426.075
 20
475.40039
 30
0.0
 11
1423.486809549
 21
485.059648263
 31
0.0
  0
LINE
  8
7
  6
CONTINUOUS
 62
     2
 10
1394.075
 20
577.9
 30
0.0
 11
1391.486809549
 21
568.240741737
 31
0.0
  0
LINE
  8
7
  6
CONTINUOUS
 62
     2
 10
1394.075
 20
577.9
 30
0.0
 11
1396.663190451
 21
568.240741737
 31
0.0
  0
LINE
  8
7
  6
CONTINUOUS
 62
     2
 10
1394.075
 20
577.9
 30
0.0
 11
1394.075
 21
475.40039
 31
0.0
  0
LINE
  8
7
  6
CONTINUOUS
 62
     2
 10
1394.075
 20
475.40039
 30
0.0
 11
1396.663190451
 21
485.059648263
 31
0.0
  0
LINE
  8
7
  6
CONTINUOUS
 62
     2
 10
1394.075
 20
475.40039
 30
0.0
 11
1391.486809549
 21
485.059648263
 31
0.0
  0
LINE
  8
7
  6
CONTINUOUS
 62
     2
 10
1397.075
 20
475.40039
 30
0.0
 11
1400.075
 21
475.40039
 31
0.0
  0
TEXT
  8
7
  6
CONTINUOUS
 62
     2
 10
1390.075
 20
509.250195
 30
0.0
 40
15.0
  1
１０３
 50
90.0
 41
0.9
 51
0.0
  7
KANJI26
  0
LINE
  8
0
  6
CONTINUOUS
 62
     2
 10
1440.0
 20
562.0
 30
0.0
 11
1560.0
 21
562.0
 31
0.0
  0
TEXT
  8
0
  6
CONTINUOUS
 62
     2
 10
1450.5
 20
569.0
 30
10.0
 40
20.0
  1
特記事項
 50
0.0
 41
0.9
 51
0.0
  7
KANJI48
  0
TEXT
  8
0
  6
CONTINUOUS
 62
     2
 10
1445.5
 20
469.25
 30
1.5
 40
17.5
  1
３．ＬＳユニット
 50
0.0
 41
0.857142857
 51
0.0
  7
KANJI49
  0
TEXT
  8
0
  6
CONTINUOUS
 62
     2
 10
1445.5
 20
531.75
 30
1.5
 40
17.5
  1
１．運転時は必ずピストンロッドの回転防止を行って下さい。
 50
0.0
 41
0.857142857
 51
0.0
  7
KANJI49
  0
TEXT
  8
0
  6
CONTINUOUS
 62
     2
 10
1445.5
 20
500.5
 30
1.5
 40
17.5
  1
２．モートル：全閉自冷かご形３０分定格
 50
0.0
 41
0.857142857
 51
0.0
  7
KANJI49
  0
TEXT
  8
0
  6
CONTINUOUS
 62
     2
 10
1445.5
 20
391.75
 30
1.5
 40
17.5
  1
４．呼称ストロークは、機械的ストロークです。
 50
0.0
 41
0.857142857
 51
0.0
  7
KANJI49
  0
TEXT
  8
0
  6
CONTINUOUS
 62
     2
 10
1445.5
 20
419.25
 30
1.5
 40
17.5
  1
　　ストローク７００ｍｍ以上の場合２ロッド方式となります。
 50
0.0
 41
0.857142857
 51
0.0
  7
KANJI49
  0
TEXT
  8
0
  6
CONTINUOUS
 62
     2
 10
1445.5
 20
444.25
 30
1.5
 40
17.5
  1
　　リミットスイッチ：１ＬＳ１－Ｊｘ２ケ（山武）
 50
0.0
 41
0.857142857
 51
0.0
  7
KANJI49
  0
TEXT
  8
0
  6
CONTINUOUS
 62
     2
 10
1445.5
 20
360.95
 30
1.5
 40
17.5
  1
　　必ず、常用はストローク両端に必ず余裕を取って下さい。
 50
0.0
 41
0.857142857
 51
0.0
  7
KANJI49
  0
TEXT
  8
0
  6
CONTINUOUS
 62
     2
 10
1445.5
 20
329.47
 30
1.5
 40
17.5
  1
　　前後の推奨余裕寸法は、各々１５ｍｍです。
 50
0.0
 41
0.857142857
 51
0.0
  7
KANJI49
  0
LINE
  8
0
  6
CONTINUOUS
 62
     2
 10
993.075
 20
616.4
 30
0.0
 11
981.000927171
 21
619.635238064
 31
0.0
  0
TEXT
  8
0
  6
CONTINUOUS
 62
     3
 10
959.075
 20
626.4
 30
0.0
 40
20.0
  1
前進
 50
0.0
 41
0.925
 51
0.0
  7
KANJI37
  0
LINE
  8
0
  6
CONTINUOUS
 62
     2
 10
993.075
 20
616.4
 30
0.0
 11
981.000927171
 21
613.164761936
 31
0.0
  0
LINE
  8
0
  6
CONTINUOUS
 62
     2
 10
993.075
 20
616.4
 30
0.0
 11
952.075
 21
616.4
 31
0.0
  0
LINE
  8
0
  6
CONTINUOUS
 62
     2
 10
979.0
 20
577.9
 30
0.0
 11
976.411809549
 21
568.240741737
 31
0.0
  0
LINE
  8
0
  6
CONTINUOUS
 62
     2
 10
979.0
 20
577.9
 30
0.0
 11
981.588190451
 21
568.240741737
 31
0.0
  0
LINE
  8
0
  6
CONTINUOUS
 62
     2
 10
979.0
 20
577.9
 30
0.0
 11
979.0
 21
424.9
 31
0.0
  0
LINE
  8
0
  6
CONTINUOUS
 62
     2
 10
979.0
 20
424.9
 30
0.0
 11
981.588190451
 21
434.559258263
 31
0.0
  0
LINE
  8
0
  6
CONTINUOUS
 62
     2
 10
979.0
 20
424.9
 30
0.0
 11
976.411809549
 21
434.559258263
 31
0.0
  0
LINE
  8
0
  6
CONTINUOUS
 62
     2
 10
829.075
 20
424.9
 30
0.0
 11
984.0
 21
424.9
 31
0.0
  0
TEXT
  8
0
  6
CONTINUOUS
 62
     3
 10
976.5
 20
481.15
 30
0.0
 40
15.0
  1
１５３
 50
90.0
 41
0.9
 51
0.0
  7
KANJI26
  0
LINE
  8
0
  6
CONTINUOUS
 62
     2
 10
951.0
 20
577.9
 30
0.0
 11
984.0
 21
577.9
 31
0.0
  0
TEXT
  8
0
  6
CONTINUOUS
 62
     6
 10
380.093715102
 20
1306.371931782
 30
0.0
 40
11.8638
  1
ＡＣ１００Ｖ　１２５Ｖ　２５０Ｖ　－１０Ａ
 50
0.0
 41
0.726495726
 51
0.0
  7
KANJI31
  0
LINE
  8
0
  6
CONTINUOUS
 62
     2
 10
132.75
 20
234.0
 30
0.0
 11
140.47740661
 21
231.929447639
 31
0.0
  0
LINE
  8
0
  6
CONTINUOUS
 62
     2
 10
132.75
 20
234.0
 30
0.0
 11
140.47740661
 21
236.070552361
 31
0.0
  0
LINE
  8
0
  6
CONTINUOUS
 62
     2
 10
132.75
 20
234.0
 30
0.0
 11
270.35
 21
234.0
 31
0.0
  0
LINE
  8
0
  6
CONTINUOUS
 62
     2
 10
270.35
 20
234.0
 30
0.0
 11
262.62259339
 21
236.070552361
 31
0.0
  0
LINE
  8
0
  6
CONTINUOUS
 62
     2
 10
270.35
 20
234.0
 30
0.0
 11
262.62259339
 21
231.929447639
 31
0.0
  0
LINE
  8
0
  6
CONTINUOUS
 62
     2
 10
270.35
 20
232.8
 30
0.0
 11
270.35
 21
230.0
 31
0.0
  0
LINE
  8
0
  6
CONTINUOUS
 62
     2
 10
270.35
 20
234.0
 30
0.0
 11
278.07740661
 21
231.929447639
 31
0.0
  0
LINE
  8
0
  6
CONTINUOUS
 62
     2
 10
270.35
 20
234.0
 30
0.0
 11
278.07740661
 21
236.070552361
 31
0.0
  0
LINE
  8
0
  6
CONTINUOUS
 62
     2
 10
270.35
 20
234.0
 30
0.0
 11
472.75
 21
234.0
 31
0.0
  0
LINE
  8
0
  6
CONTINUOUS
 62
     2
 10
472.75
 20
234.0
 30
0.0
 11
465.02259339
 21
236.070552361
 31
0.0
  0
LINE
  8
0
  6
CONTINUOUS
 62
     2
 10
472.75
 20
234.0
 30
0.0
 11
465.02259339
 21
231.929447639
 31
0.0
  0
LINE
  8
0
  6
CONTINUOUS
 62
     2
 10
270.35
 20
207.670552361
 30
0.0
 11
262.62259339
 21
209.741104722
 31
0.0
  0
LINE
  8
0
  6
CONTINUOUS
 62
     2
 10
270.35
 20
207.670552361
 30
0.0
 11
262.62259339
 21
205.6
 31
0.0
  0
LINE
  8
0
  6
CONTINUOUS
 62
     2
 10
258.35
 20
207.670552361
 30
0.0
 11
270.35
 21
207.670552361
 31
0.0
  0
LINE
  8
0
  6
CONTINUOUS
 62
     2
 10
270.35
 20
207.670552361
 30
0.0
 11
291.15
 21
207.670552361
 31
0.0
  0
LINE
  8
0
  6
CONTINUOUS
 62
     2
 10
291.15
 20
207.670552361
 30
0.0
 11
298.87740661
 21
205.6
 31
0.0
  0
LINE
  8
0
  6
CONTINUOUS
 62
     2
 10
291.15
 20
207.670552361
 30
0.0
 11
298.87740661
 21
209.741104722
 31
0.0
  0
LINE
  8
0
  6
CONTINUOUS
 62
     2
 10
132.75
 20
182.4
 30
0.0
 11
132.75
 21
176.4
 31
0.0
  0
LINE
  8
0
  6
CONTINUOUS
 62
     2
 10
132.75
 20
180.4
 30
0.0
 11
140.47740661
 21
178.329447639
 31
0.0
  0
LINE
  8
0
  6
CONTINUOUS
 62
     2
 10
132.75
 20
180.4
 30
0.0
 11
140.47740661
 21
182.470552361
 31
0.0
  0
LINE
  8
0
  6
CONTINUOUS
 62
     2
 10
132.75
 20
180.4
 30
0.0
 11
291.15
 21
180.4
 31
0.0
  0
LINE
  8
0
  6
CONTINUOUS
 62
     2
 10
291.15
 20
180.4
 30
0.0
 11
283.42259339
 21
182.470552361
 31
0.0
  0
LINE
  8
0
  6
CONTINUOUS
 62
     2
 10
291.15
 20
180.4
 30
0.0
 11
283.42259339
 21
178.329447639
 31
0.0
  0
LINE
  8
0
  6
CONTINUOUS
 62
     2
 10
291.15
 20
181.6
 30
0.0
 11
291.15
 21
176.4
 31
0.0
  0
LINE
  8
0
  6
CONTINUOUS
 62
     2
 10
291.15
 20
180.4
 30
0.0
 11
298.87740661
 21
178.329447639
 31
0.0
  0
LINE
  8
0
  6
CONTINUOUS
 62
     2
 10
291.15
 20
180.4
 30
0.0
 11
298.87740661
 21
182.470552361
 31
0.0
  0
LINE
  8
0
  6
CONTINUOUS
 62
     2
 10
472.75
 20
176.8
 30
0.0
 11
472.75
 21
176.4
 31
0.0
  0
LINE
  8
0
  6
CONTINUOUS
 62
     2
 10
132.75
 20
151.2
 30
0.0
 11
140.47740661
 21
149.129447639
 31
0.0
  0
LINE
  8
0
  6
CONTINUOUS
 62
     2
 10
132.75
 20
151.2
 30
0.0
 11
140.47740661
 21
153.270552361
 31
0.0
  0
LINE
  8
0
  6
CONTINUOUS
 62
     2
 10
132.75
 20
151.2
 30
0.0
 11
450.35
 21
151.2
 31
0.0
  0
LINE
  8
0
  6
CONTINUOUS
 62
     2
 10
450.35
 20
151.2
 30
0.0
 11
442.62259339
 21
153.270552361
 31
0.0
  0
LINE
  8
0
  6
CONTINUOUS
 62
     2
 10
450.35
 20
151.2
 30
0.0
 11
442.62259339
 21
149.129447639
 31
0.0
  0
LINE
  8
0
  6
CONTINUOUS
 62
     2
 10
450.35
 20
152.0
 30
0.0
 11
450.35
 21
147.2
 31
0.0
  0
LINE
  8
0
  6
CONTINUOUS
 62
     2
 10
450.35
 20
151.2
 30
0.0
 11
442.62259339
 21
153.270552361
 31
0.0
  0
LINE
  8
0
  6
CONTINUOUS
 62
     2
 10
450.35
 20
151.2
 30
0.0
 11
442.62259339
 21
149.129447639
 31
0.0
  0
LINE
  8
0
  6
CONTINUOUS
 62
     2
 10
438.35
 20
151.2
 30
0.0
 11
450.35
 21
151.2
 31
0.0
  0
LINE
  8
0
  6
CONTINUOUS
 62
     2
 10
450.35
 20
151.2
 30
0.0
 11
472.75
 21
151.2
 31
0.0
  0
LINE
  8
0
  6
CONTINUOUS
 62
     2
 10
472.75
 20
151.2
 30
0.0
 11
480.47740661
 21
149.129447639
 31
0.0
  0
LINE
  8
0
  6
CONTINUOUS
 62
     2
 10
472.75
 20
151.2
 30
0.0
 11
480.47740661
 21
153.270552361
 31
0.0
  0
LINE
  8
0
  6
CONTINUOUS
 62
     2
 10
132.75
 20
244.8
 30
0.0
 11
132.75
 21
230.0
 31
0.0
  0
LINE
  8
0
  6
CONTINUOUS
 62
     2
 10
472.75
 20
244.8
 30
0.0
 11
472.75
 21
230.0
 31
0.0
  0
LINE
  8
0
  6
CONTINUOUS
 62
     2
 10
270.35
 20
233.6
 30
0.0
 11
270.35
 21
244.8
 31
0.0
  0
LINE
  8
0
  6
CONTINUOUS
 62
     2
 10
291.15
 20
220.470552361
 30
0.0
 11
291.15
 21
203.670552361
 31
0.0
  0
LINE
  8
0
  6
CONTINUOUS
 62
     2
 10
132.75
 20
230.0
 30
0.0
 11
132.75
 21
138.0
 31
0.0
  0
LINE
  8
0
  6
CONTINUOUS
 62
     2
 10
472.75
 20
234.0
 30
0.0
 11
472.75
 21
139.2
 31
0.0
  0
LINE
  8
0
  6
CONTINUOUS
 62
     2
 10
291.15
 20
207.670552361
 30
0.0
 11
291.15
 21
171.2
 31
0.0
  0
LINE
  8
0
  6
CONTINUOUS
 62
     2
 10
270.35
 20
234.0
 30
0.0
 11
270.35
 21
198.4
 31
0.0
  0
TEXT
  8
0
  6
CONTINUOUS
 62
     3
 10
174.55
 20
236.0
 30
0.0
 40
15.0
  1
ｍｉｎ．Ｌ
 50
0.0
 41
0.9
 51
0.0
  7
KANJI26
  0
TEXT
  8
0
  6
CONTINUOUS
 62
     3
 10
328.35
 20
236.0
 30
0.0
 40
15.0
  1
機械的ストローク
 50
0.0
 41
0.9
 51
0.0
  7
KANJI26
  0
TEXT
  8
0
  6
CONTINUOUS
 62
     3
 10
303.15
 20
209.670552361
 30
0.0
 40
15.0
  1
余裕
 50
0.0
 41
0.9
 51
0.0
  7
KANJI26
  0
TEXT
  8
0
  6
CONTINUOUS
 62
     3
 10
184.95
 20
182.4
 30
0.0
 40
15.0
  1
常用ｍｉｎ
 50
0.0
 41
0.9
 51
0.0
  7
KANJI26
  0
TEXT
  8
0
  6
CONTINUOUS
 62
     3
 10
344.15
 20
182.4
 30
0.0
 40
15.0
  1
常用ストローク
 50
0.0
 41
0.9
 51
0.0
  7
KANJI26
  0
TEXT
  8
0
  6
CONTINUOUS
 62
     3
 10
264.55
 20
153.2
 30
0.0
 40
15.0
  1
常用ｍａｘ
 50
0.0
 41
0.9
 51
0.0
  7
KANJI26
  0
TEXT
  8
0
  6
CONTINUOUS
 62
     3
 10
484.75
 20
153.2
 30
0.0
 40
15.0
  1
余裕
 50
0.0
 41
0.9
 51
0.0
  7
KANJI26
  0
LINE
  8
0
  6
CONTINUOUS
 62
     2
 10
291.15
 20
207.670552361
 30
0.0
 11
331.25
 21
207.670552361
 31
0.0
  0
LINE
  8
0
  6
CONTINUOUS
 62
     2
 10
472.75
 20
151.2
 30
0.0
 11
515.25
 21
151.2
 31
0.0
  0
LINE
  8
0
  6
CONTINUOUS
 62
     1
 10
844.0
 20
963.95
 30
0.0
 11
1492.0
 21
963.95
 31
0.0
  0
LINE
  8
0
  6
CONTINUOUS
 62
     1
 10
844.0
 20
1215.95
 30
0.0
 11
844.0
 21
963.95
 31
0.0
  0
LINE
  8
0
  6
CONTINUOUS
 62
     1
 10
1012.0
 20
1215.95
 30
0.0
 11
1012.0
 21
963.95
 31
0.0
  0
LINE
  8
0
  6
CONTINUOUS
 62
     2
 10
1092.0
 20
1215.95
 30
0.0
 11
1092.0
 21
963.95
 31
0.0
  0
LINE
  8
0
  6
CONTINUOUS
 62
     2
 10
1172.0
 20
1215.95
 30
0.0
 11
1172.0
 21
963.95
 31
0.0
  0
LINE
  8
0
  6
CONTINUOUS
 62
     2
 10
1252.0
 20
1215.95
 30
0.0
 11
1252.0
 21
963.95
 31
0.0
  0
LINE
  8
0
  6
CONTINUOUS
 62
     2
 10
1332.0
 20
1215.95
 30
0.0
 11
1332.0
 21
963.95
 31
0.0
  0
LINE
  8
0
  6
CONTINUOUS
 62
     2
 10
1412.0
 20
1215.95
 30
0.0
 11
1412.0
 21
963.95
 31
0.0
  0
LINE
  8
0
  6
CONTINUOUS
 62
     1
 10
1492.0
 20
1215.95
 30
0.0
 11
1492.0
 21
963.95
 31
0.0
  0
TEXT
  8
0
  6
CONTINUOUS
 62
     2
 10
857.0
 20
970.35
 30
0.8
 40
12.0
  1
ＭＣＬＢ０１－　　　ＪＬ
 50
0.0
 41
0.833333333
 51
0.0
  7
KANJI23
  0
LINE
  8
0
  6
CONTINUOUS
 62
     2
 10
450.35
 20
195.0
 30
0.0
 11
450.35
 21
138.4
 31
0.0
  0
LINE
  8
0
  6
CONTINUOUS
 62
     2
 10
291.15
 20
180.4
 30
0.0
 11
450.35
 21
180.4
 31
0.0
  0
LINE
  8
0
  6
CONTINUOUS
 62
     2
 10
450.35
 20
180.4
 30
0.0
 11
442.62259339
 21
182.470552361
 31
0.0
  0
LINE
  8
0
  6
CONTINUOUS
 62
     2
 10
450.35
 20
180.4
 30
0.0
 11
442.62259339
 21
178.329447639
 31
0.0
  0
LINE
  8
0
  6
CONTINUOUS
 62
     1
 10
793.075
 20
451.9
 30
0.0
 11
801.735254038
 21
456.9
 31
0.0
  0
LINE
  8
0
  6
CONTINUOUS
 62
     1
 10
801.725
 20
424.9
 30
0.0
 11
801.725
 21
456.9
 31
0.0
  0
LINE
  8
0
  6
CONTINUOUS
 62
     1
 10
793.075
 20
429.9
 30
0.0
 11
793.075
 21
451.9
 31
0.0
  0
LINE
  8
0
  6
CONTINUOUS
 62
     1
 10
801.725
 20
456.9
 30
0.0
 11
826.425
 21
456.9
 31
0.0
  0
LINE
  8
0
  6
CONTINUOUS
 62
     1
 10
826.425
 20
424.9
 30
0.0
 11
826.425
 21
456.9
 31
0.0
  0
LINE
  8
0
  6
CONTINUOUS
 62
     1
 10
835.075
 20
451.9
 30
0.0
 11
826.414745962
 21
456.9
 31
0.0
  0
LINE
  8
0
  6
CONTINUOUS
 62
     1
 10
835.075
 20
429.9
 30
0.0
 11
835.075
 21
451.9
 31
0.0
  0
LINE
  8
0
  6
CONTINUOUS
 62
     1
 10
835.075
 20
429.9
 30
0.0
 11
826.414745962
 21
424.9
 31
0.0
  0
LINE
  8
0
  6
CONTINUOUS
 62
     1
 10
801.725
 20
424.9
 30
0.0
 11
826.425
 21
424.9
 31
0.0
  0
LINE
  8
0
  6
CONTINUOUS
 62
     1
 10
793.075
 20
429.9
 30
0.0
 11
801.735254038
 21
424.9
 31
0.0
  0
LINE
  8
0
  6
CONTINUOUS
 62
     1
 10
794.575
 20
177.0
 30
0.0
 11
803.235254038
 21
182.0
 31
0.0
  0
LINE
  8
0
  6
CONTINUOUS
 62
     1
 10
803.225
 20
150.0
 30
0.0
 11
803.225
 21
182.0
 31
0.0
  0
LINE
  8
0
  6
CONTINUOUS
 62
     1
 10
794.575
 20
155.0
 30
0.0
 11
794.575
 21
177.0
 31
0.0
  0
LINE
  8
0
  6
CONTINUOUS
 62
     1
 10
803.225
 20
182.0
 30
0.0
 11
827.925
 21
182.0
 31
0.0
  0
LINE
  8
0
  6
CONTINUOUS
 62
     1
 10
827.925
 20
150.0
 30
0.0
 11
827.925
 21
182.0
 31
0.0
  0
LINE
  8
0
  6
CONTINUOUS
 62
     1
 10
836.575
 20
177.0
 30
0.0
 11
827.914745962
 21
182.0
 31
0.0
  0
LINE
  8
0
  6
CONTINUOUS
 62
     1
 10
836.575
 20
155.0
 30
0.0
 11
836.575
 21
177.0
 31
0.0
  0
LINE
  8
0
  6
CONTINUOUS
 62
     1
 10
836.575
 20
155.0
 30
0.0
 11
827.914745962
 21
150.0
 31
0.0
  0
LINE
  8
0
  6
CONTINUOUS
 62
     1
 10
803.225
 20
150.0
 30
0.0
 11
827.925
 21
150.0
 31
0.0
  0
LINE
  8
0
  6
CONTINUOUS
 62
     1
 10
794.575
 20
155.0
 30
0.0
 11
803.235254038
 21
150.0
 31
0.0
  0
LINE
  8
0
  6
CONTINUOUS
 62
     1
 10
735.075
 20
174.0
 30
0.0
 11
794.575
 21
174.0
 31
0.0
  0
LINE
  8
0
  6
CONTINUOUS
 62
     1
 10
794.575
 20
158.0
 30
0.0
 11
735.075
 21
158.0
 31
0.0
  0
LINE
  8
0
  6
CONTINUOUS
 62
     1
 10
836.575
 20
174.0
 30
0.0
 11
862.884422037
 21
174.0
 31
0.0
  0
LINE
  8
0
  6
CONTINUOUS
 62
     1
 10
862.884422037
 20
158.0
 30
0.0
 11
836.575
 21
158.0
 31
0.0
  0
LINE
  8
0
  6
LTYPE1
 62
     2
 10
1192.075
 20
626.9
 30
0.0
 11
1199.0
 21
626.9
 31
0.0
  0
ARC
  8
0
  6
LTYPE1
 62
     2
 10
1192.075
 20
631.9
 30
0.0
 40
5.0
 50
200.525107977
 51
270.0
  0
LINE
  8
0
  6
CONTINUOUS
 62
     1
 10
1187.075
 20
630.479567053
 30
0.0
 11
1187.075
 21
743.9
 31
0.0
  0
LINE
  8
0
  6
CONTINUOUS
 62
     1
 10
1199.0
 20
626.9
 30
0.0
 11
1225.487482205
 21
626.9
 31
0.0
  0
LINE
  8
0
  6
CONTINUOUS
 62
     1
 10
1206.066805325
 20
625.964911196
 30
0.0
 11
1213.38766281
 21
626.9
 31
0.0
  0
LINE
  8
0
  6
LTYPE1
 62
     2
 10
1200.010094044
 20
619.908235693
 30
0.0
 11
1197.397453676
 21
599.453742279
 31
0.0
  0
ARC
  8
0
  6
LTYPE1
 62
     2
 10
1206.953679656
 20
619.021320344
 30
0.0
 40
7.0
 50
161.598923373
 51
172.720934092
  0
ARC
  8
0
  6
CONTINUOUS
 62
     1
 10
1206.953679656
 20
619.021320344
 30
0.0
 40
7.0
 50
97.278727439
 51
153.42078597
  0
LINE
  8
0
  6
LTYPE1
 62
     2
 10
1188.075
 20
563.75050745
 30
0.0
 11
1188.075
 21
629.0
 31
0.0
  0
LINE
  8
0
  6
CONTINUOUS
 62
     2
 10
1148.0
 20
675.5
 30
0.0
 11
1116.932018398
 21
749.662278662
 31
0.0
  0
LINE
  8
0
  6
CONTINUOUS
 62
     2
 10
1148.0
 20
675.5
 30
0.0
 11
1146.65499589
 21
685.409135378
 31
0.0
  0
LINE
  8
0
  6
CONTINUOUS
 62
     2
 10
1148.0
 20
675.5
 30
0.0
 11
1141.880624583
 21
683.409060912
 31
0.0
  0
TEXT
  8
2
  6
CONTINUOUS
 62
     2
 10
1019.910180805
 20
753.662278662
 30
0.0
 40
15.0
  1
２－ＰＦ１／２
 50
0.0
 41
0.9
 51
0.0
  7
KANJI26
  0
LINE
  8
2
  6
CONTINUOUS
 62
     2
 10
1116.932018398
 20
749.662278662
 30
0.0
 11
1018.0
 21
749.662278662
 31
0.0
  0
LINE
  8
7
  6
CONTINUOUS
 62
     2
 10
1129.0
 20
699.965188182
 30
0.0
 11
985.915741737
 21
699.965188182
 31
0.0
  0
LINE
  8
0
  6
CONTINUOUS
 62
     1
 10
784.075
 20
158.0
 30
0.0
 11
784.075
 21
141.0
 31
0.0
  0
LINE
  8
7
  6
CONTINUOUS
 62
     2
 10
1321.592857143
 20
687.9
 30
0.0
 11
1338.375
 21
687.9
 31
0.0
  0
TEXT
  8
0
  6
CONTINUOUS
 62
     2
 10
1372.6666945
 20
78.999995
 30
1.5
 40
17.5
  1
０７．０９．２６
 50
0.0
 41
0.571428571
 51
0.0
  7
KANJI50
  0
LINE
  8
0
  6
CONTINUOUS
 62
     1
 10
1560.5
 20
1340.5
 30
0.0
 11
1998.0
 21
1340.5
 31
0.0
  0
TEXT
  8
0
  6
CONTINUOUS
 62
     2
 10
1623.0
 20
1304.0
 30
14.2497
 40
22.5
  1
マイティシリンダ仕様
 50
0.0
 41
0.9
 51
0.0
  7
KANJI51
  0
LINE
  8
0
  6
CONTINUOUS
 62
     2
 10
1560.5
 20
730.5
 30
0.0
 11
1998.0
 21
730.5
 31
0.0
  0
LINE
  8
0
  6
CONTINUOUS
 62
     2
 10
1560.5
 20
695.5
 30
0.0
 11
1998.0
 21
695.5
 31
0.0
  0
LINE
  8
0
  6
CONTINUOUS
 62
     2
 10
1600.5
 20
765.5
 30
0.0
 11
1998.0
 21
765.5
 31
0.0
  0
LINE
  8
0
  6
CONTINUOUS
 62
     2
 10
1600.5
 20
1010.5
 30
0.0
 11
1600.5
 21
730.5
 31
0.0
  0
LINE
  8
0
  6
CONTINUOUS
 62
     2
 10
1600.5
 20
870.5
 30
0.0
 11
1998.0
 21
870.5
 31
0.0
  0
LINE
  8
0
  6
CONTINUOUS
 62
     2
 10
1600.5
 20
905.5
 30
0.0
 11
1998.0
 21
905.5
 31
0.0
  0
LINE
  8
0
  6
CONTINUOUS
 62
     2
 10
1560.5
 20
1080.5
 30
0.0
 11
1998.0
 21
1080.5
 31
0.0
  0
LINE
  8
0
  6
CONTINUOUS
 62
     2
 10
1560.5
 20
1045.5
 30
0.0
 11
1998.0
 21
1045.5
 31
0.0
  0
LINE
  8
0
  6
CONTINUOUS
 62
     2
 10
1560.5
 20
1010.5
 30
0.0
 11
1998.0
 21
1010.5
 31
0.0
  0
LINE
  8
0
  6
CONTINUOUS
 62
     2
 10
1600.5
 20
940.5
 30
0.0
 11
1998.0
 21
940.5
 31
0.0
  0
LINE
  8
0
  6
CONTINUOUS
 62
     2
 10
1600.5
 20
975.5
 30
0.0
 11
1998.0
 21
975.5
 31
0.0
  0
LINE
  8
0
  6
CONTINUOUS
 62
     2
 10
1560.5
 20
1255.5
 30
0.0
 11
1998.0
 21
1255.5
 31
0.0
  0
LINE
  8
0
  6
CONTINUOUS
 62
     2
 10
1560.5
 20
1220.5
 30
0.0
 11
1998.0
 21
1220.5
 31
0.0
  0
LINE
  8
0
  6
CONTINUOUS
 62
     2
 10
1560.5
 20
1185.5
 30
0.0
 11
1998.0
 21
1185.5
 31
0.0
  0
LINE
  8
0
  6
CONTINUOUS
 62
     2
 10
1560.5
 20
1150.5
 30
0.0
 11
1998.0
 21
1150.5
 31
0.0
  0
LINE
  8
0
  6
CONTINUOUS
 62
     2
 10
1560.5
 20
1115.5
 30
0.0
 11
1998.0
 21
1115.5
 31
0.0
  0
LINE
  8
0
  6
CONTINUOUS
 62
     2
 10
1560.5
 20
1290.5
 30
0.0
 11
1998.0
 21
1290.5
 31
0.0
  0
TEXT
  8
0
  6
CONTINUOUS
 62
     2
 10
1623.0
 20
949.5
 30
27.866485714
 40
19.0
  1
電源電圧
 50
0.0
 41
0.9
 51
0.0
  7
KANJI52
  0
TEXT
  8
0
  6
CONTINUOUS
 62
     2
 10
1623.0
 20
914.5
 30
50.35
 40
19.0
  1
周波数
 50
0.0
 41
0.9
 51
0.0
  7
KANJI53
  0
TEXT
  8
0
  6
CONTINUOUS
 62
     2
 10
1623.0
 20
879.5
 30
117.8
 40
19.0
  1
電流
 50
0.0
 41
0.9
 51
0.0
  7
KANJI54
  0
TEXT
  8
0
  6
CONTINUOUS
 62
     2
 10
1623.0
 20
844.5
 30
50.35
 40
19.0
  1
絶縁級
 50
0.0
 41
0.9
 51
0.0
  7
KANJI53
  0
TEXT
  8
0
  6
CONTINUOUS
 62
     2
 10
1588.0
 20
1264.5
 30
150.371428571
 40
19.0
  1
形式
 50
0.0
 41
0.9
 51
0.0
  7
KANJI55
  0
TEXT
  8
0
  6
CONTINUOUS
 62
     2
 10
1588.0
 20
1229.5
 30
150.371428571
 40
19.0
  1
推力
 50
0.0
 41
0.9
 51
0.0
  7
KANJI55
  0
TEXT
  8
0
  6
CONTINUOUS
 62
     2
 10
1588.0
 20
1194.5
 30
24.767857143
 40
19.0
  1
ストローク
 50
0.0
 41
0.9
 51
0.0
  7
KANJI56
  0
TEXT
  8
0
  6
CONTINUOUS
 62
     2
 10
1588.0
 20
1089.5
 30
150.371428571
 40
19.0
  1
構造
 50
0.0
 41
0.9
 51
0.0
  7
KANJI55
  0
TEXT
  8
0
  6
CONTINUOUS
 62
     2
 10
1588.0
 20
1054.5
 30
10.811542857
 40
19.0
  1
過負荷安全装置
 50
0.0
 41
0.9
 51
0.0
  7
KANJI57
  0
TEXT
  8
0
  6
CONTINUOUS
 62
     2
 10
1588.0
 20
1019.5
 30
66.635714286
 40
19.0
  1
塗装色
 50
0.0
 41
0.9
 51
0.0
  7
KANJI58
  0
TEXT
  8
0
  6
CONTINUOUS
 62
     2
 10
1568.0
 20
1124.5
 30
1.628571429
 40
19.0
  1
ピストンロッド回転トルク
 50
0.0
 41
0.9
 51
0.0
  7
KANJI59
  0
TEXT
  8
0
  6
CONTINUOUS
 62
     2
 10
1588.0
 20
704.5
 30
66.635714286
 40
19.0
  1
付属品
 50
0.0
 41
0.9
 51
0.0
  7
KANJI58
  0
LINE
  8
0
  6
CONTINUOUS
 62
     2
 10
1560.5
 20
835.5
 30
0.0
 11
1998.0
 21
835.5
 31
0.0
  0
LINE
  8
0
  6
CONTINUOUS
 62
     2
 10
1600.5
 20
800.5
 30
0.0
 11
1998.0
 21
800.5
 31
0.0
  0
TEXT
  8
0
  6
CONTINUOUS
 62
     2
 10
1580.875
 20
1005.5
 30
11.0
 40
17.5
  1
モ　トル仕様
 50
0.0
 41
0.9
 51
0.0
  7
KANJI60
  0
TEXT
  8
0
  6
CONTINUOUS
 62
     2
 10
1580.875
 20
820.5
 30
1.0
 40
17.5
  1
ブレ　キ
 50
0.0
 41
0.9
 51
0.0
  7
KANJI61
  0
LINE
  8
0
  6
CONTINUOUS
 62
     2
 10
1579.5
 20
779.0
 30
0.0
 11
1579.5
 21
768.5
 31
0.0
  0
TEXT
  8
0
  6
CONTINUOUS
 62
     2
 10
1839.25
 20
1055.5
 30
7.5
 40
17.5
  1
推力リミッタ
 50
0.0
 41
0.9
 51
0.0
  7
KANJI62
  0
TEXT
  8
0
  6
CONTINUOUS
 62
     2
 10
1886.75
 20
845.5
 30
1.5
 40
15.0
  1
Ｅ
 50
0.0
 41
0.9
 51
0.0
  7
KANJI63
  0
TEXT
  8
0
  6
CONTINUOUS
 62
     2
 10
1850.5
 20
774.5
 30
10.0
 40
17.5
  1
同時切り
 50
0.0
 41
0.9
 51
0.0
  7
KANJI64
  0
TEXT
  8
0
  6
CONTINUOUS
 62
     2
 10
1623.0
 20
809.5
 30
117.8
 40
19.0
  1
形式
 50
0.0
 41
0.9
 51
0.0
  7
KANJI54
  0
TEXT
  8
0
  6
CONTINUOUS
 62
     2
 10
1623.0
 20
774.5
 30
27.866485714
 40
19.0
  1
操作方式
 50
0.0
 41
0.9
 51
0.0
  7
KANJI52
  0
LINE
  8
0
  6
CONTINUOUS
 62
     2
 10
1579.5
 20
975.0
 30
0.0
 11
1579.5
 21
963.5
 31
0.0
  0
TEXT
  8
0
  6
CONTINUOUS
 62
     2
 10
1623.0
 20
984.5
 30
2.5
 40
19.0
  1
出力　相数　極数
 50
0.0
 41
0.9
 51
0.0
  7
KANJI65
  0
TEXT
  8
0
  6
CONTINUOUS
 62
     2
 10
1839.25
 20
1090.5
 30
7.5
 40
17.5
  1
全閉屋外形
 50
0.0
 41
0.9
 51
0.0
  7
KANJI62
  0
TEXT
  8
0
  6
CONTINUOUS
 62
     2
 10
1588.0
 20
1159.5
 30
10.0
 40
19.0
  1
公称速度
 50
0.0
 41
0.9
 51
0.0
  7
KANJI66
  0
TEXT
  8
0
  6
CONTINUOUS
 62
     2
 10
1691.25
 20
1158.5
 30
0.0
 40
17.5
  1
（５０／６０Ｈｚ）
 50
0.0
 41
0.628571429
 51
0.0
  7
KANJI67
  0
TEXT
  8
0
  6
CONTINUOUS
 62
     2
 10
1791.75
 20
809.875
 30
2.75
 40
17.0
  1
スプリング制動式電磁ブレーキ
 50
0.0
 41
0.705882353
 51
0.0
  7
KANJI68
  0
TEXT
  8
0
  6
CONTINUOUS
 62
     2
 10
1974.25
 20
949.5
 30
0.18
 40
15.0
  1
Ｖ
 50
0.0
 41
0.8
 51
0.0
  7
KANJI69
  0
TEXT
  8
0
  6
CONTINUOUS
 62
     2
 10
1965.25
 20
914.5
 30
0.18
 40
15.0
  1
Ｈｚ
 50
0.0
 41
0.8
 51
0.0
  7
KANJI69
  0
TEXT
  8
0
  6
CONTINUOUS
 62
     2
 10
1974.25
 20
879.5
 30
0.18
 40
15.0
  1
Ａ
 50
0.0
 41
0.8
 51
0.0
  7
KANJI69
  0
TEXT
  8
0
  6
CONTINUOUS
 62
     2
 10
1908.5
 20
985.5
 30
1.5
 40
15.0
  1
３φ
 50
0.0
 41
0.9
 51
0.0
  7
KANJI63
  0
TEXT
  8
0
  6
CONTINUOUS
 62
     2
 10
1958.5
 20
985.5
 30
1.5
 40
15.0
  1
４Ｐ
 50
0.0
 41
0.9
 51
0.0
  7
KANJI63
  0
TEXT
  8
0
  6
CONTINUOUS
 62
     2
 10
1790.5
 20
1020.5
 30
1.0
 40
16.0
  1
マンセル　７．５ＧＹ　５／４．５
 50
0.0
 41
0.71875
 51
0.0
  7
KANJI70
  0
TEXT
  8
0
  6
CONTINUOUS
 62
     2
 10
1790.5
 20
950.5
 30
1.5
 40
15.0
  1
　　　　　　　／　　　
 50
0.0
 41
0.9
 51
0.0
  7
KANJI63
  0
TEXT
  8
0
  6
CONTINUOUS
 62
     2
 10
1790.5
 20
915.5
 30
1.5
 40
15.0
  1
　　　　５０／　６０
 50
0.0
 41
0.9
 51
0.0
  7
KANJI63
  0
TEXT
  8
0
  6
CONTINUOUS
 62
     2
 10
1790.5
 20
880.5
 30
1.5
 40
15.0
  1
　　　　　　　／　　　
 50
0.0
 41
0.9
 51
0.0
  7
KANJI63
  0
TEXT
  8
0
  6
CONTINUOUS
 62
     2
 10
1961.0
 20
1196.5
 30
0.128
 40
16.0
  1
ｍｍ
 50
0.0
 41
0.8
 51
0.0
  7
KANJI71
  0
TEXT
  8
0
  6
CONTINUOUS
 62
     2
 10
1928.5
 20
1160.5
 30
0.0
 40
17.5
  1
ｍｍ／ｓｅｃ
 50
0.0
 41
0.571428571
 51
0.0
  7
KANJI72
  0
TEXT
  8
0
  6
CONTINUOUS
 62
     2
 10
1795.5
 20
985.5
 30
1.5
 40
15.0
  1
　０．３ＫＷ
 50
0.0
 41
0.9
 51
0.0
  7
KANJI63
  0
TEXT
  8
0
  6
CONTINUOUS
 62
     2
 10
1801.75
 20
1263.75
 30
1.0
 40
15.0
  1
ＭＣＬＢ０１－　　ＪＬ
 50
0.0
 41
0.833333333
 51
0.0
  7
KANJI73
  0
TEXT
  8
0
  6
CONTINUOUS
 62
     2
 10
1788.0
 20
1160.5
 30
1.5
 40
15.0
  1
　　２５／３０
 50
0.0
 41
0.9
 51
0.0
  7
KANJI63
  0
TEXT
  8
0
  6
CONTINUOUS
 62
     2
 10
1827.0
 20
1230.5
 30
1.5
 40
15.0
  1
９８０Ｎ（１００ｋｇ）
 50
0.0
 41
0.9
 51
0.0
  7
KANJI63
  0
TEXT
  8
0
  6
CONTINUOUS
 62
     2
 10
1798.625
 20
1124.375
 30
0.0
 40
15.0
  1
２．９Ｎ・ｍ（０．３ｋｇ・ｍ）
 50
0.0
 41
0.833333333
 51
0.0
  7
KANJI74
  0
LINE
  8
0
  6
CONTINUOUS
 62
     1
 10
1560.5
 20
625.5
 30
0.0
 11
1998.0
 21
625.5
 31
0.0
  0
LINE
  8
0
  6
CONTINUOUS
 62
     2
 10
1560.5
 20
660.5
 30
0.0
 11
1998.0
 21
660.5
 31
0.0
  0
TEXT
  8
0
  6
CONTINUOUS
 62
     2
 10
1952.0
 20
635.65
 30
0.0
 40
17.5
  1
ｋｇ
 50
0.0
 41
0.9
 51
0.0
  7
KANJI75
  0
TEXT
  8
0
  6
CONTINUOUS
 62
     2
 10
1588.0
 20
669.5
 30
150.371428571
 40
19.0
  1
台数
 50
0.0
 41
0.9
 51
0.0
  7
KANJI55
  0
TEXT
  8
0
  6
CONTINUOUS
 62
     2
 10
1591.0
 20
634.5
 30
5.0
 40
17.5
  1
概算重量（１台当り）
 50
0.0
 41
0.857142857
 51
0.0
  7
KANJI22
  0
LINE
  8
0
  6
CONTINUOUS
 62
     1
 10
1560.5
 20
1340.5
 30
0.0
 11
1560.5
 21
625.5
 31
0.0
  0
LINE
  8
0
  6
CONTINUOUS
 62
     2
 10
1790.5
 20
1290.5
 30
0.0
 11
1790.5
 21
625.5
 31
0.0
  0
LINE
  8
0
  6
CONTINUOUS
 62
     1
 10
1998.0
 20
1340.5
 30
0.0
 11
1998.0
 21
625.5
 31
0.0
  0
ENDSEC
  0
EOF
