  0
SECTION
  2
HEADER
  9
$ACADVER
  1
AC1009
  9
$DWGCODEPAGE
  3
dos932
  9
$EXTMIN
 10
0.0
 20
0.0
 30
0.0
  9
$EXTMAX
 10
2100.0
 20
1485.0
 30
0.0
  9
$LIMMIN
 10
0.0
 20
0.0
  9
$LIMMAX
 10
2100.0
 20
1485.0
  9
$LTSCALE
 40
1.0
  9
$PDMODE
 70
     0
  0
ENDSEC
  0
SECTION
  2
TABLES
  0
TABLE
  2
VPORT
 70
     1
  0
VPORT
  2
*ACTIVE
 70
     0
 10
0.0
 20
0.0
 11
1.0
 21
1.0
 12
1050.0
 22
742.5
 13
0.0
 23
0.0
 14
10.0
 24
10.0
 15
10.0
 25
10.0
 16
0.0
 26
0.0
 36
1.0
 17
0.0
 27
0.0
 37
0.0
 40
2100.0
 41
1.414141414
 42
50.0
 43
0.0
 44
0.0
 50
0.0
 51
0.0
 71
     0
 72
  1000
 73
     1
 74
     3
 75
     0
 76
     0
 77
     0
 78
     0
  0
ENDTAB
  0
TABLE
  2
LTYPE
 70
     6
  0
LTYPE
  2
CONTINUOUS
 70
    64
  3
Solid line
 72
    65
 73
     0
 40
0.0
  0
LTYPE
  2
LTYPE1
 70
    64
  3
HIDDEN
 72
    65
 73
     2
 40
15.0
 49
9.0
 49
-6.0
  0
LTYPE
  2
LTYPE2
 70
    64
  3
CENTER
 72
    65
 73
     4
 40
75.0
 49
52.5
 49
-7.5
 49
7.5
 49
-7.5
  0
LTYPE
  2
LTYPE3
 70
    64
  3
CENTER
 72
    65
 73
     4
 40
50.0
 49
35.0
 49
-5.0
 49
5.0
 49
-5.0
  0
LTYPE
  2
LTYPE4
 70
    64
  3
PHANTOM
 72
    65
 73
     6
 40
50.0
 49
37.5
 49
-2.5
 49
2.5
 49
-2.5
 49
2.5
 49
-2.5
  0
LTYPE
  2
LTYPE5
 70
    64
  3
CENTER
 72
    65
 73
     4
 40
45.0
 49
31.5
 49
-4.5
 49
4.5
 49
-4.5
  0
ENDTAB
  0
TABLE
  2
LAYER
 70
   128
  0
LAYER
  2
0
 70
     0
 62
     7
  6
CONTINUOUS
  0
LAYER
  2
2
 70
     0
 62
     7
  6
CONTINUOUS
  0
LAYER
  2
3
 70
     0
 62
     7
  6
CONTINUOUS
  0
LAYER
  2
4
 70
     0
 62
     7
  6
CONTINUOUS
  0
LAYER
  2
5
 70
     0
 62
     7
  6
CONTINUOUS
  0
LAYER
  2
6
 70
     0
 62
     7
  6
CONTINUOUS
  0
LAYER
  2
7
 70
     0
 62
     7
  6
CONTINUOUS
  0
LAYER
  2
8
 70
     0
 62
     7
  6
CONTINUOUS
  0
LAYER
  2
9
 70
     0
 62
     7
  6
CONTINUOUS
  0
LAYER
  2
10
 70
     0
 62
     7
  6
CONTINUOUS
  0
LAYER
  2
11
 70
     0
 62
     7
  6
CONTINUOUS
  0
LAYER
  2
12
 70
     0
 62
     7
  6
CONTINUOUS
  0
LAYER
  2
13
 70
     0
 62
     7
  6
CONTINUOUS
  0
LAYER
  2
14
 70
     0
 62
     7
  6
CONTINUOUS
  0
LAYER
  2
15
 70
     0
 62
     7
  6
CONTINUOUS
  0
LAYER
  2
16
 70
     0
 62
     7
  6
CONTINUOUS
  0
LAYER
  2
17
 70
     0
 62
     7
  6
CONTINUOUS
  0
LAYER
  2
18
 70
     0
 62
     7
  6
CONTINUOUS
  0
LAYER
  2
19
 70
     0
 62
     7
  6
CONTINUOUS
  0
LAYER
  2
20
 70
     0
 62
     7
  6
CONTINUOUS
  0
LAYER
  2
21
 70
     0
 62
     7
  6
CONTINUOUS
  0
LAYER
  2
22
 70
     0
 62
     7
  6
CONTINUOUS
  0
LAYER
  2
23
 70
     0
 62
     7
  6
CONTINUOUS
  0
LAYER
  2
24
 70
     0
 62
     7
  6
CONTINUOUS
  0
LAYER
  2
25
 70
     0
 62
     7
  6
CONTINUOUS
  0
LAYER
  2
26
 70
     0
 62
     7
  6
CONTINUOUS
  0
LAYER
  2
27
 70
     0
 62
     7
  6
CONTINUOUS
  0
LAYER
  2
28
 70
     0
 62
     7
  6
CONTINUOUS
  0
LAYER
  2
29
 70
     0
 62
     7
  6
CONTINUOUS
  0
LAYER
  2
30
 70
     0
 62
     7
  6
CONTINUOUS
  0
LAYER
  2
31
 70
     0
 62
     7
  6
CONTINUOUS
  0
LAYER
  2
32
 70
     0
 62
     7
  6
CONTINUOUS
  0
LAYER
  2
33
 70
     0
 62
     7
  6
CONTINUOUS
  0
LAYER
  2
34
 70
     0
 62
     7
  6
CONTINUOUS
  0
LAYER
  2
35
 70
     0
 62
     7
  6
CONTINUOUS
  0
LAYER
  2
36
 70
     0
 62
     7
  6
CONTINUOUS
  0
LAYER
  2
37
 70
     0
 62
     7
  6
CONTINUOUS
  0
LAYER
  2
38
 70
     0
 62
     7
  6
CONTINUOUS
  0
LAYER
  2
39
 70
     0
 62
     7
  6
CONTINUOUS
  0
LAYER
  2
40
 70
     0
 62
     7
  6
CONTINUOUS
  0
LAYER
  2
41
 70
     0
 62
     7
  6
CONTINUOUS
  0
LAYER
  2
42
 70
     0
 62
     7
  6
CONTINUOUS
  0
LAYER
  2
43
 70
     0
 62
     7
  6
CONTINUOUS
  0
LAYER
  2
44
 70
     0
 62
     7
  6
CONTINUOUS
  0
LAYER
  2
45
 70
     0
 62
     7
  6
CONTINUOUS
  0
LAYER
  2
46
 70
     0
 62
     7
  6
CONTINUOUS
  0
LAYER
  2
47
 70
     0
 62
     7
  6
CONTINUOUS
  0
LAYER
  2
48
 70
     0
 62
     7
  6
CONTINUOUS
  0
LAYER
  2
49
 70
     0
 62
     7
  6
CONTINUOUS
  0
LAYER
  2
50
 70
     0
 62
     7
  6
CONTINUOUS
  0
LAYER
  2
51
 70
     0
 62
     7
  6
CONTINUOUS
  0
LAYER
  2
52
 70
     0
 62
     7
  6
CONTINUOUS
  0
LAYER
  2
53
 70
     0
 62
     7
  6
CONTINUOUS
  0
LAYER
  2
54
 70
     0
 62
     7
  6
CONTINUOUS
  0
LAYER
  2
55
 70
     0
 62
     7
  6
CONTINUOUS
  0
LAYER
  2
56
 70
     0
 62
     7
  6
CONTINUOUS
  0
LAYER
  2
57
 70
     0
 62
     7
  6
CONTINUOUS
  0
LAYER
  2
58
 70
     0
 62
     7
  6
CONTINUOUS
  0
LAYER
  2
59
 70
     0
 62
     7
  6
CONTINUOUS
  0
LAYER
  2
60
 70
     0
 62
     7
  6
CONTINUOUS
  0
LAYER
  2
61
 70
     0
 62
     7
  6
CONTINUOUS
  0
LAYER
  2
62
 70
     0
 62
     7
  6
CONTINUOUS
  0
LAYER
  2
63
 70
     0
 62
     7
  6
CONTINUOUS
  0
LAYER
  2
64
 70
     0
 62
     7
  6
CONTINUOUS
  0
LAYER
  2
65
 70
     0
 62
     7
  6
CONTINUOUS
  0
LAYER
  2
66
 70
     0
 62
     7
  6
CONTINUOUS
  0
LAYER
  2
67
 70
     0
 62
     7
  6
CONTINUOUS
  0
LAYER
  2
68
 70
     0
 62
     7
  6
CONTINUOUS
  0
LAYER
  2
69
 70
     0
 62
     7
  6
CONTINUOUS
  0
LAYER
  2
70
 70
     0
 62
     7
  6
CONTINUOUS
  0
LAYER
  2
71
 70
     0
 62
     7
  6
CONTINUOUS
  0
LAYER
  2
72
 70
     0
 62
     7
  6
CONTINUOUS
  0
LAYER
  2
73
 70
     0
 62
     7
  6
CONTINUOUS
  0
LAYER
  2
74
 70
     0
 62
     7
  6
CONTINUOUS
  0
LAYER
  2
75
 70
     0
 62
     7
  6
CONTINUOUS
  0
LAYER
  2
76
 70
     0
 62
     7
  6
CONTINUOUS
  0
LAYER
  2
77
 70
     0
 62
     7
  6
CONTINUOUS
  0
LAYER
  2
78
 70
     0
 62
     7
  6
CONTINUOUS
  0
LAYER
  2
79
 70
     0
 62
     7
  6
CONTINUOUS
  0
LAYER
  2
80
 70
     0
 62
     7
  6
CONTINUOUS
  0
LAYER
  2
81
 70
     0
 62
     7
  6
CONTINUOUS
  0
LAYER
  2
82
 70
     0
 62
     7
  6
CONTINUOUS
  0
LAYER
  2
83
 70
     0
 62
     7
  6
CONTINUOUS
  0
LAYER
  2
84
 70
     0
 62
     7
  6
CONTINUOUS
  0
LAYER
  2
85
 70
     0
 62
     7
  6
CONTINUOUS
  0
LAYER
  2
86
 70
     0
 62
     7
  6
CONTINUOUS
  0
LAYER
  2
87
 70
     0
 62
     7
  6
CONTINUOUS
  0
LAYER
  2
88
 70
     0
 62
     7
  6
CONTINUOUS
  0
LAYER
  2
89
 70
     0
 62
     7
  6
CONTINUOUS
  0
LAYER
  2
90
 70
     0
 62
     7
  6
CONTINUOUS
  0
LAYER
  2
91
 70
     0
 62
     7
  6
CONTINUOUS
  0
LAYER
  2
92
 70
     0
 62
     7
  6
CONTINUOUS
  0
LAYER
  2
93
 70
     0
 62
     7
  6
CONTINUOUS
  0
LAYER
  2
94
 70
     0
 62
     7
  6
CONTINUOUS
  0
LAYER
  2
95
 70
     0
 62
     7
  6
CONTINUOUS
  0
LAYER
  2
96
 70
     0
 62
     7
  6
CONTINUOUS
  0
LAYER
  2
97
 70
     0
 62
     7
  6
CONTINUOUS
  0
LAYER
  2
98
 70
     0
 62
     7
  6
CONTINUOUS
  0
LAYER
  2
99
 70
     0
 62
     7
  6
CONTINUOUS
  0
LAYER
  2
100
 70
     0
 62
     7
  6
CONTINUOUS
  0
LAYER
  2
101
 70
     0
 62
     7
  6
CONTINUOUS
  0
LAYER
  2
102
 70
     0
 62
     7
  6
CONTINUOUS
  0
LAYER
  2
103
 70
     0
 62
     7
  6
CONTINUOUS
  0
LAYER
  2
104
 70
     0
 62
     7
  6
CONTINUOUS
  0
LAYER
  2
105
 70
     0
 62
     7
  6
CONTINUOUS
  0
LAYER
  2
106
 70
     0
 62
     7
  6
CONTINUOUS
  0
LAYER
  2
107
 70
     0
 62
     7
  6
CONTINUOUS
  0
LAYER
  2
108
 70
     0
 62
     7
  6
CONTINUOUS
  0
LAYER
  2
109
 70
     0
 62
     7
  6
CONTINUOUS
  0
LAYER
  2
110
 70
     0
 62
     7
  6
CONTINUOUS
  0
LAYER
  2
111
 70
     0
 62
     7
  6
CONTINUOUS
  0
LAYER
  2
112
 70
     0
 62
     7
  6
CONTINUOUS
  0
LAYER
  2
113
 70
     0
 62
     7
  6
CONTINUOUS
  0
LAYER
  2
114
 70
     0
 62
     7
  6
CONTINUOUS
  0
LAYER
  2
115
 70
     0
 62
     7
  6
CONTINUOUS
  0
LAYER
  2
116
 70
     0
 62
     7
  6
CONTINUOUS
  0
LAYER
  2
117
 70
     0
 62
     7
  6
CONTINUOUS
  0
LAYER
  2
118
 70
     0
 62
     7
  6
CONTINUOUS
  0
LAYER
  2
119
 70
     0
 62
     7
  6
CONTINUOUS
  0
LAYER
  2
120
 70
     0
 62
     7
  6
CONTINUOUS
  0
LAYER
  2
121
 70
     0
 62
     7
  6
CONTINUOUS
  0
LAYER
  2
122
 70
     0
 62
     7
  6
CONTINUOUS
  0
LAYER
  2
123
 70
     0
 62
     7
  6
CONTINUOUS
  0
LAYER
  2
124
 70
     0
 62
     7
  6
CONTINUOUS
  0
LAYER
  2
125
 70
     0
 62
     7
  6
CONTINUOUS
  0
LAYER
  2
126
 70
     0
 62
     7
  6
CONTINUOUS
  0
LAYER
  2
127
 70
     0
 62
     7
  6
CONTINUOUS
  0
LAYER
  2
128
 70
     0
 62
     7
  6
CONTINUOUS
  0
ENDTAB
  0
TABLE
  2
STYLE
 70
    76
  0
STYLE
  2
STANDARD
 70
     0
 40
0.0
 41
1.0
 50
0.0
 71
     0
 42
0.2
  3
txt.shx
  4
extfont.shx
  0
STYLE
  2
KANJI0
 70
     0
 40
12.8
 41
0.9
 50
0.0
 71
     0
 42
12.8
  3
txt.shx
  4
extfont.shx
  0
STYLE
  2
KANJI1
 70
     0
 40
12.0
 41
0.9
 50
0.0
 71
     0
 42
12.0
  3
txt.shx
  4
extfont.shx
  0
STYLE
  2
KANJI2
 70
     0
 40
12.0
 41
0.9
 50
0.0
 71
     0
 42
12.0
  3
txt.shx
  4
extfont.shx
  0
STYLE
  2
KANJI3
 70
     0
 40
14.0
 41
0.9
 50
0.0
 71
     0
 42
14.0
  3
txt.shx
  4
extfont.shx
  0
STYLE
  2
KANJI4
 70
     0
 40
10.8
 41
0.740740741
 50
0.0
 71
     0
 42
10.8
  3
txt.shx
  4
extfont.shx
  0
STYLE
  2
KANJI5
 70
     0
 40
14.0
 41
0.857142857
 50
0.0
 71
     0
 42
14.0
  3
txt.shx
  4
extfont.shx
  0
STYLE
  2
KANJI6
 70
     0
 40
9.999997897
 41
0.6
 50
0.0
 71
     0
 42
9.999997897
  3
txt.shx
  4
extfont.shx
  0
STYLE
  2
KANJI7
 70
     0
 40
11.999997477
 41
0.9
 50
0.0
 71
     0
 42
11.999997477
  3
txt.shx
  4
extfont.shx
  0
STYLE
  2
KANJI8
 70
     0
 40
14.999996846
 41
0.9
 50
0.0
 71
     0
 42
14.999996846
  3
txt.shx
  4
extfont.shx
  0
STYLE
  2
KANJI9
 70
     0
 40
12.999999
 41
0.75
 50
0.0
 71
     0
 42
12.999999
  3
txt.shx
  4
extfont.shx
  0
STYLE
  2
KANJI10
 70
     0
 40
8.666666
 41
0.6
 50
0.0
 71
     0
 42
8.666666
  3
txt.shx
  4
extfont.shx
  0
STYLE
  2
KANJI11
 70
     0
 40
10.3999992
 41
0.6
 50
0.0
 71
     0
 42
10.3999992
  3
txt.shx
  4
extfont.shx
  0
STYLE
  2
KANJI12
 70
     0
 40
15.1666655
 41
0.42031746
 50
0.0
 71
     0
 42
15.1666655
  3
txt.shx
  4
extfont.shx
  0
STYLE
  2
KANJI13
 70
     0
 40
25.999998
 41
0.9
 50
0.0
 71
     0
 42
25.999998
  3
txt.shx
  4
extfont.shx
  0
STYLE
  2
KANJI14
 70
     0
 40
22.5
 41
0.666666667
 50
0.0
 71
     0
 42
22.5
  3
txt.shx
  4
extfont.shx
  0
STYLE
  2
KANJI15
 70
     0
 40
18.0
 41
1.111111111
 50
0.0
 71
     0
 42
18.0
  3
txt.shx
  4
extfont.shx
  0
STYLE
  2
KANJI16
 70
     0
 40
8.666666
 41
0.8
 50
0.0
 71
     0
 42
8.666666
  3
txt.shx
  4
extfont.shx
  0
STYLE
  2
KANJI17
 70
     0
 40
10.3999992
 41
0.8
 50
0.0
 71
     0
 42
10.3999992
  3
txt.shx
  4
extfont.shx
  0
STYLE
  2
KANJI18
 70
     0
 40
25.0
 41
1.0
 50
0.0
 71
     0
 42
25.0
  3
txt.shx
  4
extfont.shx
  0
STYLE
  2
KANJI19
 70
     0
 40
25.0
 41
1.0
 50
0.0
 71
     0
 42
25.0
  3
txt.shx
  4
extfont.shx
  0
STYLE
  2
KANJI20
 70
     0
 40
25.0
 41
0.8
 50
0.0
 71
     0
 42
25.0
  3
txt.shx
  4
extfont.shx
  0
STYLE
  2
KANJI21
 70
     0
 40
20.0
 41
1.0
 50
0.0
 71
     0
 42
20.0
  3
txt.shx
  4
extfont.shx
  0
STYLE
  2
KANJI22
 70
     0
 40
17.5
 41
0.857142857
 50
0.0
 71
     0
 42
17.5
  3
txt.shx
  4
extfont.shx
  0
STYLE
  2
KANJI23
 70
     0
 40
17.5
 41
0.793650794
 50
0.0
 71
     0
 42
17.5
  3
txt.shx
  4
extfont.shx
  0
STYLE
  2
KANJI24
 70
     0
 40
25.0
 41
0.8
 50
0.0
 71
     0
 42
25.0
  3
txt.shx
  4
extfont.shx
  0
STYLE
  2
KANJI25
 70
     0
 40
13.182
 41
0.85
 50
0.0
 71
     0
 42
13.182
  3
txt.shx
  4
extfont.shx
  0
STYLE
  2
KANJI26
 70
     0
 40
11.661
 41
0.822608696
 50
0.0
 71
     0
 42
11.661
  3
txt.shx
  4
extfont.shx
  0
STYLE
  2
KANJI27
 70
     0
 40
11.8638
 41
0.726495726
 50
0.0
 71
     0
 42
11.8638
  3
txt.shx
  4
extfont.shx
  0
STYLE
  2
KANJI28
 70
     4
 40
45.0
 41
0.538166667
 50
0.0
 71
     0
 42
45.0
  3
txt.shx
  4
extfont.shx
  0
STYLE
  2
KANJI29
 70
     0
 40
17.740702234
 41
0.880962996
 50
0.0
 71
     0
 42
17.740702234
  3
txt.shx
  4
extfont.shx
  0
STYLE
  2
KANJI30
 70
     0
 40
15.0
 41
0.9
 50
0.0
 71
     0
 42
15.0
  3
txt.shx
  4
extfont.shx
  0
STYLE
  2
KANJI31
 70
     0
 40
12.0
 41
0.833333333
 50
0.0
 71
     0
 42
12.0
  3
txt.shx
  4
extfont.shx
  0
STYLE
  2
KANJI32
 70
     0
 40
11.55
 41
0.9
 50
0.0
 71
     0
 42
11.55
  3
txt.shx
  4
extfont.shx
  0
STYLE
  2
KANJI33
 70
     0
 40
11.7
 41
0.8
 50
0.0
 71
     0
 42
11.7
  3
txt.shx
  4
extfont.shx
  0
STYLE
  2
KANJI34
 70
     0
 40
15.0
 41
0.911
 50
0.0
 71
     0
 42
15.0
  3
txt.shx
  4
extfont.shx
  0
STYLE
  2
KANJI35
 70
     0
 40
10.933904043
 41
0.9
 50
0.0
 71
     0
 42
10.933904043
  3
txt.shx
  4
extfont.shx
  0
STYLE
  2
KANJI36
 70
     0
 40
15.185977837
 41
0.66671875
 50
0.0
 71
     0
 42
15.185977837
  3
txt.shx
  4
extfont.shx
  0
STYLE
  2
KANJI37
 70
     0
 40
18.223173404
 41
0.9
 50
0.0
 71
     0
 42
18.223173404
  3
txt.shx
  4
extfont.shx
  0
STYLE
  2
KANJI38
 70
     0
 40
15.6
 41
0.925
 50
0.0
 71
     0
 42
15.6
  3
txt.shx
  4
extfont.shx
  0
STYLE
  2
KANJI39
 70
     0
 40
14.578538724
 41
0.9
 50
0.0
 71
     0
 42
14.578538724
  3
txt.shx
  4
extfont.shx
  0
STYLE
  2
KANJI40
 70
     0
 40
15.0
 41
0.9
 50
0.0
 71
     0
 42
15.0
  3
txt.shx
  4
extfont.shx
  0
STYLE
  2
KANJI41
 70
     0
 40
20.0
 41
0.925
 50
0.0
 71
     0
 42
20.0
  3
txt.shx
  4
extfont.shx
  0
STYLE
  2
KANJI42
 70
     0
 40
9.0
 41
0.9
 50
0.0
 71
     0
 42
9.0
  3
txt.shx
  4
extfont.shx
  0
STYLE
  2
KANJI43
 70
     0
 40
13.475
 41
0.9
 50
0.0
 71
     0
 42
13.475
  3
txt.shx
  4
extfont.shx
  0
STYLE
  2
KANJI44
 70
     0
 40
20.0
 41
0.9
 50
0.0
 71
     0
 42
20.0
  3
txt.shx
  4
extfont.shx
  0
STYLE
  2
KANJI45
 70
     0
 40
18.0
 41
0.857142857
 50
0.0
 71
     0
 42
18.0
  3
txt.shx
  4
extfont.shx
  0
STYLE
  2
KANJI46
 70
     0
 40
18.0
 41
0.857222222
 50
0.0
 71
     0
 42
18.0
  3
txt.shx
  4
extfont.shx
  0
STYLE
  2
KANJI47
 70
     0
 40
20.0
 41
0.925
 50
0.0
 71
     0
 42
20.0
  3
txt.shx
  4
extfont.shx
  0
STYLE
  2
KANJI48
 70
     0
 40
15.0
 41
0.8
 50
0.0
 71
     0
 42
15.0
  3
txt.shx
  4
extfont.shx
  0
STYLE
  2
KANJI49
 70
     0
 40
17.5
 41
0.571428571
 50
0.0
 71
     0
 42
17.5
  3
txt.shx
  4
extfont.shx
  0
STYLE
  2
KANJI50
 70
     0
 40
22.5
 41
0.9
 50
0.0
 71
     0
 42
22.5
  3
txt.shx
  4
extfont.shx
  0
STYLE
  2
KANJI51
 70
     0
 40
19.0
 41
0.9
 50
0.0
 71
     0
 42
19.0
  3
txt.shx
  4
extfont.shx
  0
STYLE
  2
KANJI52
 70
     0
 40
19.0
 41
0.9
 50
0.0
 71
     0
 42
19.0
  3
txt.shx
  4
extfont.shx
  0
STYLE
  2
KANJI53
 70
     0
 40
19.0
 41
0.9
 50
0.0
 71
     0
 42
19.0
  3
txt.shx
  4
extfont.shx
  0
STYLE
  2
KANJI54
 70
     0
 40
19.0
 41
0.9
 50
0.0
 71
     0
 42
19.0
  3
txt.shx
  4
extfont.shx
  0
STYLE
  2
KANJI55
 70
     0
 40
19.0
 41
0.9
 50
0.0
 71
     0
 42
19.0
  3
txt.shx
  4
extfont.shx
  0
STYLE
  2
KANJI56
 70
     0
 40
19.0
 41
0.9
 50
0.0
 71
     0
 42
19.0
  3
txt.shx
  4
extfont.shx
  0
STYLE
  2
KANJI57
 70
     0
 40
19.0
 41
0.9
 50
0.0
 71
     0
 42
19.0
  3
txt.shx
  4
extfont.shx
  0
STYLE
  2
KANJI58
 70
     0
 40
19.0
 41
0.9
 50
0.0
 71
     0
 42
19.0
  3
txt.shx
  4
extfont.shx
  0
STYLE
  2
KANJI59
 70
     4
 40
17.5
 41
0.9
 50
0.0
 71
     0
 42
17.5
  3
txt.shx
  4
extfont.shx
  0
STYLE
  2
KANJI60
 70
     4
 40
17.5
 41
0.9
 50
0.0
 71
     0
 42
17.5
  3
txt.shx
  4
extfont.shx
  0
STYLE
  2
KANJI61
 70
     0
 40
17.5
 41
0.9
 50
0.0
 71
     0
 42
17.5
  3
txt.shx
  4
extfont.shx
  0
STYLE
  2
KANJI62
 70
     0
 40
15.0
 41
0.9
 50
0.0
 71
     0
 42
15.0
  3
txt.shx
  4
extfont.shx
  0
STYLE
  2
KANJI63
 70
     0
 40
17.5
 41
0.9
 50
0.0
 71
     0
 42
17.5
  3
txt.shx
  4
extfont.shx
  0
STYLE
  2
KANJI64
 70
     0
 40
19.0
 41
0.9
 50
0.0
 71
     0
 42
19.0
  3
txt.shx
  4
extfont.shx
  0
STYLE
  2
KANJI65
 70
     0
 40
19.0
 41
0.9
 50
0.0
 71
     0
 42
19.0
  3
txt.shx
  4
extfont.shx
  0
STYLE
  2
KANJI66
 70
     0
 40
17.5
 41
0.628571429
 50
0.0
 71
     0
 42
17.5
  3
txt.shx
  4
extfont.shx
  0
STYLE
  2
KANJI67
 70
     0
 40
17.0
 41
0.705882353
 50
0.0
 71
     0
 42
17.0
  3
txt.shx
  4
extfont.shx
  0
STYLE
  2
KANJI68
 70
     0
 40
15.0
 41
0.8
 50
0.0
 71
     0
 42
15.0
  3
txt.shx
  4
extfont.shx
  0
STYLE
  2
KANJI69
 70
     0
 40
16.0
 41
0.71875
 50
0.0
 71
     0
 42
16.0
  3
txt.shx
  4
extfont.shx
  0
STYLE
  2
KANJI70
 70
     0
 40
16.0
 41
0.8
 50
0.0
 71
     0
 42
16.0
  3
txt.shx
  4
extfont.shx
  0
STYLE
  2
KANJI71
 70
     0
 40
17.5
 41
0.571428571
 50
0.0
 71
     0
 42
17.5
  3
txt.shx
  4
extfont.shx
  0
STYLE
  2
KANJI72
 70
     0
 40
15.0
 41
0.833333333
 50
0.0
 71
     0
 42
15.0
  3
txt.shx
  4
extfont.shx
  0
STYLE
  2
KANJI73
 70
     0
 40
15.0
 41
0.833333333
 50
0.0
 71
     0
 42
15.0
  3
txt.shx
  4
extfont.shx
  0
STYLE
  2
KANJI74
 70
     0
 40
17.5
 41
0.9
 50
0.0
 71
     0
 42
17.5
  3
txt.shx
  4
extfont.shx
  0
ENDTAB
  0
TABLE
  2
VIEW
 70
     0
  0
ENDTAB
  0
ENDSEC
  0
SECTION
  2
BLOCKS
  0
ENDSEC
  0
SECTION
  2
ENTITIES
  0
LINE
  8
0
  6
CONTINUOUS
 62
     6
 10
73.25
 20
39.75
 30
0.0
 11
73.25
 21
1384.75
 31
0.0
  0
LINE
  8
0
  6
CONTINUOUS
 62
     6
 10
73.25
 20
1384.75
 30
0.0
 11
2008.25
 21
1384.75
 31
0.0
  0
LINE
  8
0
  6
CONTINUOUS
 62
     1
 10
849.25
 20
1222.7
 30
0.0
 11
1497.25
 21
1222.7
 31
0.0
  0
LINE
  8
0
  6
CONTINUOUS
 62
     1
 10
849.25
 20
1194.7
 30
0.0
 11
1497.25
 21
1194.7
 31
0.0
  0
LINE
  8
0
  6
CONTINUOUS
 62
     2
 10
849.25
 20
1166.7
 30
0.0
 11
1497.25
 21
1166.7
 31
0.0
  0
LINE
  8
0
  6
CONTINUOUS
 62
     2
 10
849.25
 20
1138.7
 30
0.0
 11
1497.25
 21
1138.7
 31
0.0
  0
LINE
  8
0
  6
CONTINUOUS
 62
     2
 10
849.25
 20
1110.7
 30
0.0
 11
1497.25
 21
1110.7
 31
0.0
  0
TEXT
  8
0
  6
CONTINUOUS
 62
     2
 10
889.25
 20
1202.7
 30
1.28
 40
12.8
  1
形
 50
0.0
 41
0.9
 51
0.0
  7
KANJI0
  0
TEXT
  8
0
  6
CONTINUOUS
 62
     2
 10
967.25
 20
1202.7
 30
1.28
 40
12.8
  1
式
 50
0.0
 41
0.9
 51
0.0
  7
KANJI0
  0
TEXT
  8
0
  6
CONTINUOUS
 62
     2
 10
1027.65
 20
1201.9
 30
1.2
 40
12.0
  1
ストローク
 50
0.0
 41
0.9
 51
0.0
  7
KANJI1
  0
TEXT
  8
0
  6
CONTINUOUS
 62
     2
 10
1104.45
 20
1201.1
 30
0.0
 40
12.0
  1
ｍｉｎ　
 50
0.0
 41
0.9
 51
0.0
  7
KANJI2
  0
TEXT
  8
0
  6
CONTINUOUS
 62
     2
 10
1184.45
 20
1201.1
 30
0.0
 40
12.0
  1
ｍｉｎ　
 50
0.0
 41
0.9
 51
0.0
  7
KANJI2
  0
TEXT
  8
0
  6
CONTINUOUS
 62
     2
 10
1344.45
 20
1201.1
 30
0.0
 40
12.0
  1
ｍｉｎ　
 50
0.0
 41
0.9
 51
0.0
  7
KANJI2
  0
TEXT
  8
0
  6
CONTINUOUS
 62
     2
 10
1145.25
 20
1201.9
 30
1.4
 40
14.0
  1
ＡＬ
 50
0.0
 41
0.9
 51
0.0
  7
KANJI3
  0
TEXT
  8
0
  6
CONTINUOUS
 62
     2
 10
1225.25
 20
1201.9
 30
1.4
 40
14.0
  1
Ｌ
 50
0.0
 41
0.9
 51
0.0
  7
KANJI3
  0
TEXT
  8
0
  6
CONTINUOUS
 62
     2
 10
1293.25
 20
1201.9
 30
1.4
 40
14.0
  1
Ｃ
 50
0.0
 41
0.9
 51
0.0
  7
KANJI3
  0
TEXT
  8
0
  6
CONTINUOUS
 62
     2
 10
1385.25
 20
1201.9
 30
1.4
 40
14.0
  1
Ｐ
 50
0.0
 41
0.9
 51
0.0
  7
KANJI3
  0
TEXT
  8
0
  6
CONTINUOUS
 62
     2
 10
1467.55
 20
1201.6
 30
0.0
 40
10.8
  1
（ｋｇ）
 50
0.0
 41
0.740740741
 51
0.0
  7
KANJI4
  0
TEXT
  8
0
  6
CONTINUOUS
 62
     2
 10
1419.55
 20
1201.4
 30
1.2
 40
14.0
  1
概算重量
 50
0.0
 41
0.857142857
 51
0.0
  7
KANJI5
  0
TEXT
  8
0
  6
CONTINUOUS
 62
     2
 10
1035.25
 20
1173.4
 30
1.2
 40
12.0
  1
　１００
 50
0.0
 41
0.9
 51
0.0
  7
KANJI1
  0
TEXT
  8
0
  6
CONTINUOUS
 62
     2
 10
1035.25
 20
1145.4
 30
1.2
 40
12.0
  1
　２００
 50
0.0
 41
0.9
 51
0.0
  7
KANJI1
  0
TEXT
  8
0
  6
CONTINUOUS
 62
     2
 10
1035.25
 20
1117.4
 30
1.2
 40
12.0
  1
　３００
 50
0.0
 41
0.9
 51
0.0
  7
KANJI1
  0
TEXT
  8
0
  6
CONTINUOUS
 62
     2
 10
1195.25
 20
1117.4
 30
1.2
 40
12.0
  1
　５０８
 50
0.0
 41
0.9
 51
0.0
  7
KANJI1
  0
TEXT
  8
0
  6
CONTINUOUS
 62
     2
 10
1195.25
 20
1145.4
 30
1.2
 40
12.0
  1
　４０８
 50
0.0
 41
0.9
 51
0.0
  7
KANJI1
  0
TEXT
  8
0
  6
CONTINUOUS
 62
     2
 10
1275.25
 20
1173.4
 30
1.2
 40
12.0
  1
　２３８
 50
0.0
 41
0.9
 51
0.0
  7
KANJI1
  0
TEXT
  8
0
  6
CONTINUOUS
 62
     2
 10
1275.25
 20
1145.4
 30
1.2
 40
12.0
  1
　３３８
 50
0.0
 41
0.9
 51
0.0
  7
KANJI1
  0
TEXT
  8
0
  6
CONTINUOUS
 62
     2
 10
1275.25
 20
1117.4
 30
1.2
 40
12.0
  1
　４３８
 50
0.0
 41
0.9
 51
0.0
  7
KANJI1
  0
TEXT
  8
0
  6
CONTINUOUS
 62
     2
 10
1355.25
 20
1117.4
 30
1.2
 40
12.0
  1
　　３５
 50
0.0
 41
0.9
 51
0.0
  7
KANJI1
  0
TEXT
  8
0
  6
CONTINUOUS
 62
     2
 10
1355.25
 20
1145.4
 30
1.2
 40
12.0
  1
　　３５
 50
0.0
 41
0.9
 51
0.0
  7
KANJI1
  0
TEXT
  8
0
  6
CONTINUOUS
 62
     2
 10
1355.25
 20
1173.4
 30
1.2
 40
12.0
  1
　　３５
 50
0.0
 41
0.9
 51
0.0
  7
KANJI1
  0
TEXT
  8
0
  6
CONTINUOUS
 62
     2
 10
1035.25
 20
1005.4
 30
1.2
 40
12.0
  1
　７００
 50
0.0
 41
0.9
 51
0.0
  7
KANJI1
  0
TEXT
  8
0
  6
CONTINUOUS
 62
     2
 10
1195.25
 20
1005.4
 30
1.2
 40
12.0
  1
１０６１
 50
0.0
 41
0.9
 51
0.0
  7
KANJI1
  0
TEXT
  8
0
  6
CONTINUOUS
 62
     2
 10
1275.25
 20
1005.4
 30
1.2
 40
12.0
  1
　８７８
 50
0.0
 41
0.9
 51
0.0
  7
KANJI1
  0
TEXT
  8
0
  6
CONTINUOUS
 62
     2
 10
1355.25
 20
1005.4
 30
1.2
 40
12.0
  1
　１４８
 50
0.0
 41
0.9
 51
0.0
  7
KANJI1
  0
LINE
  8
0
  6
CONTINUOUS
 62
     2
 10
849.25
 20
1054.7
 30
0.0
 11
1497.25
 21
1054.7
 31
0.0
  0
LINE
  8
0
  6
CONTINUOUS
 62
     2
 10
849.25
 20
1082.7
 30
0.0
 11
1497.25
 21
1082.7
 31
0.0
  0
LINE
  8
0
  6
CONTINUOUS
 62
     2
 10
849.25
 20
998.7
 30
0.0
 11
1497.25
 21
998.7
 31
0.0
  0
LINE
  8
0
  6
CONTINUOUS
 62
     2
 10
849.25
 20
1026.7
 30
0.0
 11
1497.25
 21
1026.7
 31
0.0
  0
TEXT
  8
0
  6
CONTINUOUS
 62
     2
 10
1035.25
 20
1061.4
 30
1.2
 40
12.0
  1
　５００
 50
0.0
 41
0.9
 51
0.0
  7
KANJI1
  0
TEXT
  8
0
  6
CONTINUOUS
 62
     2
 10
1195.25
 20
1061.4
 30
1.2
 40
12.0
  1
　７８５
 50
0.0
 41
0.9
 51
0.0
  7
KANJI1
  0
TEXT
  8
0
  6
CONTINUOUS
 62
     2
 10
1275.25
 20
1061.4
 30
1.2
 40
12.0
  1
　６３８
 50
0.0
 41
0.9
 51
0.0
  7
KANJI1
  0
TEXT
  8
0
  6
CONTINUOUS
 62
     2
 10
1355.25
 20
1061.4
 30
1.2
 40
12.0
  1
　１１２
 50
0.0
 41
0.9
 51
0.0
  7
KANJI1
  0
TEXT
  8
0
  6
CONTINUOUS
 62
     2
 10
1035.25
 20
1089.4
 30
1.2
 40
12.0
  1
　４００
 50
0.0
 41
0.9
 51
0.0
  7
KANJI1
  0
TEXT
  8
0
  6
CONTINUOUS
 62
     2
 10
1035.25
 20
1033.4
 30
1.2
 40
12.0
  1
　６００
 50
0.0
 41
0.9
 51
0.0
  7
KANJI1
  0
TEXT
  8
0
  6
CONTINUOUS
 62
     2
 10
1355.25
 20
1089.4
 30
1.2
 40
12.0
  1
　　８５
 50
0.0
 41
0.9
 51
0.0
  7
KANJI1
  0
TEXT
  8
0
  6
CONTINUOUS
 62
     2
 10
1355.25
 20
1033.4
 30
1.2
 40
12.0
  1
　１２８
 50
0.0
 41
0.9
 51
0.0
  7
KANJI1
  0
TEXT
  8
0
  6
CONTINUOUS
 62
     2
 10
1275.25
 20
1089.4
 30
1.2
 40
12.0
  1
　５３８
 50
0.0
 41
0.9
 51
0.0
  7
KANJI1
  0
TEXT
  8
0
  6
CONTINUOUS
 62
     2
 10
1275.25
 20
1033.4
 30
1.2
 40
12.0
  1
　７７８
 50
0.0
 41
0.9
 51
0.0
  7
KANJI1
  0
TEXT
  8
0
  6
CONTINUOUS
 62
     2
 10
1195.25
 20
1173.4
 30
1.2
 40
12.0
  1
　３０８
 50
0.0
 41
0.9
 51
0.0
  7
KANJI1
  0
TEXT
  8
0
  6
CONTINUOUS
 62
     2
 10
1195.25
 20
1089.4
 30
1.2
 40
12.0
  1
　６５８
 50
0.0
 41
0.9
 51
0.0
  7
KANJI1
  0
TEXT
  8
0
  6
CONTINUOUS
 62
     2
 10
1195.25
 20
1033.4
 30
1.2
 40
12.0
  1
　９４１
 50
0.0
 41
0.9
 51
0.0
  7
KANJI1
  0
TEXT
  8
0
  6
CONTINUOUS
 62
     2
 10
1115.25
 20
1173.4
 30
1.2
 40
12.0
  1
　４５０
 50
0.0
 41
0.9
 51
0.0
  7
KANJI1
  0
TEXT
  8
0
  6
CONTINUOUS
 62
     2
 10
1115.25
 20
1145.4
 30
1.2
 40
12.0
  1
　５５０
 50
0.0
 41
0.9
 51
0.0
  7
KANJI1
  0
TEXT
  8
0
  6
CONTINUOUS
 62
     2
 10
1115.25
 20
1117.4
 30
1.2
 40
12.0
  1
　６５０
 50
0.0
 41
0.9
 51
0.0
  7
KANJI1
  0
TEXT
  8
0
  6
CONTINUOUS
 62
     2
 10
1115.25
 20
1089.4
 30
1.2
 40
12.0
  1
　８００
 50
0.0
 41
0.9
 51
0.0
  7
KANJI1
  0
TEXT
  8
0
  6
CONTINUOUS
 62
     2
 10
1115.25
 20
1061.4
 30
1.2
 40
12.0
  1
　９２７
 50
0.0
 41
0.9
 51
0.0
  7
KANJI1
  0
TEXT
  8
0
  6
CONTINUOUS
 62
     2
 10
1115.25
 20
1033.4
 30
1.2
 40
12.0
  1
１０８３
 50
0.0
 41
0.9
 51
0.0
  7
KANJI1
  0
TEXT
  8
0
  6
CONTINUOUS
 62
     2
 10
1115.25
 20
1005.4
 30
1.2
 40
12.0
  1
１２０３
 50
0.0
 41
0.9
 51
0.0
  7
KANJI1
  0
TEXT
  8
0
  6
CONTINUOUS
 62
     4
 10
88.249996846
 20
64.749994744
 30
0.99999979
 40
9.999997897
  1
ＰＡＲＴＳ　ＬＩＳＴ
 50
0.0
 41
0.6
 51
0.0
  7
KANJI6
  0
TEXT
  8
0
  6
CONTINUOUS
 62
     4
 10
88.249996846
 20
49.749997897
 30
1.199999748
 40
11.999997477
  1
部品表
 50
0.0
 41
0.9
 51
0.0
  7
KANJI7
  0
LINE
  8
0
  6
CONTINUOUS
 62
     6
 10
78.249998949
 20
114.749984231
 30
0.0
 11
403.249930615
 21
114.749984231
 31
0.0
  0
LINE
  8
0
  6
CONTINUOUS
 62
     6
 10
78.249998949
 20
44.749998949
 30
0.0
 11
403.249930615
 21
44.749998949
 31
0.0
  0
LINE
  8
0
  6
CONTINUOUS
 62
     6
 10
78.249998949
 20
44.749998949
 30
0.0
 11
78.249998949
 21
114.749984231
 31
0.0
  0
LINE
  8
0
  6
CONTINUOUS
 62
     6
 10
78.249998949
 20
79.74999159
 30
0.0
 11
403.249930615
 21
79.74999159
 31
0.0
  0
TEXT
  8
0
  6
CONTINUOUS
 62
     3
 10
88.249996846
 20
89.749989487
 30
1.499999685
 40
14.999996846
  1
ＰＬ
 50
0.0
 41
0.9
 51
0.0
  7
KANJI8
  0
LINE
  8
0
  6
CONTINUOUS
 62
     4
 10
16.333333
 20
44.083333
 30
0.0
 11
68.333329
 21
44.083333
 31
0.0
  0
LINE
  8
0
  6
CONTINUOUS
 62
     4
 10
16.333333
 20
70.083331
 30
0.0
 11
68.333329
 21
70.083331
 31
0.0
  0
LINE
  8
0
  6
CONTINUOUS
 62
     4
 10
16.333333
 20
96.083329
 30
0.0
 11
68.333329
 21
96.083329
 31
0.0
  0
LINE
  8
0
  6
CONTINUOUS
 62
     4
 10
16.333333
 20
122.083327
 30
0.0
 11
68.333329
 21
122.083327
 31
0.0
  0
LINE
  8
0
  6
CONTINUOUS
 62
     4
 10
16.333333
 20
148.083325
 30
0.0
 11
68.333329
 21
148.083325
 31
0.0
  0
LINE
  8
0
  6
CONTINUOUS
 62
     4
 10
16.333333
 20
174.083323
 30
0.0
 11
68.333329
 21
174.083323
 31
0.0
  0
LINE
  8
0
  6
CONTINUOUS
 62
     4
 10
16.333333
 20
200.083321
 30
0.0
 11
68.333329
 21
200.083321
 31
0.0
  0
LINE
  8
0
  6
CONTINUOUS
 62
     4
 10
16.333333
 20
226.083319
 30
0.0
 11
68.333329
 21
226.083319
 31
0.0
  0
LINE
  8
0
  6
CONTINUOUS
 62
     4
 10
16.333333
 20
252.083317
 30
0.0
 11
68.333329
 21
252.083317
 31
0.0
  0
LINE
  8
0
  6
CONTINUOUS
 62
     4
 10
16.333333
 20
278.083315
 30
0.0
 11
68.333329
 21
278.083315
 31
0.0
  0
LINE
  8
0
  6
CONTINUOUS
 62
     4
 10
68.333329
 20
44.083333
 30
0.0
 11
68.333329
 21
278.083315
 31
0.0
  0
LINE
  8
0
  6
CONTINUOUS
 62
     4
 10
42.333331
 20
44.083333
 30
0.0
 11
42.333331
 21
252.083317
 31
0.0
  0
TEXT
  8
0
  6
CONTINUOUS
 62
     4
 10
25.21666565
 20
51.66666575
 30
1.2999999
 40
12.999999
  1
計
 50
0.0
 41
0.75
 51
0.0
  7
KANJI9
  0
TEXT
  8
0
  6
CONTINUOUS
 62
     4
 10
25.21666565
 20
104.09999505
 30
1.2999999
 40
12.999999
  1
設
 50
0.0
 41
0.75
 51
0.0
  7
KANJI9
  0
TEXT
  8
0
  6
CONTINUOUS
 62
     4
 10
25.21666565
 20
129.66665975
 30
1.2999999
 40
12.999999
  1
管
 50
0.0
 41
0.75
 51
0.0
  7
KANJI9
  0
TEXT
  8
0
  6
CONTINUOUS
 62
     4
 10
25.21666565
 20
155.66665775
 30
1.2999999
 40
12.999999
  1
製
 50
0.0
 41
0.75
 51
0.0
  7
KANJI9
  0
TEXT
  8
0
  6
CONTINUOUS
 62
     4
 10
25.21666565
 20
181.66665575
 30
1.2999999
 40
12.999999
  1
資
 50
0.0
 41
0.75
 51
0.0
  7
KANJI9
  0
TEXT
  8
0
  6
CONTINUOUS
 62
     4
 10
25.21666565
 20
207.66665375
 30
1.2999999
 40
12.999999
  1
営
 50
0.0
 41
0.75
 51
0.0
  7
KANJI9
  0
TEXT
  8
0
  6
CONTINUOUS
 62
     4
 10
25.21666565
 20
233.66665175
 30
1.2999999
 40
12.999999
  1
客
 50
0.0
 41
0.75
 51
0.0
  7
KANJI9
  0
TEXT
  8
0
  6
CONTINUOUS
 62
     4
 10
24.999999
 20
260.749983
 30
1.2999999
 40
12.999999
  1
出　図
 50
0.0
 41
0.75
 51
0.0
  7
KANJI9
  0
LINE
  8
0
  6
CONTINUOUS
 62
     4
 10
16.333333
 20
44.083333
 30
0.0
 11
16.333333
 21
278.083315
 31
0.0
  0
TEXT
  8
0
  6
CONTINUOUS
 62
     4
 10
313.249949538
 20
64.749994744
 30
0.99999979
 40
9.999997897
  1
Ｎ０．
 50
0.0
 41
0.6
 51
0.0
  7
KANJI6
  0
TEXT
  8
0
  6
CONTINUOUS
 62
     4
 10
313.249949538
 20
49.749997897
 30
1.199999748
 40
11.999997477
  1
項番
 50
0.0
 41
0.9
 51
0.0
  7
KANJI7
  0
LINE
  8
0
  6
CONTINUOUS
 62
     6
 10
2008.25
 20
39.75
 30
0.0
 11
73.25
 21
39.75
 31
0.0
  0
LINE
  8
0
  6
CONTINUOUS
 62
     6
 10
403.249930615
 20
44.749998949
 30
0.0
 11
403.249930615
 21
114.749984231
 31
0.0
  0
LINE
  8
0
  6
CONTINUOUS
 62
     6
 10
303.249951641
 20
44.749998949
 30
0.0
 11
303.249951641
 21
114.749984231
 31
0.0
  0
LINE
  8
0
  6
CONTINUOUS
 62
     6
 10
2008.25
 20
1384.75
 30
0.0
 11
2008.25
 21
39.75
 31
0.0
  0
LINE
  8
0
  6
CONTINUOUS
 62
     6
 10
1336.583385
 20
44.083333
 30
0.0
 11
1336.583385
 21
321.416645
 31
0.0
  0
LINE
  8
0
  6
CONTINUOUS
 62
     6
 10
2003.916667
 20
44.083333
 30
0.0
 11
2003.916667
 21
321.416645
 31
0.0
  0
LINE
  8
0
  6
CONTINUOUS
 62
     4
 10
1494.7500395
 20
44.083333
 30
0.0
 11
1494.7500395
 21
321.416645
 31
0.0
  0
LINE
  8
0
  6
CONTINUOUS
 62
     4
 10
1336.583385
 20
78.749997
 30
0.0
 11
1494.7500395
 21
78.749997
 31
0.0
  0
TEXT
  8
0
  6
CONTINUOUS
 62
     4
 10
1345.250051
 20
63.5833315
 30
0.8666666
 40
8.666666
  1
ＳＣＡＬＥ
 50
0.0
 41
0.6
 51
0.0
  7
KANJI10
  0
TEXT
  8
0
  6
CONTINUOUS
 62
     4
 10
1345.250051
 20
50.5833325
 30
1.03999992
 40
10.3999992
  1
尺度
 50
0.0
 41
0.6
 51
0.0
  7
KANJI11
  0
LINE
  8
0
  6
CONTINUOUS
 62
     6
 10
994.250078
 20
78.749997
 30
0.0
 11
1336.583385
 21
78.749997
 31
0.0
  0
LINE
  8
0
  6
CONTINUOUS
 62
     6
 10
994.250078
 20
44.083333
 30
0.0
 11
2003.916667
 21
44.083333
 31
0.0
  0
TEXT
  8
0
  6
CONTINUOUS
 62
     6
 10
1499.0833725
 20
63.5833315
 30
0.0
 40
15.1666655
  1
ＵＮＩＴＥＣ　ＩＮＤＵＳＴＲＹ　ＣＯ．，ＬＴＤ．
 50
0.0
 41
0.42031746
 51
0.0
  7
KANJI12
  0
TEXT
  8
0
  6
CONTINUOUS
 62
     6
 10
1711.795856138
 20
57.9499986
 30
2.5999998
 40
25.999998
  1
ユニテック工業株式会社
 50
0.0
 41
0.9
 51
0.0
  7
KANJI13
  0
LINE
  8
0
  6
CONTINUOUS
 62
     6
 10
1677.129192138
 20
67.0499979
 30
0.0
 11
1665.689193018
 21
67.0499979
 31
0.0
  0
LINE
  8
0
  6
CONTINUOUS
 62
     6
 10
1677.129192138
 20
69.12999774
 30
0.0
 11
1665.689193018
 21
69.12999774
 31
0.0
  0
LINE
  8
0
  6
CONTINUOUS
 62
     6
 10
1677.129192138
 20
67.0499979
 30
0.0
 11
1688.569191258
 21
67.0499979
 31
0.0
  0
LINE
  8
0
  6
CONTINUOUS
 62
     6
 10
1677.129192138
 20
69.12999774
 30
0.0
 11
1688.569191258
 21
69.12999774
 31
0.0
  0
LINE
  8
0
  6
CONTINUOUS
 62
     6
 10
1688.569191258
 20
69.12999774
 30
0.0
 11
1688.569191258
 21
67.0499979
 31
0.0
  0
ARC
  8
0
  6
CONTINUOUS
 62
     6
 10
1691.169191058
 20
68.08999782
 30
0.0
 40
10.3999992
 50
185.739170477
 51
90.0
  0
ARC
  8
0
  6
CONTINUOUS
 62
     6
 10
1691.169191058
 20
68.08999782
 30
0.0
 40
12.47999904
 50
184.780191847
 51
90.0
  0
LINE
  8
0
  6
CONTINUOUS
 62
     6
 10
1665.689193018
 20
67.0499979
 30
0.0
 11
1665.689193018
 21
69.12999774
 31
0.0
  0
ARC
  8
0
  6
CONTINUOUS
 62
     6
 10
1663.089193218
 20
68.08999782
 30
0.0
 40
10.3999992
 50
90.0
 51
354.260829523
  0
ARC
  8
0
  6
CONTINUOUS
 62
     6
 10
1663.089193218
 20
68.08999782
 30
0.0
 40
12.47999904
 50
90.0
 51
355.219808153
  0
LINE
  8
0
  6
CONTINUOUS
 62
     6
 10
1675.569192258
 20
80.56999686
 30
0.0
 11
1675.569192258
 21
78.48999702
 31
0.0
  0
LINE
  8
0
  6
CONTINUOUS
 62
     6
 10
1663.089193218
 20
78.48999702
 30
0.0
 11
1675.569192258
 21
78.48999702
 31
0.0
  0
LINE
  8
0
  6
CONTINUOUS
 62
     6
 10
1678.689192018
 20
80.56999686
 30
0.0
 11
1678.689192018
 21
78.48999702
 31
0.0
  0
LINE
  8
0
  6
CONTINUOUS
 62
     6
 10
1691.169191058
 20
78.48999702
 30
0.0
 11
1678.689192018
 21
78.48999702
 31
0.0
  0
TEXT
  8
0
  6
CONTINUOUS
 62
     2
 10
1428.25
 20
49.75
 30
1.5
 40
22.5
  1
１／５
 50
0.0
 41
0.666666667
 51
0.0
  7
KANJI14
  0
TEXT
  8
0
  6
CONTINUOUS
 62
     4
 10
1104.7500695
 20
63.5833315
 30
0.8666666
 40
8.666666
  1
ＢＹ
 50
0.0
 41
0.6
 51
0.0
  7
KANJI10
  0
TEXT
  8
0
  6
CONTINUOUS
 62
     4
 10
1200.0833955
 20
63.5833315
 30
0.8666666
 40
8.666666
  1
ＤＥＳＣＲＩＰＴＩＯＮ
 50
0.0
 41
0.6
 51
0.0
  7
KANJI10
  0
TEXT
  8
0
  6
CONTINUOUS
 62
     4
 10
1104.7500695
 20
50.5833325
 30
1.03999992
 40
10.3999992
  1
担当
 50
0.0
 41
0.6
 51
0.0
  7
KANJI11
  0
TEXT
  8
0
  6
CONTINUOUS
 62
     4
 10
1213.0833945
 20
50.5833325
 30
1.03999992
 40
10.3999992
  1
記　　　　事
 50
0.0
 41
0.6
 51
0.0
  7
KANJI11
  0
LINE
  8
0
  6
CONTINUOUS
 62
     4
 10
1012.66674325
 20
72.2499975
 30
0.0
 11
998.583411
 21
50.5833325
 31
0.0
  0
TEXT
  8
0
  6
CONTINUOUS
 62
     4
 10
1048.4167405
 20
63.5833315
 30
0.8666666
 40
8.666666
  1
ＤＡＴＥ
 50
0.0
 41
0.6
 51
0.0
  7
KANJI10
  0
TEXT
  8
0
  6
CONTINUOUS
 62
     4
 10
1054.91674
 20
50.5833325
 30
1.03999992
 40
10.3999992
  1
日付
 50
0.0
 41
0.6
 51
0.0
  7
KANJI11
  0
LINE
  8
0
  6
CONTINUOUS
 62
     4
 10
998.583411
 20
50.5833325
 30
0.0
 11
1026.7500755
 21
50.5833325
 31
0.0
  0
LINE
  8
0
  6
CONTINUOUS
 62
     4
 10
1012.66674325
 20
72.2499975
 30
0.0
 11
1026.7500755
 21
50.5833325
 31
0.0
  0
LINE
  8
0
  6
CONTINUOUS
 62
     6
 10
994.250078
 20
44.083333
 30
0.0
 11
994.250078
 21
78.749997
 31
0.0
  0
LINE
  8
0
  6
CONTINUOUS
 62
     4
 10
1031.0834085
 20
44.083333
 30
0.0
 11
1031.0834085
 21
78.749997
 31
0.0
  0
LINE
  8
0
  6
CONTINUOUS
 62
     4
 10
1091.7500705
 20
44.083333
 30
0.0
 11
1091.7500705
 21
78.749997
 31
0.0
  0
LINE
  8
0
  6
CONTINUOUS
 62
     4
 10
1130.7500675
 20
44.083333
 30
0.0
 11
1130.7500675
 21
78.749997
 31
0.0
  0
TEXT
  8
0
  6
CONTINUOUS
 62
     4
 10
1345.250051
 20
236.9166515
 30
0.8666666
 40
8.666666
  1
ＣＯＤＥ
 50
0.0
 41
0.6
 51
0.0
  7
KANJI10
  0
LINE
  8
0
  6
CONTINUOUS
 62
     4
 10
1336.583385
 20
252.083317
 30
0.0
 11
2003.916667
 21
252.083317
 31
0.0
  0
TEXT
  8
0
  6
CONTINUOUS
 62
     4
 10
1345.250051
 20
223.9166525
 30
1.03999992
 40
10.3999992
  1
分類
 50
0.0
 41
0.6
 51
0.0
  7
KANJI11
  0
LINE
  8
0
  6
CONTINUOUS
 62
     4
 10
2003.916667
 20
286.749981
 30
0.0
 11
2003.916667
 21
321.416645
 31
0.0
  0
LINE
  8
0
  6
CONTINUOUS
 62
     6
 10
1337.208385
 20
286.749981
 30
0.0
 11
2004.541667
 21
286.749981
 31
0.0
  0
LINE
  8
0
  6
CONTINUOUS
 62
     6
 10
1336.583385
 20
321.416645
 30
0.0
 11
2003.916667
 21
321.416645
 31
0.0
  0
TEXT
  8
0
  6
CONTINUOUS
 62
     4
 10
1352.0
 20
291.916664
 30
5.0
 40
18.0
  1
ご用途
 50
0.0
 41
1.111111111
 51
0.0
  7
KANJI15
  0
TEXT
  8
0
  6
CONTINUOUS
 62
     4
 10
1352.0
 20
257.25
 30
5.0
 40
18.0
  1
ご注文主
 50
0.0
 41
1.111111111
 51
0.0
  7
KANJI15
  0
TEXT
  8
0
  6
CONTINUOUS
 62
     4
 10
1345.250051
 20
132.9166595
 30
0.8666666
 40
8.666666
  1
ＤＲＡＷＮ
 50
0.0
 41
0.6
 51
0.0
  7
KANJI10
  0
TEXT
  8
0
  6
CONTINUOUS
 62
     4
 10
1345.250051
 20
167.5833235
 30
0.8666666
 40
8.666666
  1
ＤＥＳＩＧＮ
 50
0.0
 41
0.6
 51
0.0
  7
KANJI10
  0
TEXT
  8
0
  6
CONTINUOUS
 62
     4
 10
1345.250051
 20
202.2499875
 30
0.8666666
 40
8.666666
  1
ＣＨＥＣＫ
 50
0.0
 41
0.6
 51
0.0
  7
KANJI10
  0
LINE
  8
0
  6
CONTINUOUS
 62
     4
 10
1336.583385
 20
182.749989
 30
0.0
 11
1494.7500395
 21
182.749989
 31
0.0
  0
LINE
  8
0
  6
CONTINUOUS
 62
     4
 10
1336.583385
 20
148.083325
 30
0.0
 11
1494.7500395
 21
148.083325
 31
0.0
  0
LINE
  8
0
  6
CONTINUOUS
 62
     4
 10
1336.583385
 20
217.416653
 30
0.0
 11
1494.7500395
 21
217.416653
 31
0.0
  0
TEXT
  8
0
  6
CONTINUOUS
 62
     4
 10
1345.250051
 20
154.5833245
 30
1.03999992
 40
10.3999992
  1
設計
 50
0.0
 41
0.6
 51
0.0
  7
KANJI11
  0
TEXT
  8
0
  6
CONTINUOUS
 62
     4
 10
1345.250051
 20
189.2499885
 30
1.03999992
 40
10.3999992
  1
検図
 50
0.0
 41
0.6
 51
0.0
  7
KANJI11
  0
LINE
  8
0
  6
CONTINUOUS
 62
     4
 10
1507.53337185
 20
217.416653
 30
0.0
 11
2003.916667
 21
217.416653
 31
0.0
  0
LINE
  8
0
  6
CONTINUOUS
 62
     4
 10
1494.7500395
 20
148.083325
 30
0.0
 11
2003.916667
 21
148.083325
 31
0.0
  0
TEXT
  8
0
  6
CONTINUOUS
 62
     4
 10
1503.4167055
 20
132.9166595
 30
0.8666666
 40
8.666666
  1
ＤＲＡＷＩＮＧ　ＮＯ．
 50
0.0
 41
0.8
 51
0.0
  7
KANJI16
  0
TEXT
  8
0
  6
CONTINUOUS
 62
     4
 10
1503.4167055
 20
167.5833235
 30
0.8666666
 40
8.666666
  1
ＭＦＧ　ＮＯ．
 50
0.0
 41
0.8
 51
0.0
  7
KANJI16
  0
TEXT
  8
0
  6
CONTINUOUS
 62
     4
 10
1503.4167055
 20
202.2499875
 30
0.8666666
 40
8.666666
  1
ＴＹＰＥ
 50
0.0
 41
0.8
 51
0.0
  7
KANJI16
  0
LINE
  8
0
  6
CONTINUOUS
 62
     4
 10
1507.7500385
 20
182.749989
 30
0.0
 11
1707.0833565
 21
182.749989
 31
0.0
  0
TEXT
  8
0
  6
CONTINUOUS
 62
     4
 10
1503.4167055
 20
117.749994
 30
1.03999992
 40
10.3999992
  1
図　面　番　号
 50
0.0
 41
0.8
 51
0.0
  7
KANJI17
  0
TEXT
  8
0
  6
CONTINUOUS
 62
     4
 10
1503.4167055
 20
152.416658
 30
1.03999992
 40
10.3999992
  1
製番
 50
0.0
 41
0.8
 51
0.0
  7
KANJI17
  0
TEXT
  8
0
  6
CONTINUOUS
 62
     4
 10
1503.4167055
 20
187.083322
 30
1.03999992
 40
10.3999992
  1
機種
 50
0.0
 41
0.8
 51
0.0
  7
KANJI17
  0
LINE
  8
0
  6
CONTINUOUS
 62
     4
 10
1336.583385
 20
113.416661
 30
0.0
 11
1494.7500395
 21
113.416661
 31
0.0
  0
TEXT
  8
0
  6
CONTINUOUS
 62
     4
 10
1345.250051
 20
98.2499955
 30
0.8666666
 40
8.666666
  1
ＤＡＴＥ
 50
0.0
 41
0.6
 51
0.0
  7
KANJI10
  0
TEXT
  8
0
  6
CONTINUOUS
 62
     4
 10
1345.250051
 20
85.2499965
 30
1.03999992
 40
10.3999992
  1
日付
 50
0.0
 41
0.6
 51
0.0
  7
KANJI11
  0
TEXT
  8
0
  6
CONTINUOUS
 62
     4
 10
1345.250051
 20
119.9166605
 30
1.03999992
 40
10.3999992
  1
作図
 50
0.0
 41
0.6
 51
0.0
  7
KANJI11
  0
LINE
  8
0
  6
CONTINUOUS
 62
     4
 10
1494.7500395
 20
98.2499955
 30
0.0
 11
2003.916667
 21
98.2499955
 31
0.0
  0
LINE
  8
0
  6
LTYPE1
 62
     4
 10
1858.7500115
 20
104.749995
 30
0.0
 11
1858.7500115
 21
139.416659
 31
0.0
  0
LINE
  8
0
  6
LTYPE1
 62
     4
 10
1828.4166805
 20
104.749995
 30
0.0
 11
1828.4166805
 21
139.416659
 31
0.0
  0
LINE
  8
0
  6
LTYPE1
 62
     4
 10
1798.0833495
 20
104.749995
 30
0.0
 11
1798.0833495
 21
139.416659
 31
0.0
  0
LINE
  8
0
  6
LTYPE1
 62
     4
 10
1767.7500185
 20
104.749995
 30
0.0
 11
1767.7500185
 21
139.416659
 31
0.0
  0
LINE
  8
0
  6
LTYPE1
 62
     4
 10
1737.4166875
 20
104.749995
 30
0.0
 11
1737.4166875
 21
139.416659
 31
0.0
  0
LINE
  8
0
  6
LTYPE1
 62
     4
 10
1707.0833565
 20
104.749995
 30
0.0
 11
1707.0833565
 21
139.416659
 31
0.0
  0
LINE
  8
0
  6
LTYPE1
 62
     4
 10
1676.7500255
 20
104.749995
 30
0.0
 11
1676.7500255
 21
139.416659
 31
0.0
  0
LINE
  8
0
  6
LTYPE1
 62
     4
 10
1646.4166945
 20
104.749995
 30
0.0
 11
1646.4166945
 21
139.416659
 31
0.0
  0
LINE
  8
0
  6
LTYPE1
 62
     4
 10
1646.4166945
 20
139.416659
 30
0.0
 11
1858.7500115
 21
139.416659
 31
0.0
  0
LINE
  8
0
  6
LTYPE1
 62
     4
 10
1646.4166945
 20
104.749995
 30
0.0
 11
1858.7500115
 21
104.749995
 31
0.0
  0
LINE
  8
0
  6
CONTINUOUS
 62
     4
 10
1876.0833435
 20
123.16666025
 30
0.0
 11
1884.7500095
 21
123.16666025
 31
0.0
  0
LINE
  8
0
  6
CONTINUOUS
 62
     4
 10
1930.250006
 20
110.16666125
 30
0.0
 11
1899.916675
 21
110.16666125
 31
0.0
  0
LINE
  8
0
  6
CONTINUOUS
 62
     4
 10
1899.916675
 20
110.16666125
 30
0.0
 11
1915.0833405
 21
136.16665925
 31
0.0
  0
LINE
  8
0
  6
CONTINUOUS
 62
     4
 10
1915.0833405
 20
136.16665925
 30
0.0
 11
1930.250006
 21
110.16666125
 31
0.0
  0
TEXT
  8
0
  6
CONTINUOUS
 62
     4
 10
1720.0833555
 20
202.2499875
 30
0.8666666
 40
8.666666
  1
ＴＩＴＬＥ
 50
0.0
 41
0.8
 51
0.0
  7
KANJI16
  0
TEXT
  8
0
  6
CONTINUOUS
 62
     4
 10
1720.0833555
 20
187.083322
 30
1.03999992
 40
10.3999992
  1
名称
 50
0.0
 41
0.8
 51
0.0
  7
KANJI17
  0
TEXT
  8
0
  6
CONTINUOUS
 62
     2
 10
1790.75
 20
154.75
 30
12.5
 40
25.0
  1
外形寸法図
 50
0.0
 41
1.0
 51
0.0
  7
KANJI18
  0
TEXT
  8
0
  6
CONTINUOUS
 62
     2
 10
1760.75
 20
184.75
 30
3.571428571
 40
25.0
  1
マイティシリンダ
 50
0.0
 41
1.0
 51
0.0
  7
KANJI19
  0
TEXT
  8
0
  6
CONTINUOUS
 62
     2
 10
1620.1666945
 20
109.749995
 30
1.5
 40
25.0
  1
Ａ
 50
0.0
 41
0.8
 51
0.0
  7
KANJI20
  0
CIRCLE
  8
0
  6
CONTINUOUS
 62
     2
 10
1587.6666945
 20
163.499995
 30
0.0
 40
12.5
  0
TEXT
  8
0
  6
CONTINUOUS
 62
     2
 10
1578.2916945
 20
154.124995
 30
1.5
 40
20.0
  1
Ｓ
 50
0.0
 41
1.0
 51
0.0
  7
KANJI21
  0
LINE
  8
0
  6
CONTINUOUS
 62
     6
 10
1675.569192258
 20
80.56999686
 30
0.0
 11
1663.089193218
 21
80.56999686
 31
0.0
  0
LINE
  8
0
  6
CONTINUOUS
 62
     6
 10
1678.689192018
 20
80.56999686
 30
0.0
 11
1691.169191058
 21
80.56999686
 31
0.0
  0
TEXT
  8
0
  6
CONTINUOUS
 62
     2
 10
1392.4166945
 20
122.249995
 30
5.0
 40
17.5
  1
岡田
 50
0.0
 41
0.857142857
 51
0.0
  7
KANJI22
  0
TEXT
  8
0
  6
CONTINUOUS
 62
     2
 10
1435.25
 20
1173.4
 30
1.2
 40
12.0
  1
　　３２
 50
0.0
 41
0.9
 51
0.0
  7
KANJI1
  0
TEXT
  8
0
  6
CONTINUOUS
 62
     2
 10
1435.25
 20
1145.4
 30
1.2
 40
12.0
  1
　　３３
 50
0.0
 41
0.9
 51
0.0
  7
KANJI1
  0
TEXT
  8
0
  6
CONTINUOUS
 62
     2
 10
1435.25
 20
1117.4
 30
1.2
 40
12.0
  1
　　３４
 50
0.0
 41
0.9
 51
0.0
  7
KANJI1
  0
TEXT
  8
0
  6
CONTINUOUS
 62
     2
 10
1435.25
 20
1061.4
 30
1.2
 40
12.0
  1
　　３７
 50
0.0
 41
0.9
 51
0.0
  7
KANJI1
  0
TEXT
  8
0
  6
CONTINUOUS
 62
     2
 10
1435.25
 20
1033.4
 30
1.2
 40
12.0
  1
　　３９
 50
0.0
 41
0.9
 51
0.0
  7
KANJI1
  0
TEXT
  8
0
  6
CONTINUOUS
 62
     2
 10
1435.25
 20
1005.4
 30
1.2
 40
12.0
  1
　　４１
 50
0.0
 41
0.9
 51
0.0
  7
KANJI1
  0
TEXT
  8
0
  6
CONTINUOUS
 62
     2
 10
1435.25
 20
1089.4
 30
1.2
 40
12.0
  1
　　３６
 50
0.0
 41
0.9
 51
0.0
  7
KANJI1
  0
LINE
  8
0
  6
LTYPE2
 62
     2
 10
781.647685735
 20
687.633317
 30
0.0
 11
869.483333
 21
687.633317
 31
0.0
  0
LINE
  8
0
  6
CONTINUOUS
 62
     1
 10
325.983333
 20
685.633317
 30
0.0
 11
362.983333
 21
685.633317
 31
0.0
  0
LINE
  8
0
  6
CONTINUOUS
 62
     1
 10
325.983333
 20
666.633317
 30
0.0
 11
325.983333
 21
685.633317
 31
0.0
  0
ARC
  8
0
  6
CONTINUOUS
 62
     1
 10
319.983333
 20
666.633317
 30
0.0
 40
6.0
 50
270.0
 51
360.0
  0
ARC
  8
0
  6
CONTINUOUS
 62
     1
 10
347.983333
 20
663.633317
 30
0.0
 40
3.0
 50
270.0
 51
360.0
  0
ARC
  8
0
  6
CONTINUOUS
 62
     1
 10
347.983333
 20
610.633317
 30
0.0
 40
3.0
 50
270.0
 51
0.0
  0
LINE
  8
0
  6
CONTINUOUS
 62
     1
 10
350.983333
 20
664.585697952
 30
0.0
 11
354.983333
 21
685.633317
 31
0.0
  0
LINE
  8
0
  6
CONTINUOUS
 62
     1
 10
350.983333
 20
610.633317
 30
0.0
 11
350.983333
 21
664.585697952
 31
0.0
  0
CIRCLE
  8
0
  6
CONTINUOUS
 62
     1
 10
432.983333
 20
515.633317
 30
0.0
 40
20.0
  0
CIRCLE
  8
0
  6
CONTINUOUS
 62
     1
 10
432.983333
 20
515.633317
 30
0.0
 40
8.0
  0
ARC
  8
0
  6
CONTINUOUS
 62
     1
 10
368.983333
 20
464.633317
 30
0.0
 40
2.0
 50
270.0
 51
0.0
  0
LINE
  8
0
  6
CONTINUOUS
 62
     1
 10
373.983333
 20
552.633317
 30
0.0
 11
530.983333
 21
552.633317
 31
0.0
  0
LINE
  8
0
  6
CONTINUOUS
 62
     1
 10
373.983333
 20
478.633317
 30
0.0
 11
456.983333
 21
478.633317
 31
0.0
  0
ARC
  8
0
  6
CONTINUOUS
 62
     1
 10
373.983333
 20
475.633317
 30
0.0
 40
3.0
 50
87.047798252
 51
176.185925166
  0
ARC
  8
0
  6
CONTINUOUS
 62
     1
 10
373.783333
 20
555.633317
 30
0.0
 40
3.0
 50
177.893372153
 51
273.822553727
  0
LINE
  8
0
  6
CONTINUOUS
 62
     1
 10
538.983333
 20
555.633317
 30
0.0
 11
538.983333
 21
475.633317
 31
0.0
  0
LINE
  8
0
  6
CONTINUOUS
 62
     1
 10
530.983333
 20
555.633317
 30
0.0
 11
538.983333
 21
555.633317
 31
0.0
  0
LINE
  8
0
  6
CONTINUOUS
 62
     1
 10
530.983333
 20
475.633317
 30
0.0
 11
538.983333
 21
475.633317
 31
0.0
  0
LINE
  8
0
  6
CONTINUOUS
 62
     1
 10
530.983333
 20
517.133317
 30
0.0
 11
538.983333
 21
517.133317
 31
0.0
  0
LINE
  8
0
  6
CONTINUOUS
 62
     1
 10
530.983333
 20
514.133317
 30
0.0
 11
538.983333
 21
514.133317
 31
0.0
  0
LINE
  8
0
  6
CONTINUOUS
 62
     1
 10
456.983333
 20
492.633317
 30
0.0
 11
530.983333
 21
492.633317
 31
0.0
  0
LINE
  8
0
  6
CONTINUOUS
 62
     1
 10
362.983333
 20
462.633317
 30
0.0
 11
368.983333
 21
462.633317
 31
0.0
  0
LINE
  8
0
  6
CONTINUOUS
 62
     1
 10
362.983333
 20
617.433317
 30
0.0
 11
362.983333
 21
625.633317
 31
0.0
  0
LINE
  8
0
  6
CONTINUOUS
 62
     1
 10
362.983333
 20
617.433317
 30
0.0
 11
362.983333
 21
625.633317
 31
0.0
  0
LINE
  8
0
  6
LTYPE3
 62
     2
 10
357.383333
 20
625.633317
 30
0.0
 11
369.383333
 21
625.633317
 31
0.0
  0
LINE
  8
0
  6
LTYPE3
 62
     2
 10
357.383333
 20
625.633317
 30
0.0
 11
369.383333
 21
625.633317
 31
0.0
  0
LINE
  8
0
  6
CONTINUOUS
 62
     1
 10
302.983333
 20
660.633317
 30
0.0
 11
347.983333
 21
660.633317
 31
0.0
  0
CIRCLE
  8
0
  6
CONTINUOUS
 62
     1
 10
432.983333
 20
515.633317
 30
0.0
 40
26.0
  0
LINE
  8
0
  6
CONTINUOUS
 62
     1
 10
456.983333
 20
503.133317
 30
0.0
 11
456.983333
 21
470.633317
 31
0.0
  0
LINE
  8
0
  6
CONTINUOUS
 62
     1
 10
530.983333
 20
555.633317
 30
0.0
 11
530.983333
 21
470.633317
 31
0.0
  0
LINE
  8
0
  6
LTYPE3
 62
     2
 10
493.983333
 20
483.633317
 30
0.0
 11
493.983333
 21
459.633317
 31
0.0
  0
LINE
  8
0
  6
LTYPE3
 62
     2
 10
432.983333
 20
547.633317
 30
0.0
 11
432.983333
 21
483.633317
 31
0.0
  0
LINE
  8
0
  6
LTYPE3
 62
     2
 10
338.983333
 20
675.758317
 30
0.0
 11
338.983333
 21
729.933317
 31
0.0
  0
LINE
  8
0
  6
CONTINUOUS
 62
     1
 10
376.983333
 20
625.633317
 30
0.0
 11
376.983333
 21
682.633317
 31
0.0
  0
ARC
  8
0
  6
CONTINUOUS
 62
     1
 10
372.483333
 20
684.133317
 30
0.0
 40
1.5
 50
180.0
 51
270.0
  0
LINE
  8
0
  6
CONTINUOUS
 62
     1
 10
370.983333
 20
684.133317
 30
0.0
 11
370.983333
 21
685.133317
 31
0.0
  0
ARC
  8
0
  6
CONTINUOUS
 62
     1
 10
369.483333
 20
685.133317
 30
0.0
 40
1.5
 50
0.0
 51
90.0
  0
LINE
  8
0
  6
CONTINUOUS
 62
     1
 10
525.983333
 20
625.633317
 30
0.0
 11
525.983333
 21
682.633317
 31
0.0
  0
ARC
  8
0
  6
CONTINUOUS
 62
     1
 10
529.483333
 20
681.133317
 30
0.0
 40
1.5
 50
0.0
 51
90.0
  0
LINE
  8
0
  6
CONTINUOUS
 62
     1
 10
370.983333
 20
625.633317
 30
0.0
 11
370.983333
 21
684.733317
 31
0.0
  0
LINE
  8
0
  6
CONTINUOUS
 62
     1
 10
546.983333
 20
625.633317
 30
0.0
 11
546.983333
 21
661.062792845
 31
0.0
  0
ARC
  8
0
  6
CONTINUOUS
 62
     1
 10
545.483333
 20
661.062792845
 30
0.0
 40
1.5
 50
0.0
 51
71.029592192
  0
ARC
  8
0
  6
CONTINUOUS
 62
     1
 10
558.983333
 20
642.133317
 30
0.0
 40
1.0
 50
0.0
 51
90.0
  0
LINE
  8
0
  6
CONTINUOUS
 62
     1
 10
558.983333
 20
643.133317
 30
0.0
 11
546.983333
 21
643.133317
 31
0.0
  0
LINE
  8
0
  6
CONTINUOUS
 62
     1
 10
376.983333
 20
625.633317
 30
0.0
 11
376.983333
 21
568.633317
 31
0.0
  0
ARC
  8
0
  6
CONTINUOUS
 62
     1
 10
372.483333
 20
567.133317
 30
0.0
 40
1.5
 50
90.0
 51
180.0
  0
LINE
  8
0
  6
CONTINUOUS
 62
     1
 10
370.983333
 20
567.133317
 30
0.0
 11
370.983333
 21
566.133317
 31
0.0
  0
ARC
  8
0
  6
CONTINUOUS
 62
     1
 10
369.483333
 20
566.133317
 30
0.0
 40
1.5
 50
270.0
 51
0.0
  0
LINE
  8
0
  6
CONTINUOUS
 62
     1
 10
525.983333
 20
625.633317
 30
0.0
 11
525.983333
 21
568.633317
 31
0.0
  0
LINE
  8
0
  6
CONTINUOUS
 62
     1
 10
529.483333
 20
568.633317
 30
0.0
 11
372.483333
 21
568.633317
 31
0.0
  0
ARC
  8
0
  6
CONTINUOUS
 62
     1
 10
529.483333
 20
570.133317
 30
0.0
 40
1.5
 50
270.0
 51
0.0
  0
LINE
  8
0
  6
CONTINUOUS
 62
     1
 10
370.983333
 20
625.633317
 30
0.0
 11
370.983333
 21
566.533317
 31
0.0
  0
LINE
  8
0
  6
CONTINUOUS
 62
     1
 10
546.983333
 20
625.633317
 30
0.0
 11
546.983333
 21
590.203841155
 31
0.0
  0
ARC
  8
0
  6
CONTINUOUS
 62
     1
 10
545.483333
 20
590.203841155
 30
0.0
 40
1.5
 50
288.970407808
 51
0.0
  0
ARC
  8
0
  6
CONTINUOUS
 62
     1
 10
558.983333
 20
609.133317
 30
0.0
 40
1.0
 50
270.0
 51
0.0
  0
LINE
  8
0
  6
CONTINUOUS
 62
     1
 10
558.983333
 20
608.133317
 30
0.0
 11
546.983333
 21
608.133317
 31
0.0
  0
LINE
  8
0
  6
LTYPE2
 62
     2
 10
538.983333
 20
661.695762841
 30
0.0
 11
527.983333
 21
661.695762841
 31
0.0
  0
LINE
  8
0
  6
LTYPE2
 62
     2
 10
538.983333
 20
589.570871159
 30
0.0
 11
527.983333
 21
589.570871159
 31
0.0
  0
LINE
  8
0
  6
CONTINUOUS
 62
     1
 10
475.983333
 20
703.633317
 30
0.0
 11
475.983333
 21
737.633317
 31
0.0
  0
LINE
  8
0
  6
CONTINUOUS
 62
     1
 10
475.983333
 20
703.633317
 30
0.0
 11
449.983333
 21
703.633317
 31
0.0
  0
LINE
  8
0
  6
CONTINUOUS
 62
     1
 10
475.983333
 20
737.633317
 30
0.0
 11
449.983333
 21
737.633317
 31
0.0
  0
LINE
  8
0
  6
CONTINUOUS
 62
     1
 10
379.983333
 20
695.633317
 30
0.0
 11
379.983333
 21
698.633317
 31
0.0
  0
ARC
  8
0
  6
CONTINUOUS
 62
     1
 10
383.983333
 20
692.633317
 30
0.0
 40
3.0
 50
0.0
 51
90.0
  0
LINE
  8
0
  6
CONTINUOUS
 62
     1
 10
386.983333
 20
685.633317
 30
0.0
 11
386.983333
 21
692.633317
 31
0.0
  0
ARC
  8
0
  6
CONTINUOUS
 62
     1
 10
389.983333
 20
685.633317
 30
0.0
 40
3.0
 50
180.0
 51
270.0
  0
LINE
  8
0
  6
CONTINUOUS
 62
     1
 10
529.483333
 20
682.633317
 30
0.0
 11
372.483333
 21
682.633317
 31
0.0
  0
LINE
  8
0
  6
CONTINUOUS
 62
     1
 10
439.983333
 20
695.633317
 30
0.0
 11
439.983333
 21
698.633317
 31
0.0
  0
ARC
  8
0
  6
CONTINUOUS
 62
     1
 10
435.983333
 20
692.633317
 30
0.0
 40
3.0
 50
90.0
 51
180.0
  0
LINE
  8
0
  6
CONTINUOUS
 62
     1
 10
432.983333
 20
685.633317
 30
0.0
 11
432.983333
 21
692.633317
 31
0.0
  0
ARC
  8
0
  6
CONTINUOUS
 62
     1
 10
429.983333
 20
685.633317
 30
0.0
 40
3.0
 50
270.0
 51
0.0
  0
LINE
  8
0
  6
CONTINUOUS
 62
     1
 10
439.983333
 20
695.633317
 30
0.0
 11
379.983333
 21
695.633317
 31
0.0
  0
LINE
  8
0
  6
CONTINUOUS
 62
     1
 10
364.895420912
 20
700.633317
 30
0.0
 11
456.983333
 21
744.653362888
 31
0.0
  0
LINE
  8
0
  6
CONTINUOUS
 62
     1
 10
362.983333
 20
704.633317
 30
0.0
 11
364.895420912
 21
700.633317
 31
0.0
  0
LINE
  8
0
  6
CONTINUOUS
 62
     1
 10
362.983333
 20
704.633317
 30
0.0
 11
455.071245088
 21
748.653362888
 31
0.0
  0
LINE
  8
0
  6
CONTINUOUS
 62
     1
 10
455.071245088
 20
748.653362888
 30
0.0
 11
456.983333
 21
744.653362888
 31
0.0
  0
LINE
  8
0
  6
CONTINUOUS
 62
     1
 10
369.983333
 20
707.979470846
 30
0.0
 11
369.983333
 21
747.633317
 31
0.0
  0
ARC
  8
0
  6
CONTINUOUS
 62
     1
 10
372.983333
 20
747.633317
 30
0.0
 40
3.0
 50
90.0
 51
180.0
  0
LINE
  8
0
  6
CONTINUOUS
 62
     1
 10
369.983333
 20
701.633317
 30
0.0
 11
369.983333
 21
703.0654508
 31
0.0
  0
ARC
  8
0
  6
CONTINUOUS
 62
     1
 10
372.983333
 20
701.633317
 30
0.0
 40
3.0
 50
180.0
 51
270.0
  0
LINE
  8
0
  6
CONTINUOUS
 62
     1
 10
449.983333
 20
701.633317
 30
0.0
 11
449.983333
 21
741.307209042
 31
0.0
  0
LINE
  8
0
  6
CONTINUOUS
 62
     1
 10
446.983333
 20
698.633317
 30
0.0
 11
372.983333
 21
698.633317
 31
0.0
  0
ARC
  8
0
  6
CONTINUOUS
 62
     1
 10
446.983333
 20
701.633317
 30
0.0
 40
3.0
 50
270.0
 51
0.0
  0
LINE
  8
0
  6
CONTINUOUS
 62
     1
 10
449.983333
 20
746.221229088
 30
0.0
 11
449.983333
 21
747.633317
 31
0.0
  0
LINE
  8
0
  6
CONTINUOUS
 62
     1
 10
446.983333
 20
750.633317
 30
0.0
 11
372.983333
 21
750.633317
 31
0.0
  0
ARC
  8
0
  6
CONTINUOUS
 62
     1
 10
446.983333
 20
747.633317
 30
0.0
 40
3.0
 50
0.0
 51
90.0
  0
LINE
  8
0
  6
LTYPE2
 62
     2
 10
409.983333
 20
670.633317
 30
0.0
 11
409.983333
 21
758.5654508
 31
0.0
  0
LINE
  8
0
  6
CONTINUOUS
 62
     1
 10
574.483333
 20
641.133317
 30
0.0
 11
559.983333
 21
641.133317
 31
0.0
  0
ARC
  8
0
  6
CONTINUOUS
 62
     1
 10
574.483333
 20
639.633317
 30
0.0
 40
1.5
 50
0.0
 51
90.0
  0
LINE
  8
0
  6
CONTINUOUS
 62
     1
 10
574.483333
 20
610.133317
 30
0.0
 11
559.983333
 21
610.133317
 31
0.0
  0
LINE
  8
0
  6
CONTINUOUS
 62
     1
 10
575.983333
 20
611.633317
 30
0.0
 11
575.983333
 21
639.633317
 31
0.0
  0
ARC
  8
0
  6
CONTINUOUS
 62
     1
 10
574.483333
 20
611.633317
 30
0.0
 40
1.5
 50
270.0
 51
0.0
  0
LINE
  8
0
  6
CONTINUOUS
 62
     1
 10
370.983333
 20
564.633317
 30
0.0
 11
362.983333
 21
564.633317
 31
0.0
  0
LINE
  8
0
  6
CONTINUOUS
 62
     1
 10
370.983333
 20
564.633317
 30
0.0
 11
370.983333
 21
464.633317
 31
0.0
  0
LINE
  8
0
  6
LTYPE3
 62
     2
 10
313.983333
 20
705.633317
 30
0.0
 11
362.983333
 21
705.633317
 31
0.0
  0
LINE
  8
0
  6
LTYPE4
 62
     2
 10
577.333147745
 20
555.383317
 30
0.0
 11
577.333147745
 21
475.883317
 31
0.0
  0
LINE
  8
0
  6
LTYPE4
 62
     2
 10
583.333147745
 20
555.383317
 30
0.0
 11
583.333147745
 21
475.883317
 31
0.0
  0
LINE
  8
0
  6
CONTINUOUS
 62
     1
 10
538.983333
 20
547.383317
 30
0.0
 11
577.333147745
 21
547.383317
 31
0.0
  0
LINE
  8
0
  6
CONTINUOUS
 62
     1
 10
538.983333
 20
483.883317
 30
0.0
 11
577.333147745
 21
483.883317
 31
0.0
  0
LINE
  8
0
  6
CONTINUOUS
 62
     1
 10
369.483333
 20
686.633317
 30
0.0
 11
362.983333
 21
686.633317
 31
0.0
  0
LINE
  8
0
  6
CONTINUOUS
 62
     1
 10
362.983333
 20
455.633317
 30
0.0
 11
362.983333
 21
686.633317
 31
0.0
  0
LINE
  8
7
  6
CONTINUOUS
 62
     2
 10
475.983333
 20
720.633317
 30
0.0
 11
484.547723096
 21
725.795799183
 31
0.0
  0
LINE
  8
7
  6
CONTINUOUS
 62
     2
 10
475.983333
 20
720.633317
 30
0.0
 11
480.819071299
 21
729.386352765
 31
0.0
  0
LINE
  8
7
  6
CONTINUOUS
 62
     2
 10
475.983333
 20
720.633317
 30
0.0
 11
501.983333
 21
747.633317
 31
0.0
  0
LINE
  8
7
  6
CONTINUOUS
 62
     2
 10
501.983333
 20
747.633317
 30
0.0
 11
560.783333
 21
747.633317
 31
0.0
  0
LINE
  8
7
  6
CONTINUOUS
 62
     2
 10
562.983333
 20
483.883317
 30
0.0
 11
565.571523451
 21
493.542575263
 31
0.0
  0
LINE
  8
7
  6
CONTINUOUS
 62
     2
 10
562.983333
 20
483.883317
 30
0.0
 11
560.395142549
 21
493.542575263
 31
0.0
  0
LINE
  8
7
  6
CONTINUOUS
 62
     2
 10
562.983333
 20
483.883317
 30
0.0
 11
562.983333
 21
547.383317
 31
0.0
  0
LINE
  8
7
  6
CONTINUOUS
 62
     2
 10
562.983333
 20
547.383317
 30
0.0
 11
560.395142549
 21
537.724058737
 31
0.0
  0
LINE
  8
7
  6
CONTINUOUS
 62
     2
 10
562.983333
 20
547.383317
 30
0.0
 11
565.571523451
 21
537.724058737
 31
0.0
  0
LINE
  8
7
  6
CONTINUOUS
 62
     2
 10
495.983333
 20
682.633317
 30
0.0
 11
493.395142549
 21
672.974058737
 31
0.0
  0
LINE
  8
7
  6
CONTINUOUS
 62
     2
 10
495.983333
 20
682.633317
 30
0.0
 11
498.571523451
 21
672.974058737
 31
0.0
  0
LINE
  8
7
  6
CONTINUOUS
 62
     2
 10
495.983333
 20
568.633317
 30
0.0
 11
498.571523451
 21
578.292575263
 31
0.0
  0
LINE
  8
7
  6
CONTINUOUS
 62
     2
 10
495.983333
 20
568.633317
 30
0.0
 11
493.395142549
 21
578.292575263
 31
0.0
  0
LINE
  8
0
  6
LTYPE3
 62
     2
 10
499.983333
 20
625.633317
 30
0.0
 11
582.983333
 21
625.633317
 31
0.0
  0
LINE
  8
0
  6
CONTINUOUS
 62
     1
 10
302.983333
 20
455.633317
 30
0.0
 11
302.983333
 21
660.633317
 31
0.0
  0
LINE
  8
0
  6
CONTINUOUS
 62
     1
 10
530.983333
 20
470.633317
 30
0.0
 11
456.983333
 21
470.633317
 31
0.0
  0
LINE
  8
0
  6
CONTINUOUS
 62
     1
 10
581.983333
 20
426.133317
 30
0.0
 11
448.983333
 21
426.133317
 31
0.0
  0
LINE
  8
0
  6
CONTINUOUS
 62
     1
 10
538.983333
 20
469.133317
 30
0.0
 11
451.983333
 21
469.133317
 31
0.0
  0
ARC
  8
0
  6
CONTINUOUS
 62
     1
 10
451.983333
 20
466.133317
 30
0.0
 40
3.0
 50
90.0
 51
180.0
  0
LINE
  8
0
  6
CONTINUOUS
 62
     1
 10
581.983333
 20
426.133317
 30
0.0
 11
581.983333
 21
465.133317
 31
0.0
  0
LINE
  8
0
  6
CONTINUOUS
 62
     1
 10
578.983333
 20
468.133317
 30
0.0
 11
538.983333
 21
468.133317
 31
0.0
  0
ARC
  8
0
  6
CONTINUOUS
 62
     1
 10
578.983333
 20
465.133317
 30
0.0
 40
3.0
 50
0.0
 51
90.0
  0
LINE
  8
0
  6
CONTINUOUS
 62
     1
 10
576.983333
 20
424.633317
 30
0.0
 11
448.983333
 21
424.633317
 31
0.0
  0
LINE
  8
0
  6
CONTINUOUS
 62
     1
 10
456.983333
 20
469.133317
 30
0.0
 11
456.983333
 21
470.633317
 31
0.0
  0
LINE
  8
0
  6
CONTINUOUS
 62
     1
 10
530.983333
 20
469.133317
 30
0.0
 11
530.983333
 21
470.633317
 31
0.0
  0
LINE
  8
0
  6
CONTINUOUS
 62
     1
 10
538.983333
 20
468.133317
 30
0.0
 11
538.983333
 21
469.133317
 31
0.0
  0
LINE
  8
0
  6
CONTINUOUS
 62
     1
 10
290.983333
 20
607.633317
 30
0.0
 11
347.983333
 21
607.633317
 31
0.0
  0
LINE
  8
0
  6
CONTINUOUS
 62
     1
 10
290.983333
 20
455.633317
 30
0.0
 11
362.983333
 21
455.633317
 31
0.0
  0
LINE
  8
0
  6
CONTINUOUS
 62
     1
 10
290.983333
 20
465.633317
 30
0.0
 11
290.983333
 21
455.833317
 31
0.0
  0
LINE
  8
0
  6
CONTINUOUS
 62
     1
 10
290.983333
 20
455.833317
 30
0.0
 11
285.368973646
 21
455.833317
 31
0.0
  0
LINE
  8
0
  6
CONTINUOUS
 62
     1
 10
283.983333
 20
458.233317
 30
0.0
 11
285.368973646
 21
455.833317
 31
0.0
  0
LINE
  8
0
  6
CONTINUOUS
 62
     1
 10
283.983333
 20
465.633317
 30
0.0
 11
283.983333
 21
458.233317
 31
0.0
  0
LINE
  8
0
  6
CONTINUOUS
 62
     1
 10
290.983333
 20
460.733317
 30
0.0
 11
285.368973646
 21
460.733317
 31
0.0
  0
LINE
  8
0
  6
CONTINUOUS
 62
     1
 10
290.983333
 20
465.633317
 30
0.0
 11
290.983333
 21
475.433317
 31
0.0
  0
LINE
  8
0
  6
CONTINUOUS
 62
     1
 10
290.983333
 20
475.433317
 30
0.0
 11
285.368973646
 21
475.433317
 31
0.0
  0
LINE
  8
0
  6
CONTINUOUS
 62
     1
 10
283.983333
 20
473.033317
 30
0.0
 11
285.368973646
 21
475.433317
 31
0.0
  0
LINE
  8
0
  6
CONTINUOUS
 62
     1
 10
283.983333
 20
465.633317
 30
0.0
 11
283.983333
 21
473.033317
 31
0.0
  0
LINE
  8
0
  6
CONTINUOUS
 62
     1
 10
290.983333
 20
470.533317
 30
0.0
 11
285.368973646
 21
470.533317
 31
0.0
  0
ARC
  8
0
  6
CONTINUOUS
 62
     1
 10
293.3400158
 20
465.633317
 30
0.0
 40
9.3566828
 50
148.419912243
 51
211.580087757
  0
ARC
  8
0
  6
CONTINUOUS
 62
     1
 10
286.841216832
 20
458.283317
 30
0.0
 40
2.858321186
 50
121.002313915
 51
182.989498403
  0
LINE
  8
0
  6
CONTINUOUS
 62
     1
 10
283.983333
 20
473.033317
 30
0.0
 11
285.368973646
 21
475.433317
 31
0.0
  0
ARC
  8
0
  6
CONTINUOUS
 62
     1
 10
286.841216832
 20
472.983317
 30
0.0
 40
2.858321186
 50
177.010501597
 51
238.997686085
  0
LINE
  8
0
  6
LTYPE2
 62
     2
 10
278.983333
 20
465.633317
 30
0.0
 11
311.983333
 21
465.633317
 31
0.0
  0
LINE
  8
0
  6
LTYPE2
 62
     2
 10
278.983333
 20
565.633317
 30
0.0
 11
311.983333
 21
565.633317
 31
0.0
  0
LINE
  8
0
  6
LTYPE3
 62
     2
 10
283.983333
 20
515.633317
 30
0.0
 11
542.483333
 21
515.633317
 31
0.0
  0
LINE
  8
0
  6
CONTINUOUS
 62
     1
 10
298.983333
 20
611.633317
 30
0.0
 11
302.983333
 21
611.633317
 31
0.0
  0
LINE
  8
0
  6
CONTINUOUS
 62
     1
 10
298.983333
 20
639.633317
 30
0.0
 11
302.983333
 21
639.633317
 31
0.0
  0
LINE
  8
0
  6
CONTINUOUS
 62
     1
 10
298.983333
 20
611.633317
 30
0.0
 11
298.983333
 21
639.633317
 31
0.0
  0
LINE
  8
0
  6
CONTINUOUS
 62
     1
 10
297.983333
 20
611.633317
 30
0.0
 11
297.983333
 21
639.633317
 31
0.0
  0
LINE
  8
0
  6
CONTINUOUS
 62
     1
 10
269.983333
 20
639.633317
 30
0.0
 11
297.983333
 21
639.633317
 31
0.0
  0
LINE
  8
0
  6
CONTINUOUS
 62
     1
 10
267.983333
 20
637.633317
 30
0.0
 11
269.983333
 21
639.633317
 31
0.0
  0
LINE
  8
0
  6
CONTINUOUS
 62
     1
 10
269.983333
 20
611.633317
 30
0.0
 11
297.983333
 21
611.633317
 31
0.0
  0
LINE
  8
0
  6
CONTINUOUS
 62
     1
 10
269.983333
 20
611.633317
 30
0.0
 11
267.983333
 21
613.633317
 31
0.0
  0
LINE
  8
0
  6
LTYPE3
 62
     2
 10
254.983333
 20
625.633317
 30
0.0
 11
474.983333
 21
625.633317
 31
0.0
  0
LINE
  8
0
  6
LTYPE3
 62
     2
 10
278.783333
 20
577.633317
 30
0.0
 11
298.983333
 21
577.633317
 31
0.0
  0
LINE
  8
0
  6
CONTINUOUS
 62
     1
 10
591.483333
 20
503.133317
 30
0.0
 11
616.483333
 21
503.133317
 31
0.0
  0
LINE
  8
0
  6
CONTINUOUS
 62
     1
 10
616.483333
 20
528.133317
 30
0.0
 11
616.483333
 21
503.133317
 31
0.0
  0
LINE
  8
0
  6
CONTINUOUS
 62
     1
 10
591.483333
 20
528.133317
 30
0.0
 11
616.483333
 21
528.133317
 31
0.0
  0
LINE
  8
0
  6
CONTINUOUS
 62
     1
 10
591.483333
 20
528.133317
 30
0.0
 11
591.483333
 21
503.133317
 31
0.0
  0
CIRCLE
  8
0
  6
CONTINUOUS
 62
     1
 10
603.983333
 20
515.633317
 30
0.0
 40
12.5
  0
LINE
  8
0
  6
LTYPE3
 62
     2
 10
603.983333
 20
496.933317
 30
0.0
 11
603.983333
 21
536.633317
 31
0.0
  0
LINE
  8
7
  6
CONTINUOUS
 62
     2
 10
608.452757461
 20
525.133317
 30
0.0
 11
614.419333149
 21
533.158276474
 31
0.0
  0
LINE
  8
7
  6
CONTINUOUS
 62
     2
 10
608.452757461
 20
525.133317
 30
0.0
 11
609.607483843
 21
535.066423613
 31
0.0
  0
LINE
  8
7
  6
CONTINUOUS
 62
     2
 10
608.452757461
 20
525.133317
 30
0.0
 11
631.452757461
 21
583.133317
 31
0.0
  0
LINE
  8
7
  6
CONTINUOUS
 62
     2
 10
469.983333
 20
433.633317
 30
0.0
 11
547.252757461
 21
433.633317
 31
0.0
  0
CIRCLE
  8
0
  6
CONTINUOUS
 62
     1
 10
840.983333
 20
515.633317
 30
0.0
 40
8.0
  0
LINE
  8
0
  6
LTYPE1
 62
     2
 10
815.983333
 20
495.633317
 30
0.0
 11
815.983333
 21
535.633317
 31
0.0
  0
LINE
  8
0
  6
CONTINUOUS
 62
     1
 10
805.983333
 20
535.633317
 30
0.0
 11
848.983333
 21
535.633317
 31
0.0
  0
LINE
  8
0
  6
CONTINUOUS
 62
     1
 10
848.983333
 20
535.633317
 30
0.0
 11
858.983333
 21
525.633317
 31
0.0
  0
LINE
  8
0
  6
CONTINUOUS
 62
     1
 10
805.983333
 20
495.633317
 30
0.0
 11
848.983333
 21
495.633317
 31
0.0
  0
LINE
  8
0
  6
CONTINUOUS
 62
     1
 10
858.983333
 20
505.633317
 30
0.0
 11
858.983333
 21
525.633317
 31
0.0
  0
LINE
  8
0
  6
CONTINUOUS
 62
     1
 10
848.983333
 20
495.633317
 30
0.0
 11
858.983333
 21
505.633317
 31
0.0
  0
LINE
  8
0
  6
CONTINUOUS
 62
     1
 10
858.983333
 20
695.633317
 30
0.0
 11
858.983333
 21
707.633317
 31
0.0
  0
LINE
  8
0
  6
CONTINUOUS
 62
     1
 10
815.983333
 20
695.633317
 30
0.0
 11
858.983333
 21
695.633317
 31
0.0
  0
LINE
  8
0
  6
CONTINUOUS
 62
     1
 10
805.983333
 20
667.633317
 30
0.0
 11
858.983333
 21
667.633317
 31
0.0
  0
LINE
  8
0
  6
CONTINUOUS
 62
     1
 10
858.983333
 20
679.633317
 30
0.0
 11
858.983333
 21
667.633317
 31
0.0
  0
LINE
  8
0
  6
CONTINUOUS
 62
     1
 10
815.983333
 20
679.633317
 30
0.0
 11
858.983333
 21
679.633317
 31
0.0
  0
LINE
  8
0
  6
CONTINUOUS
 62
     1
 10
815.983333
 20
679.633317
 30
0.0
 11
815.983333
 21
695.633317
 31
0.0
  0
LINE
  8
0
  6
CONTINUOUS
 62
     1
 10
832.983333
 20
679.633317
 30
0.0
 11
832.983333
 21
695.633317
 31
0.0
  0
LINE
  8
0
  6
CONTINUOUS
 62
     1
 10
848.983333
 20
679.633317
 30
0.0
 11
848.983333
 21
695.633317
 31
0.0
  0
LINE
  8
7
  6
CONTINUOUS
 62
     2
 10
854.983333
 20
535.633317
 30
0.0
 11
900.483333
 21
535.633317
 31
0.0
  0
LINE
  8
7
  6
CONTINUOUS
 62
     2
 10
894.483333
 20
535.633317
 30
0.0
 11
891.895142549
 21
525.974058737
 31
0.0
  0
LINE
  8
7
  6
CONTINUOUS
 62
     2
 10
894.483333
 20
535.633317
 30
0.0
 11
897.071523451
 21
525.974058737
 31
0.0
  0
LINE
  8
7
  6
CONTINUOUS
 62
     2
 10
894.483333
 20
535.633317
 30
0.0
 11
894.483333
 21
495.633317
 31
0.0
  0
LINE
  8
7
  6
CONTINUOUS
 62
     2
 10
894.483333
 20
495.633317
 30
0.0
 11
897.071523451
 21
505.292575263
 31
0.0
  0
LINE
  8
7
  6
CONTINUOUS
 62
     2
 10
894.483333
 20
495.633317
 30
0.0
 11
891.895142549
 21
505.292575263
 31
0.0
  0
LINE
  8
7
  6
CONTINUOUS
 62
     2
 10
854.983333
 20
495.633317
 30
0.0
 11
900.483333
 21
495.633317
 31
0.0
  0
LINE
  8
7
  6
CONTINUOUS
 62
     2
 10
864.983333
 20
695.633317
 30
0.0
 11
900.483333
 21
695.633317
 31
0.0
  0
LINE
  8
7
  6
CONTINUOUS
 62
     2
 10
864.983333
 20
679.633317
 30
0.0
 11
900.483333
 21
679.633317
 31
0.0
  0
LINE
  8
7
  6
CONTINUOUS
 62
     2
 10
864.983333
 20
707.633317
 30
0.0
 11
946.483333
 21
707.633317
 31
0.0
  0
LINE
  8
7
  6
CONTINUOUS
 62
     2
 10
864.983333
 20
667.633317
 30
0.0
 11
946.483333
 21
667.633317
 31
0.0
  0
LINE
  8
7
  6
CONTINUOUS
 62
     2
 10
891.983333
 20
707.633317
 30
0.0
 11
894.571523451
 21
717.292575263
 31
0.0
  0
LINE
  8
7
  6
CONTINUOUS
 62
     2
 10
891.983333
 20
707.633317
 30
0.0
 11
889.395142549
 21
717.292575263
 31
0.0
  0
LINE
  8
7
  6
CONTINUOUS
 62
     2
 10
891.983333
 20
667.633317
 30
0.0
 11
889.395142549
 21
657.974058737
 31
0.0
  0
LINE
  8
7
  6
CONTINUOUS
 62
     2
 10
891.983333
 20
667.633317
 30
0.0
 11
894.571523451
 21
657.974058737
 31
0.0
  0
LINE
  8
7
  6
CONTINUOUS
 62
     2
 10
895.983333
 20
667.633317
 30
0.0
 11
897.983333
 21
667.633317
 31
0.0
  0
LINE
  8
7
  6
CONTINUOUS
 62
     2
 10
891.983333
 20
745.433317
 30
0.0
 11
891.983333
 21
679.633317
 31
0.0
  0
LINE
  8
7
  6
CONTINUOUS
 62
     2
 10
891.983333
 20
679.633317
 30
0.0
 11
891.983333
 21
629.833317
 31
0.0
  0
LINE
  8
7
  6
CONTINUOUS
 62
     2
 10
832.983333
 20
652.133317
 30
0.0
 11
832.983333
 21
596.633317
 31
0.0
  0
LINE
  8
7
  6
CONTINUOUS
 62
     2
 10
832.983333
 20
602.633317
 30
0.0
 11
823.324074737
 21
605.221507451
 31
0.0
  0
LINE
  8
7
  6
CONTINUOUS
 62
     2
 10
832.983333
 20
602.633317
 30
0.0
 11
823.324074737
 21
600.045126549
 31
0.0
  0
LINE
  8
7
  6
CONTINUOUS
 62
     2
 10
817.983333
 20
602.633317
 30
0.0
 11
919.663333
 21
602.633317
 31
0.0
  0
LINE
  8
7
  6
CONTINUOUS
 62
     2
 10
848.983333
 20
602.633317
 30
0.0
 11
858.642591263
 21
600.045126549
 31
0.0
  0
LINE
  8
7
  6
CONTINUOUS
 62
     2
 10
848.983333
 20
602.633317
 30
0.0
 11
858.642591263
 21
605.221507451
 31
0.0
  0
LINE
  8
7
  6
CONTINUOUS
 62
     2
 10
848.983333
 20
652.133317
 30
0.0
 11
848.983333
 21
596.633317
 31
0.0
  0
LINE
  8
0
  6
LTYPE2
 62
     2
 10
840.983333
 20
479.633317
 30
0.0
 11
840.983333
 21
724.633317
 31
0.0
  0
LINE
  8
7
  6
CONTINUOUS
 62
     2
 10
840.983333
 20
573.633317
 30
0.0
 11
840.983333
 21
575.633317
 31
0.0
  0
LINE
  8
7
  6
CONTINUOUS
 62
     2
 10
840.983333
 20
569.633317
 30
0.0
 11
831.324074737
 21
572.221507451
 31
0.0
  0
LINE
  8
7
  6
CONTINUOUS
 62
     2
 10
840.983333
 20
569.633317
 30
0.0
 11
831.324074737
 21
567.045126549
 31
0.0
  0
LINE
  8
7
  6
CONTINUOUS
 62
     2
 10
840.983333
 20
569.633317
 30
0.0
 11
815.983333
 21
569.633317
 31
0.0
  0
LINE
  8
7
  6
CONTINUOUS
 62
     2
 10
815.983333
 20
569.633317
 30
0.0
 11
825.642591263
 21
567.045126549
 31
0.0
  0
LINE
  8
7
  6
CONTINUOUS
 62
     2
 10
815.983333
 20
569.633317
 30
0.0
 11
825.642591263
 21
572.221507451
 31
0.0
  0
LINE
  8
7
  6
CONTINUOUS
 62
     2
 10
815.983333
 20
673.633317
 30
0.0
 11
815.983333
 21
563.633317
 31
0.0
  0
LINE
  8
0
  6
CONTINUOUS
 62
     1
 10
738.483333
 20
551.383317
 30
0.0
 11
748.483333
 21
551.383317
 31
0.0
  0
LINE
  8
0
  6
CONTINUOUS
 62
     1
 10
748.483333
 20
549.383317
 30
0.0
 11
750.983333
 21
549.383317
 31
0.0
  0
LINE
  8
0
  6
CONTINUOUS
 62
     1
 10
735.983333
 20
549.383317
 30
0.0
 11
738.483333
 21
549.383317
 31
0.0
  0
LINE
  8
0
  6
CONTINUOUS
 62
     1
 10
750.983333
 20
549.383317
 30
0.0
 11
750.983333
 21
515.633317
 31
0.0
  0
LINE
  8
0
  6
CONTINUOUS
 62
     1
 10
735.983333
 20
549.383317
 30
0.0
 11
735.983333
 21
515.633317
 31
0.0
  0
LINE
  8
0
  6
CONTINUOUS
 62
     1
 10
738.483333
 20
551.383317
 30
0.0
 11
738.483333
 21
515.633317
 31
0.0
  0
LINE
  8
0
  6
CONTINUOUS
 62
     1
 10
748.483333
 20
551.383317
 30
0.0
 11
748.483333
 21
515.633317
 31
0.0
  0
LINE
  8
0
  6
CONTINUOUS
 62
     1
 10
735.983333
 20
481.883317
 30
0.0
 11
735.983333
 21
483.883317
 31
0.0
  0
LINE
  8
0
  6
CONTINUOUS
 62
     1
 10
735.983333
 20
481.883317
 30
0.0
 11
750.983333
 21
481.883317
 31
0.0
  0
ARC
  8
0
  6
CONTINUOUS
 62
     1
 10
756.104834365
 20
469.133317
 30
0.0
 40
1.0
 50
195.0
 51
270.0
  0
ARC
  8
0
  6
CONTINUOUS
 62
     1
 10
756.104834365
 20
469.133317
 30
0.0
 40
1.0
 50
270.0
 51
345.0
  0
LINE
  8
0
  6
CONTINUOUS
 62
     1
 10
759.353054439
 20
477.392136045
 30
0.0
 11
757.070760191
 21
468.874497955
 31
0.0
  0
ARC
  8
0
  6
CONTINUOUS
 62
     1
 10
760.318980265
 20
477.133317
 30
0.0
 40
1.0
 50
90.0
 51
165.0
  0
ARC
  8
0
  6
CONTINUOUS
 62
     1
 10
756.104834365
 20
562.133317
 30
0.0
 40
1.0
 50
90.0
 51
165.0
  0
ARC
  8
0
  6
CONTINUOUS
 62
     1
 10
756.104834365
 20
562.133317
 30
0.0
 40
1.0
 50
15.0
 51
90.0
  0
LINE
  8
0
  6
CONTINUOUS
 62
     1
 10
759.353054439
 20
553.874497955
 30
0.0
 11
757.070760191
 21
562.392136045
 31
0.0
  0
ARC
  8
0
  6
CONTINUOUS
 62
     1
 10
760.318980265
 20
554.133317
 30
0.0
 40
1.0
 50
195.0
 51
270.0
  0
LINE
  8
0
  6
CONTINUOUS
 62
     1
 10
755.138908539
 20
468.874497955
 30
0.0
 11
750.983333
 21
481.883317
 31
0.0
  0
LINE
  8
0
  6
CONTINUOUS
 62
     1
 10
755.138908539
 20
562.392136045
 30
0.0
 11
750.983333
 21
549.383317
 31
0.0
  0
LINE
  8
0
  6
CONTINUOUS
 62
     1
 10
760.318991055
 20
553.133317
 30
0.0
 11
760.318991055
 21
515.633317
 31
0.0
  0
LINE
  8
0
  6
CONTINUOUS
 62
     1
 10
756.104834365
 20
563.133317
 30
0.0
 11
756.104834365
 21
515.633317
 31
0.0
  0
LINE
  8
0
  6
CONTINUOUS
 62
     1
 10
751.983333
 20
483.883317
 30
0.0
 11
751.983333
 21
515.633317
 31
0.0
  0
LINE
  8
7
  6
CONTINUOUS
 62
     2
 10
631.452757461
 20
583.133317
 30
0.0
 11
666.252757461
 21
583.133317
 31
0.0
  0
LINE
  8
0
  6
LTYPE3
 62
     2
 10
567.983333
 20
515.633317
 30
0.0
 11
866.983333
 21
515.633317
 31
0.0
  0
LINE
  8
0
  6
LTYPE2
 62
     2
 10
565.983333
 20
443.133317
 30
0.0
 11
593.983333
 21
443.133317
 31
0.0
  0
LINE
  8
7
  6
CONTINUOUS
 62
     2
 10
575.983333
 20
772.633317
 30
0.0
 11
566.324074737
 21
775.221507451
 31
0.0
  0
LINE
  8
7
  6
CONTINUOUS
 62
     2
 10
575.983333
 20
772.633317
 30
0.0
 11
566.324074737
 21
770.045126549
 31
0.0
  0
LINE
  8
7
  6
CONTINUOUS
 62
     2
 10
575.983333
 20
772.633317
 30
0.0
 11
362.983333
 21
772.633317
 31
0.0
  0
LINE
  8
7
  6
CONTINUOUS
 62
     2
 10
362.983333
 20
772.633317
 30
0.0
 11
372.642591263
 21
770.045126549
 31
0.0
  0
LINE
  8
7
  6
CONTINUOUS
 62
     2
 10
362.983333
 20
772.633317
 30
0.0
 11
372.642591263
 21
775.221507451
 31
0.0
  0
LINE
  8
7
  6
CONTINUOUS
 62
     2
 10
362.983333
 20
766.633317
 30
0.0
 11
362.983333
 21
766.633317
 31
0.0
  0
LINE
  8
7
  6
CONTINUOUS
 62
     2
 10
362.983333
 20
772.633317
 30
0.0
 11
353.324074737
 21
775.221507451
 31
0.0
  0
LINE
  8
7
  6
CONTINUOUS
 62
     2
 10
362.983333
 20
772.633317
 30
0.0
 11
353.324074737
 21
770.045126549
 31
0.0
  0
LINE
  8
7
  6
CONTINUOUS
 62
     2
 10
362.983333
 20
772.633317
 30
0.0
 11
302.983333
 21
772.633317
 31
0.0
  0
LINE
  8
7
  6
CONTINUOUS
 62
     2
 10
302.983333
 20
772.633317
 30
0.0
 11
312.642591263
 21
770.045126549
 31
0.0
  0
LINE
  8
7
  6
CONTINUOUS
 62
     2
 10
302.983333
 20
772.633317
 30
0.0
 11
312.642591263
 21
775.221507451
 31
0.0
  0
LINE
  8
7
  6
CONTINUOUS
 62
     2
 10
575.983333
 20
645.63332779
 30
0.0
 11
575.983333
 21
778.633317
 31
0.0
  0
LINE
  8
7
  6
CONTINUOUS
 62
     2
 10
362.983333
 20
692.633317
 30
0.0
 11
362.983333
 21
778.633317
 31
0.0
  0
LINE
  8
7
  6
CONTINUOUS
 62
     2
 10
302.983333
 20
666.633317
 30
0.0
 11
302.983333
 21
778.633317
 31
0.0
  0
LINE
  8
0
  6
LTYPE2
 62
     2
 10
485.65801509
 20
720.633317
 30
0.0
 11
442.912808845
 21
720.633317
 31
0.0
  0
LINE
  8
0
  6
CONTINUOUS
 62
     1
 10
583.333147745
 20
547.383317
 30
0.0
 11
735.983333
 21
547.383317
 31
0.0
  0
LINE
  8
0
  6
CONTINUOUS
 62
     1
 10
583.333147745
 20
483.883317
 30
0.0
 11
770.983333
 21
483.883317
 31
0.0
  0
LINE
  8
7
  6
CONTINUOUS
 62
     2
 10
581.983333
 20
443.133317
 30
0.0
 11
586.983333
 21
434.473062962
 31
0.0
  0
LINE
  8
7
  6
CONTINUOUS
 62
     2
 10
581.983333
 20
443.133317
 30
0.0
 11
590.643587038
 21
438.133317
 31
0.0
  0
LINE
  8
7
  6
CONTINUOUS
 62
     2
 10
581.983333
 20
443.133317
 30
0.0
 11
617.983333
 21
407.133317
 31
0.0
  0
LINE
  8
7
  6
CONTINUOUS
 62
     2
 10
617.983333
 20
407.133317
 30
0.0
 11
676.783333
 21
407.133317
 31
0.0
  0
LINE
  8
0
  6
CONTINUOUS
 62
     1
 10
803.483333
 20
551.383317
 30
0.0
 11
793.483333
 21
551.383317
 31
0.0
  0
LINE
  8
0
  6
CONTINUOUS
 62
     1
 10
805.983333
 20
549.383317
 30
0.0
 11
803.483333
 21
549.383317
 31
0.0
  0
LINE
  8
0
  6
CONTINUOUS
 62
     1
 10
793.483333
 20
549.383317
 30
0.0
 11
790.983333
 21
549.383317
 31
0.0
  0
LINE
  8
0
  6
CONTINUOUS
 62
     1
 10
790.983333
 20
549.383317
 30
0.0
 11
790.983333
 21
515.633317
 31
0.0
  0
LINE
  8
0
  6
CONTINUOUS
 62
     1
 10
793.483333
 20
551.383317
 30
0.0
 11
793.483333
 21
515.633317
 31
0.0
  0
LINE
  8
0
  6
CONTINUOUS
 62
     1
 10
803.483333
 20
551.383317
 30
0.0
 11
803.483333
 21
515.633317
 31
0.0
  0
LINE
  8
0
  6
CONTINUOUS
 62
     1
 10
805.983333
 20
481.883317
 30
0.0
 11
790.983333
 21
481.883317
 31
0.0
  0
LINE
  8
0
  6
CONTINUOUS
 62
     1
 10
790.983333
 20
481.883317
 30
0.0
 11
790.983333
 21
496.633317
 31
0.0
  0
ARC
  8
0
  6
CONTINUOUS
 62
     1
 10
785.861831635
 20
469.133317
 30
0.0
 40
1.0
 50
270.0
 51
345.0
  0
ARC
  8
0
  6
CONTINUOUS
 62
     1
 10
785.861831635
 20
469.133317
 30
0.0
 40
1.0
 50
195.0
 51
270.0
  0
LINE
  8
0
  6
CONTINUOUS
 62
     1
 10
782.613611561
 20
477.392136045
 30
0.0
 11
784.895905809
 21
468.874497955
 31
0.0
  0
ARC
  8
0
  6
CONTINUOUS
 62
     1
 10
781.647685735
 20
477.133317
 30
0.0
 40
1.0
 50
15.0
 51
90.0
  0
ARC
  8
0
  6
CONTINUOUS
 62
     1
 10
785.861831635
 20
562.133317
 30
0.0
 40
1.0
 50
15.0
 51
90.0
  0
ARC
  8
0
  6
CONTINUOUS
 62
     1
 10
785.861831635
 20
562.133317
 30
0.0
 40
1.0
 50
90.0
 51
165.0
  0
LINE
  8
0
  6
CONTINUOUS
 62
     1
 10
782.613611561
 20
553.874497955
 30
0.0
 11
784.895905809
 21
562.392136045
 31
0.0
  0
ARC
  8
0
  6
CONTINUOUS
 62
     1
 10
781.647685735
 20
554.133317
 30
0.0
 40
1.0
 50
270.0
 51
345.0
  0
LINE
  8
0
  6
CONTINUOUS
 62
     1
 10
786.827757461
 20
468.874497955
 30
0.0
 11
790.983333
 21
481.883317
 31
0.0
  0
LINE
  8
0
  6
CONTINUOUS
 62
     1
 10
786.827757461
 20
562.392136045
 30
0.0
 11
790.983333
 21
549.383317
 31
0.0
  0
LINE
  8
0
  6
CONTINUOUS
 62
     1
 10
781.647685735
 20
553.133317
 30
0.0
 11
781.647685735
 21
515.633317
 31
0.0
  0
LINE
  8
0
  6
CONTINUOUS
 62
     1
 10
785.861831635
 20
515.633317
 30
0.0
 11
785.861831635
 21
563.133317
 31
0.0
  0
LINE
  8
0
  6
CONTINUOUS
 62
     1
 10
770.983333
 20
483.883317
 30
0.0
 11
770.983333
 21
515.633317
 31
0.0
  0
LINE
  8
0
  6
CONTINUOUS
 62
     1
 10
770.983333
 20
496.633317
 30
0.0
 11
805.983333
 21
496.633317
 31
0.0
  0
LINE
  8
0
  6
CONTINUOUS
 62
     1
 10
805.983333
 20
549.383317
 30
0.0
 11
805.983333
 21
481.883317
 31
0.0
  0
LINE
  8
0
  6
LTYPE3
 62
     3
 10
756.104834365
 20
563.133317
 30
0.0
 11
785.861831635
 21
563.133317
 31
0.0
  0
LINE
  8
0
  6
LTYPE3
 62
     3
 10
756.104834365
 20
468.133317
 30
0.0
 11
785.861831635
 21
468.133317
 31
0.0
  0
LINE
  8
0
  6
LTYPE3
 62
     3
 10
760.318991055
 20
553.133317
 30
0.0
 11
781.647685735
 21
553.133317
 31
0.0
  0
LINE
  8
0
  6
LTYPE3
 62
     3
 10
760.318991055
 20
478.133317
 30
0.0
 11
781.647685735
 21
478.133317
 31
0.0
  0
LINE
  8
0
  6
CONTINUOUS
 62
     1
 10
803.483333
 20
723.383317
 30
0.0
 11
793.483333
 21
723.383317
 31
0.0
  0
LINE
  8
0
  6
CONTINUOUS
 62
     1
 10
805.983333
 20
721.383317
 30
0.0
 11
803.483333
 21
721.383317
 31
0.0
  0
LINE
  8
0
  6
CONTINUOUS
 62
     1
 10
793.483333
 20
721.383317
 30
0.0
 11
790.983333
 21
721.383317
 31
0.0
  0
LINE
  8
0
  6
CONTINUOUS
 62
     1
 10
803.483333
 20
651.883317
 30
0.0
 11
793.483333
 21
651.883317
 31
0.0
  0
LINE
  8
0
  6
CONTINUOUS
 62
     1
 10
805.983333
 20
653.883317
 30
0.0
 11
803.483333
 21
653.883317
 31
0.0
  0
LINE
  8
0
  6
CONTINUOUS
 62
     1
 10
793.483333
 20
653.883317
 30
0.0
 11
790.983333
 21
653.883317
 31
0.0
  0
LINE
  8
0
  6
CONTINUOUS
 62
     1
 10
793.483333
 20
723.383317
 30
0.0
 11
793.483333
 21
651.883317
 31
0.0
  0
LINE
  8
0
  6
CONTINUOUS
 62
     1
 10
803.483333
 20
723.383317
 30
0.0
 11
803.483333
 21
651.883317
 31
0.0
  0
LINE
  8
0
  6
CONTINUOUS
 62
     1
 10
790.983333
 20
721.383317
 30
0.0
 11
790.983333
 21
653.883317
 31
0.0
  0
ARC
  8
0
  6
CONTINUOUS
 62
     1
 10
785.861831635
 20
641.133317
 30
0.0
 40
1.0
 50
270.0
 51
345.0
  0
ARC
  8
0
  6
CONTINUOUS
 62
     1
 10
785.861831635
 20
641.133317
 30
0.0
 40
1.0
 50
195.0
 51
270.0
  0
LINE
  8
0
  6
CONTINUOUS
 62
     1
 10
782.613611561
 20
649.392136045
 30
0.0
 11
784.895905809
 21
640.874497955
 31
0.0
  0
ARC
  8
0
  6
CONTINUOUS
 62
     1
 10
781.647685735
 20
649.133317
 30
0.0
 40
1.0
 50
15.0
 51
90.0
  0
LINE
  8
0
  6
LTYPE3
 62
     3
 10
750.983333
 20
640.133317
 30
0.0
 11
785.861831635
 21
640.133317
 31
0.0
  0
ARC
  8
0
  6
CONTINUOUS
 62
     1
 10
785.861831635
 20
734.133317
 30
0.0
 40
1.0
 50
15.0
 51
90.0
  0
ARC
  8
0
  6
CONTINUOUS
 62
     1
 10
785.861831635
 20
734.133317
 30
0.0
 40
1.0
 50
90.0
 51
165.0
  0
LINE
  8
0
  6
CONTINUOUS
 62
     1
 10
782.613611561
 20
725.874497955
 30
0.0
 11
784.895905809
 21
734.392136045
 31
0.0
  0
ARC
  8
0
  6
CONTINUOUS
 62
     1
 10
781.647685735
 20
726.133317
 30
0.0
 40
1.0
 50
270.0
 51
345.0
  0
LINE
  8
0
  6
LTYPE3
 62
     3
 10
750.983333
 20
735.133317
 30
0.0
 11
785.861831635
 21
735.133317
 31
0.0
  0
LINE
  8
0
  6
CONTINUOUS
 62
     1
 10
781.647685735
 20
725.133317
 30
0.0
 11
781.647685735
 21
650.133317
 31
0.0
  0
LINE
  8
0
  6
CONTINUOUS
 62
     1
 10
785.861831635
 20
640.133317
 30
0.0
 11
785.861831635
 21
735.133317
 31
0.0
  0
LINE
  8
0
  6
CONTINUOUS
 62
     1
 10
790.983333
 20
653.883317
 30
0.0
 11
786.827757461
 21
640.874497955
 31
0.0
  0
LINE
  8
0
  6
CONTINUOUS
 62
     1
 10
790.983333
 20
721.383317
 30
0.0
 11
786.827757461
 21
734.392136045
 31
0.0
  0
LINE
  8
7
  6
CONTINUOUS
 62
     2
 10
756.952757461
 20
735.133317
 30
0.0
 11
752.952757461
 21
735.133317
 31
0.0
  0
LINE
  8
7
  6
CONTINUOUS
 62
     2
 10
758.952757461
 20
735.133317
 30
0.0
 11
756.36456701
 21
725.474058737
 31
0.0
  0
LINE
  8
7
  6
CONTINUOUS
 62
     2
 10
758.952757461
 20
735.133317
 30
0.0
 11
761.540947912
 21
725.474058737
 31
0.0
  0
LINE
  8
7
  6
CONTINUOUS
 62
     2
 10
758.952757461
 20
735.133317
 30
0.0
 11
758.952757461
 21
640.133317
 31
0.0
  0
LINE
  8
7
  6
CONTINUOUS
 62
     2
 10
758.952757461
 20
640.133317
 30
0.0
 11
761.540947912
 21
649.792575263
 31
0.0
  0
LINE
  8
7
  6
CONTINUOUS
 62
     2
 10
758.952757461
 20
640.133317
 30
0.0
 11
756.36456701
 21
649.792575263
 31
0.0
  0
LINE
  8
7
  6
CONTINUOUS
 62
     2
 10
764.452757461
 20
640.133317
 30
0.0
 11
764.952757461
 21
640.133317
 31
0.0
  0
LINE
  8
0
  6
LTYPE3
 62
     3
 10
764.483333
 20
725.133317
 30
0.0
 11
781.647685735
 21
725.133317
 31
0.0
  0
LINE
  8
0
  6
LTYPE3
 62
     3
 10
764.483333
 20
650.133317
 30
0.0
 11
781.647685735
 21
650.133317
 31
0.0
  0
LINE
  8
0
  6
CONTINUOUS
 62
     1
 10
805.983333
 20
721.383317
 30
0.0
 11
805.983333
 21
653.883317
 31
0.0
  0
LINE
  8
0
  6
CONTINUOUS
 62
     1
 10
530.983333
 20
668.703841155
 30
0.0
 11
530.983333
 21
681.133317
 31
0.0
  0
ARC
  8
0
  6
CONTINUOUS
 62
     1
 10
532.483333
 20
668.703841155
 30
0.0
 40
1.5
 50
180.0
 51
251.029592192
  0
LINE
  8
0
  6
CONTINUOUS
 62
     1
 10
545.970952653
 20
662.481322744
 30
0.0
 11
531.995713347
 21
667.285311256
 31
0.0
  0
LINE
  8
0
  6
CONTINUOUS
 62
     1
 10
530.983333
 20
625.633317
 30
0.0
 11
530.983333
 21
668.703841155
 31
0.0
  0
LINE
  8
0
  6
CONTINUOUS
 62
     1
 10
532.283333
 20
661.695762841
 30
0.0
 11
532.283333
 21
657.083882841
 31
0.0
  0
LINE
  8
0
  6
CONTINUOUS
 62
     1
 10
532.283333
 20
661.695762841
 30
0.0
 11
532.283333
 21
666.307642841
 31
0.0
  0
LINE
  8
0
  6
CONTINUOUS
 62
     1
 10
535.783533
 20
658.213322841
 30
0.0
 11
535.131450512
 21
657.083882841
 31
0.0
  0
LINE
  8
0
  6
CONTINUOUS
 62
     1
 10
535.783533
 20
661.695762841
 30
0.0
 11
535.783533
 21
658.213322841
 31
0.0
  0
LINE
  8
0
  6
CONTINUOUS
 62
     1
 10
535.783533
 20
665.178202841
 30
0.0
 11
535.131450512
 21
666.307642841
 31
0.0
  0
LINE
  8
0
  6
CONTINUOUS
 62
     1
 10
535.783533
 20
661.695762841
 30
0.0
 11
535.783533
 21
665.178202841
 31
0.0
  0
ARC
  8
0
  6
CONTINUOUS
 62
     1
 10
531.380278074
 20
661.695762841
 30
0.0
 40
4.403254926
 50
328.419912243
 51
31.580087757
  0
ARC
  8
0
  6
CONTINUOUS
 62
     1
 10
534.438612868
 20
658.236852841
 30
0.0
 40
1.34512595
 50
357.010501597
 51
58.997686085
  0
LINE
  8
0
  6
CONTINUOUS
 62
     1
 10
535.783533
 20
665.178202841
 30
0.0
 11
535.131450512
 21
666.307642841
 31
0.0
  0
ARC
  8
0
  6
CONTINUOUS
 62
     1
 10
534.438612868
 20
665.154672841
 30
0.0
 40
1.34512595
 50
301.002313915
 51
2.989498403
  0
LINE
  8
0
  6
CONTINUOUS
 62
     1
 10
532.283333
 20
657.083882841
 30
0.0
 11
535.131450512
 21
657.083882841
 31
0.0
  0
LINE
  8
0
  6
CONTINUOUS
 62
     1
 10
532.283333
 20
659.389822841
 30
0.0
 11
535.131450512
 21
659.389822841
 31
0.0
  0
LINE
  8
0
  6
CONTINUOUS
 62
     1
 10
532.283333
 20
664.001702841
 30
0.0
 11
535.131450512
 21
664.001702841
 31
0.0
  0
LINE
  8
0
  6
CONTINUOUS
 62
     1
 10
532.283333
 20
666.307642841
 30
0.0
 11
535.131450512
 21
666.307642841
 31
0.0
  0
LINE
  8
0
  6
CONTINUOUS
 62
     1
 10
530.983333
 20
657.095762841
 30
0.0
 11
532.283333
 21
657.095762841
 31
0.0
  0
LINE
  8
0
  6
CONTINUOUS
 62
     1
 10
530.983333
 20
661.695762841
 30
0.0
 11
532.283332554
 21
660.395763287
 31
0.0
  0
LINE
  8
0
  6
CONTINUOUS
 62
     1
 10
532.283332554
 20
661.695762841
 30
0.0
 11
530.983333
 21
662.995762394
 31
0.0
  0
LINE
  8
0
  6
CONTINUOUS
 62
     1
 10
530.983333
 20
666.295762841
 30
0.0
 11
532.283333
 21
666.295762841
 31
0.0
  0
LINE
  8
0
  6
CONTINUOUS
 62
     1
 10
559.983333
 20
625.633317
 30
0.0
 11
559.983333
 21
642.133317
 31
0.0
  0
LINE
  8
0
  6
CONTINUOUS
 62
     1
 10
559.983333
 20
625.633317
 30
0.0
 11
559.983333
 21
609.133317
 31
0.0
  0
LINE
  8
0
  6
CONTINUOUS
 62
     1
 10
560.983333
 20
629.433317
 30
0.0
 11
559.983333
 21
629.433317
 31
0.0
  0
LINE
  8
0
  6
CONTINUOUS
 62
     1
 10
560.983333
 20
625.633317
 30
0.0
 11
559.983333
 21
626.633317
 31
0.0
  0
LINE
  8
0
  6
CONTINUOUS
 62
     1
 10
563.465790352
 20
629.683317
 30
0.0
 11
560.983333
 21
629.683317
 31
0.0
  0
LINE
  8
0
  6
CONTINUOUS
 62
     1
 10
563.783333
 20
629.133317
 30
0.0
 11
563.465790352
 21
629.683317
 31
0.0
  0
LINE
  8
0
  6
CONTINUOUS
 62
     1
 10
563.465790352
 20
627.658317
 30
0.0
 11
560.983333
 21
627.658317
 31
0.0
  0
ARC
  8
0
  6
CONTINUOUS
 62
     1
 10
562.010359212
 20
628.670817
 30
0.0
 40
1.772973788
 50
325.174816769
 51
34.825183231
  0
LINE
  8
0
  6
CONTINUOUS
 62
     1
 10
560.983333
 20
621.833317
 30
0.0
 11
559.983333
 21
621.833317
 31
0.0
  0
LINE
  8
0
  6
CONTINUOUS
 62
     1
 10
560.983333
 20
624.633317
 30
0.0
 11
559.983333
 21
625.633317
 31
0.0
  0
LINE
  8
0
  6
CONTINUOUS
 62
     1
 10
563.783333
 20
622.133317
 30
0.0
 11
563.465790352
 21
621.583317
 31
0.0
  0
LINE
  8
0
  6
CONTINUOUS
 62
     1
 10
563.465790352
 20
621.583317
 30
0.0
 11
560.983333
 21
621.583317
 31
0.0
  0
LINE
  8
0
  6
CONTINUOUS
 62
     1
 10
563.465790352
 20
623.608317
 30
0.0
 11
560.983333
 21
623.608317
 31
0.0
  0
ARC
  8
0
  6
CONTINUOUS
 62
     1
 10
562.010359212
 20
622.595817
 30
0.0
 40
1.772973788
 50
325.174816769
 51
34.825183231
  0
LINE
  8
0
  6
CONTINUOUS
 62
     1
 10
560.983333
 20
629.683317
 30
0.0
 11
560.983333
 21
621.583317
 31
0.0
  0
LINE
  8
0
  6
CONTINUOUS
 62
     1
 10
563.783333
 20
629.133317
 30
0.0
 11
563.783333
 21
622.133317
 31
0.0
  0
ARC
  8
0
  6
CONTINUOUS
 62
     1
 10
557.167751819
 20
625.633317
 30
0.0
 40
6.615581181
 50
342.175912681
 51
17.824087319
  0
LINE
  8
0
  6
CONTINUOUS
 62
     1
 10
530.983333
 20
582.562792845
 30
0.0
 11
530.983333
 21
570.133317
 31
0.0
  0
ARC
  8
0
  6
CONTINUOUS
 62
     1
 10
532.483333
 20
582.562792845
 30
0.0
 40
1.5
 50
108.970407808
 51
180.0
  0
LINE
  8
0
  6
CONTINUOUS
 62
     1
 10
545.970952653
 20
588.785311256
 30
0.0
 11
531.995713347
 21
583.981322744
 31
0.0
  0
LINE
  8
0
  6
CONTINUOUS
 62
     1
 10
530.983333
 20
625.633317
 30
0.0
 11
530.983333
 21
582.562792845
 31
0.0
  0
LINE
  8
0
  6
CONTINUOUS
 62
     1
 10
532.283333
 20
589.570871159
 30
0.0
 11
532.283333
 21
594.182751159
 31
0.0
  0
LINE
  8
0
  6
CONTINUOUS
 62
     1
 10
535.783533
 20
593.053311159
 30
0.0
 11
535.131450512
 21
594.182751159
 31
0.0
  0
LINE
  8
0
  6
CONTINUOUS
 62
     1
 10
535.783533
 20
589.570871159
 30
0.0
 11
535.783533
 21
593.053311159
 31
0.0
  0
ARC
  8
0
  6
CONTINUOUS
 62
     1
 10
534.438612868
 20
593.029781159
 30
0.0
 40
1.34512595
 50
301.002313915
 51
2.989498403
  0
LINE
  8
0
  6
CONTINUOUS
 62
     1
 10
532.283333
 20
594.182751159
 30
0.0
 11
535.131450512
 21
594.182751159
 31
0.0
  0
LINE
  8
0
  6
CONTINUOUS
 62
     1
 10
530.983333
 20
594.170871159
 30
0.0
 11
532.283333
 21
594.170871159
 31
0.0
  0
LINE
  8
0
  6
CONTINUOUS
 62
     1
 10
532.283333
 20
589.570871159
 30
0.0
 11
532.283333
 21
584.958991159
 31
0.0
  0
LINE
  8
0
  6
CONTINUOUS
 62
     1
 10
535.783533
 20
586.088431159
 30
0.0
 11
535.131450512
 21
584.958991159
 31
0.0
  0
LINE
  8
0
  6
CONTINUOUS
 62
     1
 10
535.783533
 20
589.570871159
 30
0.0
 11
535.783533
 21
586.088431159
 31
0.0
  0
ARC
  8
0
  6
CONTINUOUS
 62
     1
 10
531.380278074
 20
589.570871159
 30
0.0
 40
4.403254926
 50
328.419912243
 51
31.580087757
  0
LINE
  8
0
  6
CONTINUOUS
 62
     1
 10
535.783533
 20
586.088431159
 30
0.0
 11
535.131450512
 21
584.958991159
 31
0.0
  0
ARC
  8
0
  6
CONTINUOUS
 62
     1
 10
534.438612868
 20
586.111961159
 30
0.0
 40
1.34512595
 50
357.010501597
 51
58.997686085
  0
LINE
  8
0
  6
CONTINUOUS
 62
     1
 10
532.283333
 20
587.264931159
 30
0.0
 11
535.131450512
 21
587.264931159
 31
0.0
  0
LINE
  8
0
  6
CONTINUOUS
 62
     1
 10
532.283333
 20
584.958991159
 30
0.0
 11
535.131450512
 21
584.958991159
 31
0.0
  0
LINE
  8
0
  6
CONTINUOUS
 62
     1
 10
530.983333
 20
584.970871159
 30
0.0
 11
532.283333
 21
584.970871159
 31
0.0
  0
LINE
  8
0
  6
CONTINUOUS
 62
     1
 10
532.283333
 20
591.876811159
 30
0.0
 11
535.131450512
 21
591.876811159
 31
0.0
  0
LINE
  8
0
  6
CONTINUOUS
 62
     1
 10
530.983333
 20
589.570871159
 30
0.0
 11
532.283332554
 21
590.870870713
 31
0.0
  0
LINE
  8
0
  6
CONTINUOUS
 62
     1
 10
532.283332554
 20
589.570871159
 30
0.0
 11
530.983333
 21
588.270871606
 31
0.0
  0
CIRCLE
  8
0
  6
CONTINUOUS
 62
     1
 10
338.983333
 20
705.633317
 30
0.0
 40
12.5
  0
ARC
  8
0
  6
CONTINUOUS
 62
     1
 10
338.983333
 20
705.633317
 30
0.0
 40
20.5
 50
300.423432294
 51
0.0
  0
ARC
  8
0
  6
CONTINUOUS
 62
     1
 10
349.931317073
 20
686.906805336
 30
0.0
 40
1.2
 50
118.393405187
 51
188.554293104
  0
ARC
  8
0
  6
CONTINUOUS
 62
     1
 10
328.035348927
 20
686.906805336
 30
0.0
 40
1.2
 50
351.445706896
 51
61.606594813
  0
ARC
  8
0
  6
CONTINUOUS
 62
     1
 10
338.983333
 20
705.633317
 30
0.0
 40
20.5
 50
0.0
 51
239.707348078
  0
LINE
  8
0
  6
CONTINUOUS
 62
     1
 10
348.869047286
 20
685.633317
 30
0.0
 11
348.183333
 21
691.633317
 31
0.0
  0
LINE
  8
0
  6
CONTINUOUS
 62
     1
 10
338.983333
 20
693.133317
 30
0.0
 11
348.183333
 21
691.633317
 31
0.0
  0
LINE
  8
0
  6
CONTINUOUS
 62
     1
 10
338.983333
 20
693.133317
 30
0.0
 11
329.783333
 21
691.633317
 31
0.0
  0
LINE
  8
0
  6
CONTINUOUS
 62
     1
 10
329.097618714
 20
685.633317
 30
0.0
 11
329.783333
 21
691.633317
 31
0.0
  0
LINE
  8
0
  6
CONTINUOUS
 62
     1
 10
329.783333
 20
691.633317
 30
0.0
 11
348.183333
 21
691.633317
 31
0.0
  0
LINE
  8
0
  6
CONTINUOUS
 62
     1
 10
267.983333
 20
613.633317
 30
0.0
 11
267.983333
 21
637.633317
 31
0.0
  0
ARC
  8
0
  6
CONTINUOUS
 62
     1
 10
264.604308674
 20
627.833317
 30
0.0
 40
1.3
 50
90.0
 51
163.39844642
  0
ARC
  8
0
  6
CONTINUOUS
 62
     1
 10
271.983333
 20
625.633317
 30
0.0
 40
9.0
 50
163.398449826
 51
180.0
  0
LINE
  8
0
  6
CONTINUOUS
 62
     1
 10
265.583333
 20
629.133317
 30
0.0
 11
264.604308674
 21
629.133317
 31
0.0
  0
LINE
  8
0
  6
CONTINUOUS
 62
     1
 10
265.583333
 20
625.633317
 30
0.0
 11
265.583333
 21
629.433317
 31
0.0
  0
ARC
  8
0
  6
CONTINUOUS
 62
     1
 10
264.604308674
 20
623.433317
 30
0.0
 40
1.3
 50
196.60155358
 51
270.0
  0
ARC
  8
0
  6
CONTINUOUS
 62
     1
 10
271.983333
 20
625.633317
 30
0.0
 40
9.0
 50
180.0
 51
196.601550174
  0
LINE
  8
0
  6
CONTINUOUS
 62
     1
 10
265.583333
 20
622.133317
 30
0.0
 11
264.604308674
 21
622.133317
 31
0.0
  0
LINE
  8
0
  6
CONTINUOUS
 62
     1
 10
265.583333
 20
625.633317
 30
0.0
 11
265.583333
 21
621.833317
 31
0.0
  0
LINE
  8
0
  6
CONTINUOUS
 62
     1
 10
262.983333
 20
625.633317
 30
0.0
 11
264.483333
 21
624.033317
 31
0.0
  0
LINE
  8
0
  6
CONTINUOUS
 62
     1
 10
262.983333
 20
625.633317
 30
0.0
 11
264.483333
 21
627.233317
 31
0.0
  0
LINE
  8
0
  6
CONTINUOUS
 62
     1
 10
267.983333
 20
629.433317
 30
0.0
 11
265.583333
 21
629.433317
 31
0.0
  0
LINE
  8
0
  6
CONTINUOUS
 62
     1
 10
267.983333
 20
621.833317
 30
0.0
 11
265.583333
 21
621.833317
 31
0.0
  0
LINE
  8
0
  6
CONTINUOUS
 62
     1
 10
290.983333
 20
455.633317
 30
0.0
 11
290.983333
 21
607.633317
 31
0.0
  0
LINE
  8
0
  6
CONTINUOUS
 62
     1
 10
287.783333
 20
587.633317
 30
0.0
 11
290.983333
 21
587.633317
 31
0.0
  0
LINE
  8
0
  6
CONTINUOUS
 62
     1
 10
287.783333
 20
567.633317
 30
0.0
 11
290.983333
 21
567.633317
 31
0.0
  0
LINE
  8
0
  6
CONTINUOUS
 62
     1
 10
282.279451477
 20
573.280415
 30
0.0
 11
283.094526874
 21
571.868663
 31
0.0
  0
LINE
  8
0
  6
CONTINUOUS
 62
     1
 10
282.279451477
 20
577.633317
 30
0.0
 11
282.279451477
 21
573.280415
 31
0.0
  0
LINE
  8
0
  6
CONTINUOUS
 62
     1
 10
282.279451477
 20
581.986219
 30
0.0
 11
283.094526874
 21
583.397971
 31
0.0
  0
LINE
  8
0
  6
CONTINUOUS
 62
     1
 10
282.279451477
 20
577.633317
 30
0.0
 11
282.279451477
 21
581.986219
 31
0.0
  0
ARC
  8
0
  6
CONTINUOUS
 62
     1
 10
287.783333
 20
577.633317
 30
0.0
 40
5.503881523
 50
148.419912243
 51
211.580087757
  0
ARC
  8
0
  6
CONTINUOUS
 62
     1
 10
283.960544483
 20
573.3098265
 30
0.0
 40
1.681350271
 50
121.002313915
 51
182.989498403
  0
LINE
  8
0
  6
CONTINUOUS
 62
     1
 10
282.279451477
 20
581.986219
 30
0.0
 11
283.094526874
 21
583.397971
 31
0.0
  0
ARC
  8
0
  6
CONTINUOUS
 62
     1
 10
283.960544483
 20
581.9568075
 30
0.0
 40
1.681350271
 50
177.010501597
 51
238.997686085
  0
LINE
  8
0
  6
CONTINUOUS
 62
     1
 10
286.279061477
 20
574.75099
 30
0.0
 11
283.094526874
 21
574.75099
 31
0.0
  0
LINE
  8
0
  6
CONTINUOUS
 62
     1
 10
286.279061477
 20
571.868663
 30
0.0
 11
283.094526874
 21
571.868663
 31
0.0
  0
LINE
  8
0
  6
CONTINUOUS
 62
     1
 10
286.279061477
 20
580.515644
 30
0.0
 11
283.094526874
 21
580.515644
 31
0.0
  0
LINE
  8
0
  6
CONTINUOUS
 62
     1
 10
286.279061477
 20
583.397971
 30
0.0
 11
283.094526874
 21
583.397971
 31
0.0
  0
LINE
  8
0
  6
CONTINUOUS
 62
     1
 10
287.779061477
 20
577.633317
 30
0.0
 11
286.279061719
 21
576.133317243
 31
0.0
  0
LINE
  8
0
  6
CONTINUOUS
 62
     1
 10
286.279061719
 20
577.633317
 30
0.0
 11
287.779061477
 21
579.133316757
 31
0.0
  0
LINE
  8
0
  6
CONTINUOUS
 62
     1
 10
287.779061477
 20
571.533317
 30
0.0
 11
286.279061477
 21
571.533317
 31
0.0
  0
LINE
  8
0
  6
CONTINUOUS
 62
     1
 10
286.279061477
 20
577.633317
 30
0.0
 11
286.279061477
 21
571.533317
 31
0.0
  0
LINE
  8
0
  6
CONTINUOUS
 62
     1
 10
286.279061477
 20
577.633317
 30
0.0
 11
286.279061477
 21
583.733317
 31
0.0
  0
LINE
  8
0
  6
CONTINUOUS
 62
     1
 10
287.779061477
 20
583.733317
 30
0.0
 11
286.279061477
 21
583.733317
 31
0.0
  0
LINE
  8
0
  6
CONTINUOUS
 62
     1
 10
287.783333
 20
567.633317
 30
0.0
 11
287.783333
 21
587.633317
 31
0.0
  0
LINE
  8
0
  6
CONTINUOUS
 62
     1
 10
448.983333
 20
418.633317
 30
0.0
 11
448.983333
 21
466.133317
 31
0.0
  0
LINE
  8
0
  6
CONTINUOUS
 62
     1
 10
576.983333
 20
418.633317
 30
0.0
 11
576.983333
 21
468.133317
 31
0.0
  0
LINE
  8
0
  6
CONTINUOUS
 62
     1
 10
576.983333
 20
418.633317
 30
0.0
 11
448.983333
 21
418.633317
 31
0.0
  0
ARC
  8
0
  6
CONTINUOUS
 62
     1
 10
1178.983333
 20
461.633317
 30
0.0
 40
6.0
 50
270.0
 51
0.0
  0
ARC
  8
0
  6
CONTINUOUS
 62
     1
 10
1070.983333
 20
461.633317
 30
0.0
 40
6.0
 50
180.0
 51
270.0
  0
LINE
  8
0
  6
CONTINUOUS
 62
     1
 10
1079.983333
 20
492.633317
 30
0.0
 11
1079.983333
 21
470.633317
 31
0.0
  0
LINE
  8
0
  6
CONTINUOUS
 62
     1
 10
1079.983333
 20
492.845833539
 30
0.0
 11
1064.983333
 21
495.633317
 31
0.0
  0
LINE
  8
0
  6
CONTINUOUS
 62
     1
 10
1169.983333
 20
492.633317
 30
0.0
 11
1169.983333
 21
470.633317
 31
0.0
  0
LINE
  8
0
  6
CONTINUOUS
 62
     1
 10
1169.983333
 20
492.845833539
 30
0.0
 11
1184.983333
 21
495.633317
 31
0.0
  0
ARC
  8
0
  6
CONTINUOUS
 62
     1
 10
1083.862012656
 20
556.754637344
 30
0.0
 40
7.0
 50
172.721057981
 51
180.0
  0
CIRCLE
  8
0
  6
CONTINUOUS
 62
     1
 10
1163.983333
 20
554.633317
 30
0.0
 40
5.0
  0
ARC
  8
0
  6
CONTINUOUS
 62
     1
 10
1166.104653344
 20
556.754637344
 30
0.0
 40
7.0
 50
0.0
 51
7.278942019
  0
ARC
  8
0
  6
CONTINUOUS
 62
     1
 10
1083.862012656
 20
474.511996656
 30
0.0
 40
7.0
 50
180.0
 51
187.278942019
  0
LINE
  8
0
  6
CONTINUOUS
 62
     1
 10
1076.918425126
 20
473.625096321
 30
0.0
 11
1074.305786676
 21
494.079574721
 31
0.0
  0
ARC
  8
0
  6
CONTINUOUS
 62
     1
 10
1166.104653344
 20
474.511996656
 30
0.0
 40
7.0
 50
352.721057981
 51
0.0
  0
LINE
  8
0
  6
CONTINUOUS
 62
     1
 10
1173.048240874
 20
473.625096321
 30
0.0
 11
1175.660879324
 21
494.079574721
 31
0.0
  0
LINE
  8
0
  6
CONTINUOUS
 62
     1
 10
1169.983333
 20
492.633317
 30
0.0
 11
1168.804156288
 21
497.303411207
 31
0.0
  0
LINE
  8
0
  6
CONTINUOUS
 62
     1
 10
1166.498729986
 20
538.714084169
 30
0.0
 11
1184.983333
 21
535.633317
 31
0.0
  0
LINE
  8
0
  6
CONTINUOUS
 62
     1
 10
1104.983333
 20
535.633317
 30
0.0
 11
1144.983333
 21
535.633317
 31
0.0
  0
LINE
  8
0
  6
CONTINUOUS
 62
     1
 10
1144.983333
 20
495.633317
 30
0.0
 11
1144.983333
 21
535.633317
 31
0.0
  0
LINE
  8
0
  6
CONTINUOUS
 62
     1
 10
1104.983333
 20
495.633317
 30
0.0
 11
1144.983333
 21
495.633317
 31
0.0
  0
LINE
  8
0
  6
CONTINUOUS
 62
     1
 10
1104.983333
 20
495.633317
 30
0.0
 11
1104.983333
 21
535.633317
 31
0.0
  0
LINE
  8
0
  6
CONTINUOUS
 62
     1
 10
1116.983333
 20
495.633317
 30
0.0
 11
1116.983333
 21
535.633317
 31
0.0
  0
LINE
  8
0
  6
CONTINUOUS
 62
     1
 10
1132.983333
 20
495.633317
 30
0.0
 11
1132.983333
 21
535.633317
 31
0.0
  0
LINE
  8
0
  6
CONTINUOUS
 62
     1
 10
1116.983333
 20
507.633317
 30
0.0
 11
1132.983333
 21
507.633317
 31
0.0
  0
LINE
  8
0
  6
CONTINUOUS
 62
     1
 10
1104.983333
 20
505.633317
 30
0.0
 11
1116.983333
 21
505.633317
 31
0.0
  0
LINE
  8
0
  6
CONTINUOUS
 62
     1
 10
1116.983333
 20
523.633317
 30
0.0
 11
1132.983333
 21
523.633317
 31
0.0
  0
LINE
  8
0
  6
CONTINUOUS
 62
     1
 10
1104.983333
 20
525.633317
 30
0.0
 11
1116.983333
 21
525.633317
 31
0.0
  0
LINE
  8
0
  6
CONTINUOUS
 62
     1
 10
1144.983333
 20
505.633317
 30
0.0
 11
1132.983333
 21
505.633317
 31
0.0
  0
LINE
  8
0
  6
CONTINUOUS
 62
     1
 10
1144.983333
 20
525.633317
 30
0.0
 11
1132.983333
 21
525.633317
 31
0.0
  0
ARC
  8
0
  6
CONTINUOUS
 62
     1
 10
1174.983333
 20
466.133317
 30
0.0
 40
3.0
 50
0.0
 51
90.0
  0
LINE
  8
0
  6
CONTINUOUS
 62
     1
 10
1174.983333
 20
470.633317
 30
0.0
 11
1174.983333
 21
469.133317
 31
0.0
  0
ARC
  8
0
  6
CONTINUOUS
 62
     1
 10
1074.983333
 20
466.133317
 30
0.0
 40
3.0
 50
90.0
 51
180.0
  0
LINE
  8
0
  6
CONTINUOUS
 62
     1
 10
1071.983333
 20
426.133317
 30
0.0
 11
1177.983333
 21
426.133317
 31
0.0
  0
LINE
  8
0
  6
CONTINUOUS
 62
     1
 10
1071.983333
 20
424.633317
 30
0.0
 11
1177.983333
 21
424.633317
 31
0.0
  0
LINE
  8
0
  6
CONTINUOUS
 62
     1
 10
1177.983333
 20
455.633317
 30
0.0
 11
1178.983333
 21
455.633317
 31
0.0
  0
LINE
  8
0
  6
CONTINUOUS
 62
     1
 10
1070.983333
 20
455.633317
 30
0.0
 11
1071.983333
 21
455.633317
 31
0.0
  0
LINE
  8
0
  6
CONTINUOUS
 62
     1
 10
1074.983333
 20
470.633317
 30
0.0
 11
1074.983333
 21
469.133317
 31
0.0
  0
LINE
  8
0
  6
CONTINUOUS
 62
     1
 10
1109.776426674
 20
470.633317
 30
0.0
 11
1074.983333
 21
470.633317
 31
0.0
  0
LINE
  8
0
  6
CONTINUOUS
 62
     1
 10
1140.190239326
 20
470.633317
 30
0.0
 11
1174.983333
 21
470.633317
 31
0.0
  0
ARC
  8
0
  6
CONTINUOUS
 62
     1
 10
1166.104653344
 20
474.511996656
 30
0.0
 40
7.0
 50
326.35145266
 51
352.721057981
  0
ARC
  8
0
  6
CONTINUOUS
 62
     1
 10
1083.862012656
 20
474.511996656
 30
0.0
 40
7.0
 50
187.278942019
 51
213.64854734
  0
LINE
  8
0
  6
CONTINUOUS
 62
     1
 10
1134.678692715
 20
469.133317
 30
0.0
 11
1174.983333
 21
469.133317
 31
0.0
  0
LINE
  8
0
  6
CONTINUOUS
 62
     1
 10
1074.983333
 20
469.133317
 30
0.0
 11
1115.287973285
 21
469.133317
 31
0.0
  0
LINE
  8
0
  6
CONTINUOUS
 62
     1
 10
1068.983333
 20
564.633317
 30
0.0
 11
1180.983333
 21
564.633317
 31
0.0
  0
CIRCLE
  8
0
  6
CONTINUOUS
 62
     1
 10
1124.983333
 20
625.633317
 30
0.0
 40
15.5
  0
LINE
  8
0
  6
CONTINUOUS
 62
     1
 10
1129.936163189
 20
642.417817979
 30
0.0
 11
1154.313521679
 21
635.224460417
 31
0.0
  0
LINE
  8
0
  6
CONTINUOUS
 62
     1
 10
1129.936163189
 20
608.848816021
 30
0.0
 11
1154.313521679
 21
616.042173583
 31
0.0
  0
LINE
  8
0
  6
CONTINUOUS
 62
     1
 10
1139.654733751
 20
620.633317
 30
0.0
 11
1142.823078962
 21
620.633317
 31
0.0
  0
LINE
  8
0
  6
CONTINUOUS
 62
     1
 10
1139.654733751
 20
630.633317
 30
0.0
 11
1142.823078962
 21
630.633317
 31
0.0
  0
ARC
  8
0
  6
LTYPE2
 62
     2
 10
1124.983333
 20
625.633317
 30
0.0
 40
26.5
 50
345.963756532
 51
14.715071651
  0
LINE
  8
0
  6
CONTINUOUS
 62
     1
 10
1120.030502811
 20
642.417817979
 30
0.0
 11
1095.653144321
 21
635.224460417
 31
0.0
  0
LINE
  8
0
  6
CONTINUOUS
 62
     1
 10
1120.030502811
 20
608.848816021
 30
0.0
 11
1095.653144321
 21
616.042173583
 31
0.0
  0
ARC
  8
0
  6
CONTINUOUS
 62
     1
 10
1098.483333
 20
625.633317
 30
0.0
 40
10.0
 50
30.0
 51
180.0
  0
ARC
  8
0
  6
CONTINUOUS
 62
     1
 10
1098.483333
 20
625.633317
 30
0.0
 40
10.0
 50
180.0
 51
330.0
  0
LINE
  8
0
  6
CONTINUOUS
 62
     1
 10
1110.311932249
 20
620.633317
 30
0.0
 11
1107.143587038
 21
620.633317
 31
0.0
  0
LINE
  8
0
  6
CONTINUOUS
 62
     1
 10
1110.311932249
 20
630.633317
 30
0.0
 11
1107.143587038
 21
630.633317
 31
0.0
  0
ARC
  8
0
  6
LTYPE2
 62
     2
 10
1124.983333
 20
625.633317
 30
0.0
 40
26.5
 50
165.284928349
 51
194.036243468
  0
ARC
  8
0
  6
CONTINUOUS
 62
     1
 10
1124.983333
 20
625.633317
 30
0.0
 40
17.5
 50
16.601549599
 51
163.398450401
  0
ARC
  8
0
  6
CONTINUOUS
 62
     1
 10
1124.983333
 20
625.633317
 30
0.0
 40
17.5
 50
196.601549599
 51
343.398450401
  0
ARC
  8
0
  6
LTYPE2
 62
     2
 10
1124.983333
 20
625.633317
 30
0.0
 40
51.0
 50
34.902495616
 51
52.696051722
  0
LINE
  8
0
  6
LTYPE2
 62
     2
 10
1156.983333
 20
657.633317
 30
0.0
 11
1165.983333
 21
666.633317
 31
0.0
  0
ARC
  8
0
  6
LTYPE2
 62
     2
 10
1124.983333
 20
625.633317
 30
0.0
 40
25.0
 50
63.434948823
 51
114.623564786
  0
ARC
  8
0
  6
LTYPE2
 62
     2
 10
1124.983333
 20
625.633317
 30
0.0
 40
25.0
 50
245.376435214
 51
296.565051177
  0
ARC
  8
0
  6
LTYPE2
 62
     2
 10
1124.983333
 20
625.633317
 30
0.0
 40
51.0
 50
124.902495616
 51
142.696051722
  0
LINE
  8
0
  6
LTYPE2
 62
     2
 10
1092.983333
 20
657.633317
 30
0.0
 11
1083.983333
 21
666.633317
 31
0.0
  0
ARC
  8
0
  6
LTYPE2
 62
     2
 10
1124.983333
 20
625.633317
 30
0.0
 40
51.0
 50
307.303948278
 51
325.097504384
  0
LINE
  8
0
  6
LTYPE2
 62
     2
 10
1156.983333
 20
593.633317
 30
0.0
 11
1165.983333
 21
584.633317
 31
0.0
  0
ARC
  8
0
  6
LTYPE2
 62
     2
 10
1124.983333
 20
625.633317
 30
0.0
 40
51.0
 50
217.303948278
 51
235.097504384
  0
LINE
  8
0
  6
LTYPE2
 62
     2
 10
1092.983333
 20
593.633317
 30
0.0
 11
1083.983333
 21
584.633317
 31
0.0
  0
LINE
  8
0
  6
LTYPE2
 62
     2
 10
1166.983333
 20
676.633317
 30
0.0
 11
1183.983333
 21
676.633317
 31
0.0
  0
LINE
  8
0
  6
LTYPE2
 62
     2
 10
1175.983333
 20
684.633317
 30
0.0
 11
1175.983333
 21
668.133317
 31
0.0
  0
LINE
  8
0
  6
LTYPE2
 62
     2
 10
1082.983333
 20
676.633317
 30
0.0
 11
1065.983333
 21
676.633317
 31
0.0
  0
LINE
  8
0
  6
LTYPE2
 62
     2
 10
1073.983333
 20
684.633317
 30
0.0
 11
1073.983333
 21
668.133317
 31
0.0
  0
LINE
  8
0
  6
LTYPE2
 62
     2
 10
1166.983333
 20
574.633317
 30
0.0
 11
1183.983333
 21
574.633317
 31
0.0
  0
LINE
  8
0
  6
LTYPE2
 62
     2
 10
1175.983333
 20
566.633317
 30
0.0
 11
1175.983333
 21
583.133317
 31
0.0
  0
LINE
  8
0
  6
LTYPE2
 62
     2
 10
1082.983333
 20
574.633317
 30
0.0
 11
1065.983333
 21
574.633317
 31
0.0
  0
LINE
  8
0
  6
LTYPE2
 62
     2
 10
1073.983333
 20
566.633317
 30
0.0
 11
1073.983333
 21
583.133317
 31
0.0
  0
LINE
  8
0
  6
CONTINUOUS
 62
     1
 10
1154.983333
 20
695.633317
 30
0.0
 11
1154.983333
 21
698.633317
 31
0.0
  0
ARC
  8
0
  6
CONTINUOUS
 62
     1
 10
1150.983333
 20
692.633317
 30
0.0
 40
3.0
 50
90.0
 51
180.0
  0
LINE
  8
0
  6
CONTINUOUS
 62
     1
 10
1147.983333
 20
681.786936242
 30
0.0
 11
1147.983333
 21
692.633317
 31
0.0
  0
ARC
  8
0
  6
CONTINUOUS
 62
     1
 10
1143.983333
 20
681.786936242
 30
0.0
 40
4.0
 50
304.936144888
 51
0.0
  0
ARC
  8
0
  6
CONTINUOUS
 62
     1
 10
1098.983333
 20
692.633317
 30
0.0
 40
3.0
 50
0.0
 51
90.0
  0
LINE
  8
0
  6
CONTINUOUS
 62
     1
 10
1101.983333
 20
681.786936242
 30
0.0
 11
1101.983333
 21
692.633317
 31
0.0
  0
ARC
  8
0
  6
CONTINUOUS
 62
     1
 10
1105.983333
 20
681.786936242
 30
0.0
 40
4.0
 50
180.0
 51
235.063855112
  0
CIRCLE
  8
0
  6
CONTINUOUS
 62
     1
 10
1124.983333
 20
720.633317
 30
0.0
 40
17.0
  0
LINE
  8
0
  6
LTYPE2
 62
     2
 10
1101.983333
 20
720.633317
 30
0.0
 11
1147.983333
 21
720.633317
 31
0.0
  0
ARC
  8
0
  6
CONTINUOUS
 62
     1
 10
1082.983333
 20
742.653362888
 30
0.0
 40
2.0
 50
90.0
 51
180.0
  0
ARC
  8
0
  6
CONTINUOUS
 62
     1
 10
1090.983333
 20
748.633317
 30
0.0
 40
2.0
 50
90.0
 51
180.0
  0
LINE
  8
0
  6
CONTINUOUS
 62
     1
 10
1090.983333
 20
750.633317
 30
0.0
 11
1158.983333
 21
750.633317
 31
0.0
  0
ARC
  8
0
  6
CONTINUOUS
 62
     1
 10
1158.983333
 20
748.633317
 30
0.0
 40
2.0
 50
0.0
 51
90.0
  0
LINE
  8
0
  6
CONTINUOUS
 62
     1
 10
1166.983333
 20
744.653362888
 30
0.0
 11
1082.983333
 21
744.653362888
 31
0.0
  0
ARC
  8
0
  6
CONTINUOUS
 62
     1
 10
1166.983333
 20
742.653362888
 30
0.0
 40
2.0
 50
0.0
 51
90.0
  0
ARC
  8
0
  6
CONTINUOUS
 62
     1
 10
1082.983333
 20
746.653362888
 30
0.0
 40
2.0
 50
90.0
 51
180.0
  0
ARC
  8
0
  6
CONTINUOUS
 62
     1
 10
1090.983333
 20
739.633317
 30
0.0
 40
2.0
 50
90.0
 51
180.0
  0
LINE
  8
0
  6
CONTINUOUS
 62
     1
 10
1090.983333
 20
741.633317
 30
0.0
 11
1158.983333
 21
741.633317
 31
0.0
  0
ARC
  8
0
  6
CONTINUOUS
 62
     1
 10
1158.983333
 20
739.633317
 30
0.0
 40
2.0
 50
0.0
 51
90.0
  0
LINE
  8
0
  6
CONTINUOUS
 62
     1
 10
1166.983333
 20
748.653362888
 30
0.0
 11
1082.983333
 21
748.653362888
 31
0.0
  0
ARC
  8
0
  6
CONTINUOUS
 62
     1
 10
1166.983333
 20
746.653362888
 30
0.0
 40
2.0
 50
0.0
 51
90.0
  0
LINE
  8
0
  6
CONTINUOUS
 62
     1
 10
1094.983333
 20
695.633317
 30
0.0
 11
1154.983333
 21
695.633317
 31
0.0
  0
LINE
  8
0
  6
CONTINUOUS
 62
     1
 10
1094.983333
 20
695.633317
 30
0.0
 11
1094.983333
 21
698.633317
 31
0.0
  0
LINE
  8
0
  6
CONTINUOUS
 62
     1
 10
1160.983333
 20
700.633317
 30
0.0
 11
1166.983333
 21
700.633317
 31
0.0
  0
LINE
  8
0
  6
CONTINUOUS
 62
     1
 10
1168.983333
 20
702.633317
 30
0.0
 11
1168.983333
 21
746.653362888
 31
0.0
  0
ARC
  8
0
  6
CONTINUOUS
 62
     1
 10
1166.983333
 20
702.633317
 30
0.0
 40
2.0
 50
270.0
 51
0.0
  0
LINE
  8
0
  6
CONTINUOUS
 62
     1
 10
1160.983333
 20
700.633317
 30
0.0
 11
1160.983333
 21
739.633317
 31
0.0
  0
ARC
  8
0
  6
CONTINUOUS
 62
     1
 10
1158.983333
 20
700.633317
 30
0.0
 40
2.0
 50
270.0
 51
0.0
  0
LINE
  8
0
  6
CONTINUOUS
 62
     1
 10
1088.983333
 20
700.633317
 30
0.0
 11
1088.983333
 21
739.633317
 31
0.0
  0
LINE
  8
0
  6
CONTINUOUS
 62
     1
 10
1090.983333
 20
698.633317
 30
0.0
 11
1158.983333
 21
698.633317
 31
0.0
  0
ARC
  8
0
  6
CONTINUOUS
 62
     1
 10
1090.983333
 20
700.633317
 30
0.0
 40
2.0
 50
180.0
 51
270.0
  0
LINE
  8
0
  6
CONTINUOUS
 62
     1
 10
1088.983333
 20
700.633317
 30
0.0
 11
1082.983333
 21
700.633317
 31
0.0
  0
LINE
  8
0
  6
CONTINUOUS
 62
     1
 10
1080.983333
 20
702.633317
 30
0.0
 11
1080.983333
 21
746.653362888
 31
0.0
  0
ARC
  8
0
  6
CONTINUOUS
 62
     1
 10
1082.983333
 20
702.633317
 30
0.0
 40
2.0
 50
180.0
 51
270.0
  0
CIRCLE
  8
0
  6
CONTINUOUS
 62
     2
 10
1124.983333
 20
720.633317
 30
0.0
 40
15.0
  0
LINE
  8
0
  6
CONTINUOUS
 62
     1
 10
1184.983333
 20
461.633317
 30
0.0
 11
1184.983333
 21
566.633317
 31
0.0
  0
LINE
  8
0
  6
LTYPE2
 62
     2
 10
1155.898435543
 20
554.633317
 30
0.0
 11
1172.398435543
 21
554.633317
 31
0.0
  0
LINE
  8
0
  6
LTYPE2
 62
     2
 10
1163.983333
 20
562.306194017
 30
0.0
 11
1163.983333
 21
546.006194017
 31
0.0
  0
LINE
  8
0
  6
LTYPE2
 62
     2
 10
1094.068230457
 20
554.633317
 30
0.0
 11
1077.568230457
 21
554.633317
 31
0.0
  0
LINE
  8
0
  6
LTYPE2
 62
     2
 10
1085.983333
 20
562.306194017
 30
0.0
 11
1085.983333
 21
546.006194017
 31
0.0
  0
LINE
  8
0
  6
LTYPE1
 62
     2
 10
1162.983333
 20
507.633317
 30
0.0
 11
1162.983333
 21
523.633317
 31
0.0
  0
LINE
  8
0
  6
LTYPE1
 62
     2
 10
1162.983333
 20
507.633317
 30
0.0
 11
1184.983333
 21
507.633317
 31
0.0
  0
LINE
  8
0
  6
LTYPE1
 62
     2
 10
1162.983333
 20
523.633317
 30
0.0
 11
1184.983333
 21
523.633317
 31
0.0
  0
LINE
  8
0
  6
LTYPE1
 62
     2
 10
1086.983333
 20
507.633317
 30
0.0
 11
1086.983333
 21
523.633317
 31
0.0
  0
LINE
  8
0
  6
LTYPE1
 62
     2
 10
1086.983333
 20
507.633317
 30
0.0
 11
1064.983333
 21
507.633317
 31
0.0
  0
LINE
  8
0
  6
LTYPE1
 62
     2
 10
1086.983333
 20
523.633317
 30
0.0
 11
1064.983333
 21
523.633317
 31
0.0
  0
LINE
  8
0
  6
LTYPE3
 62
     2
 10
1052.983333
 20
625.633317
 30
0.0
 11
1192.501190143
 21
625.633317
 31
0.0
  0
LINE
  8
0
  6
LTYPE2
 62
     2
 10
1124.983333
 20
414.586888429
 30
0.0
 11
1124.983333
 21
758.586888429
 31
0.0
  0
LINE
  8
7
  6
CONTINUOUS
 62
     2
 10
1190.983333
 20
523.633317
 30
0.0
 11
1244.983333
 21
523.633317
 31
0.0
  0
LINE
  8
7
  6
CONTINUOUS
 62
     2
 10
1238.983333
 20
523.633317
 30
0.0
 11
1241.571523451
 21
533.292575263
 31
0.0
  0
LINE
  8
7
  6
CONTINUOUS
 62
     2
 10
1238.983333
 20
523.633317
 30
0.0
 11
1236.395142549
 21
533.292575263
 31
0.0
  0
LINE
  8
7
  6
CONTINUOUS
 62
     2
 10
1238.983333
 20
507.633317
 30
0.0
 11
1236.395142549
 21
497.974058737
 31
0.0
  0
LINE
  8
7
  6
CONTINUOUS
 62
     2
 10
1238.983333
 20
507.633317
 30
0.0
 11
1241.571523451
 21
497.974058737
 31
0.0
  0
LINE
  8
7
  6
CONTINUOUS
 62
     2
 10
1190.983333
 20
507.633317
 30
0.0
 11
1244.983333
 21
507.633317
 31
0.0
  0
LINE
  8
7
  6
CONTINUOUS
 62
     2
 10
1201.983333
 20
515.633317
 30
0.0
 11
1276.983333
 21
515.633317
 31
0.0
  0
LINE
  8
7
  6
CONTINUOUS
 62
     2
 10
1270.983333
 20
515.633317
 30
0.0
 11
1273.571523451
 21
525.292575263
 31
0.0
  0
LINE
  8
7
  6
CONTINUOUS
 62
     2
 10
1270.983333
 20
515.633317
 30
0.0
 11
1268.395142549
 21
525.292575263
 31
0.0
  0
LINE
  8
7
  6
CONTINUOUS
 62
     2
 10
1270.983333
 20
515.633317
 30
0.0
 11
1270.983333
 21
625.633317
 31
0.0
  0
LINE
  8
7
  6
CONTINUOUS
 62
     2
 10
1270.983333
 20
625.633317
 30
0.0
 11
1268.395142549
 21
615.974058737
 31
0.0
  0
LINE
  8
7
  6
CONTINUOUS
 62
     2
 10
1270.983333
 20
625.633317
 30
0.0
 11
1273.571523451
 21
615.974058737
 31
0.0
  0
LINE
  8
7
  6
CONTINUOUS
 62
     2
 10
1164.983333
 20
750.633317
 30
0.0
 11
1308.983333
 21
750.633317
 31
0.0
  0
LINE
  8
7
  6
CONTINUOUS
 62
     2
 10
1302.983333
 20
750.633317
 30
0.0
 11
1300.395142549
 21
740.974058737
 31
0.0
  0
LINE
  8
7
  6
CONTINUOUS
 62
     2
 10
1302.983333
 20
750.633317
 30
0.0
 11
1305.571523451
 21
740.974058737
 31
0.0
  0
LINE
  8
7
  6
CONTINUOUS
 62
     2
 10
1302.983333
 20
750.633317
 30
0.0
 11
1302.983333
 21
413.133707
 31
0.0
  0
LINE
  8
7
  6
CONTINUOUS
 62
     2
 10
1302.983333
 20
413.133707
 30
0.0
 11
1305.571523451
 21
422.792965263
 31
0.0
  0
LINE
  8
7
  6
CONTINUOUS
 62
     2
 10
1302.983333
 20
413.133707
 30
0.0
 11
1300.395142549
 21
422.792965263
 31
0.0
  0
LINE
  8
7
  6
CONTINUOUS
 62
     2
 10
1182.336235
 20
413.133707
 30
0.0
 11
1308.983333
 21
413.133707
 31
0.0
  0
LINE
  8
7
  6
CONTINUOUS
 62
     2
 10
1270.983333
 20
515.633317
 30
0.0
 11
1268.395142549
 21
505.974058737
 31
0.0
  0
LINE
  8
7
  6
CONTINUOUS
 62
     2
 10
1270.983333
 20
515.633317
 30
0.0
 11
1273.571523451
 21
505.974058737
 31
0.0
  0
LINE
  8
7
  6
CONTINUOUS
 62
     2
 10
1270.983333
 20
515.633317
 30
0.0
 11
1270.983333
 21
413.133707
 31
0.0
  0
LINE
  8
7
  6
CONTINUOUS
 62
     2
 10
1270.983333
 20
413.133707
 30
0.0
 11
1273.571523451
 21
422.792965263
 31
0.0
  0
LINE
  8
7
  6
CONTINUOUS
 62
     2
 10
1270.983333
 20
413.133707
 30
0.0
 11
1268.395142549
 21
422.792965263
 31
0.0
  0
LINE
  8
7
  6
CONTINUOUS
 62
     2
 10
1273.983333
 20
413.133707
 30
0.0
 11
1276.983333
 21
413.133707
 31
0.0
  0
LINE
  8
7
  6
CONTINUOUS
 62
     2
 10
1270.983333
 20
625.633317
 30
0.0
 11
1273.571523451
 21
635.292575263
 31
0.0
  0
LINE
  8
7
  6
CONTINUOUS
 62
     2
 10
1270.983333
 20
625.633317
 30
0.0
 11
1268.395142549
 21
635.292575263
 31
0.0
  0
LINE
  8
7
  6
CONTINUOUS
 62
     2
 10
1270.983333
 20
625.633317
 30
0.0
 11
1270.983333
 21
750.633317
 31
0.0
  0
LINE
  8
7
  6
CONTINUOUS
 62
     2
 10
1270.983333
 20
750.633317
 30
0.0
 11
1268.395142549
 21
740.974058737
 31
0.0
  0
LINE
  8
7
  6
CONTINUOUS
 62
     2
 10
1270.983333
 20
750.633317
 30
0.0
 11
1273.571523451
 21
740.974058737
 31
0.0
  0
LINE
  8
7
  6
CONTINUOUS
 62
     2
 10
1265.983333
 20
750.633317
 30
0.0
 11
1264.983333
 21
750.633317
 31
0.0
  0
LINE
  8
7
  6
CONTINUOUS
 62
     2
 10
1238.983333
 20
638.633317
 30
0.0
 11
1238.983333
 21
492.633317
 31
0.0
  0
LINE
  8
7
  6
CONTINUOUS
 62
     2
 10
1241.983333
 20
625.633317
 30
0.0
 11
1276.983333
 21
625.633317
 31
0.0
  0
LINE
  8
7
  6
CONTINUOUS
 62
     2
 10
1063.983333
 20
687.633332259
 30
0.0
 11
1063.983333
 21
781.633317
 31
0.0
  0
LINE
  8
7
  6
CONTINUOUS
 62
     2
 10
1063.983333
 20
775.633317
 30
0.0
 11
1073.642591263
 21
773.045126549
 31
0.0
  0
LINE
  8
7
  6
CONTINUOUS
 62
     2
 10
1063.983333
 20
775.633317
 30
0.0
 11
1073.642591263
 21
778.221507451
 31
0.0
  0
LINE
  8
7
  6
CONTINUOUS
 62
     2
 10
1063.983333
 20
775.633317
 30
0.0
 11
1185.983333
 21
775.633317
 31
0.0
  0
LINE
  8
7
  6
CONTINUOUS
 62
     2
 10
1185.983333
 20
775.633317
 30
0.0
 11
1176.324074737
 21
778.221507451
 31
0.0
  0
LINE
  8
7
  6
CONTINUOUS
 62
     2
 10
1185.983333
 20
775.633317
 30
0.0
 11
1176.324074737
 21
773.045126549
 31
0.0
  0
LINE
  8
7
  6
CONTINUOUS
 62
     2
 10
1185.983333
 20
687.633332259
 30
0.0
 11
1185.983333
 21
781.633317
 31
0.0
  0
LINE
  8
0
  6
LTYPE3
 62
     2
 10
1038.65801509
 20
515.633317
 30
0.0
 11
1195.983333
 21
515.633317
 31
0.0
  0
LINE
  8
0
  6
CONTINUOUS
 62
     1
 10
1064.983333
 20
461.633317
 30
0.0
 11
1064.983333
 21
566.633317
 31
0.0
  0
CIRCLE
  8
0
  6
CONTINUOUS
 62
     1
 10
1124.983333
 20
515.633317
 30
0.0
 40
47.5
  0
CIRCLE
  8
0
  6
CONTINUOUS
 62
     1
 10
1124.983333
 20
515.633317
 30
0.0
 40
31.75
  0
LINE
  8
0
  6
CONTINUOUS
 62
     1
 10
1083.467936014
 20
538.714084169
 30
0.0
 11
1064.983333
 21
535.633317
 31
0.0
  0
LINE
  8
0
  6
CONTINUOUS
 62
     1
 10
1079.983333
 20
492.633317
 30
0.0
 11
1081.162509712
 21
497.303411207
 31
0.0
  0
LINE
  8
0
  6
CONTINUOUS
 62
     1
 10
1091.226768359
 20
665.695760841
 30
0.0
 11
1093.532649559
 21
661.695762841
 31
0.0
  0
LINE
  8
0
  6
CONTINUOUS
 62
     1
 10
1091.226768359
 20
657.695764841
 30
0.0
 11
1093.532649559
 21
661.695762841
 31
0.0
  0
LINE
  8
0
  6
CONTINUOUS
 62
     1
 10
1086.615005959
 20
657.695764841
 30
0.0
 11
1084.309124759
 21
661.695762841
 31
0.0
  0
LINE
  8
0
  6
CONTINUOUS
 62
     1
 10
1086.615005959
 20
657.695764841
 30
0.0
 11
1091.226768359
 21
657.695764841
 31
0.0
  0
CIRCLE
  8
0
  6
CONTINUOUS
 62
     1
 10
1124.983333
 20
650.633317
 30
0.0
 40
3.999998
  0
LINE
  8
0
  6
CONTINUOUS
 62
     1
 10
1128.983331
 20
652.9391982
 30
0.0
 11
1128.983331
 21
648.3274358
 31
0.0
  0
LINE
  8
0
  6
CONTINUOUS
 62
     1
 10
1128.983331
 20
648.3274358
 30
0.0
 11
1124.983333
 21
646.0215546
 31
0.0
  0
LINE
  8
0
  6
CONTINUOUS
 62
     1
 10
1120.983335
 20
652.9391982
 30
0.0
 11
1120.983335
 21
648.3274358
 31
0.0
  0
LINE
  8
0
  6
CONTINUOUS
 62
     1
 10
1120.983335
 20
648.3274358
 30
0.0
 11
1124.983333
 21
646.0215546
 31
0.0
  0
LINE
  8
0
  6
CONTINUOUS
 62
     1
 10
1128.983331
 20
652.9391982
 30
0.0
 11
1124.983333
 21
655.2450794
 31
0.0
  0
LINE
  8
0
  6
CONTINUOUS
 62
     1
 10
1120.983335
 20
652.9391982
 30
0.0
 11
1124.983333
 21
655.2450794
 31
0.0
  0
LINE
  8
0
  6
CONTINUOUS
 62
     1
 10
1101.990735885
 20
623.608317
 30
0.0
 11
1098.483333
 21
621.583317
 31
0.0
  0
LINE
  8
0
  6
CONTINUOUS
 62
     1
 10
1098.483333
 20
621.583317
 30
0.0
 11
1094.975930115
 21
623.608317
 31
0.0
  0
LINE
  8
0
  6
CONTINUOUS
 62
     1
 10
1101.990735885
 20
627.658317
 30
0.0
 11
1101.990735885
 21
623.608317
 31
0.0
  0
LINE
  8
0
  6
CONTINUOUS
 62
     1
 10
1094.975930115
 20
623.608317
 30
0.0
 11
1094.975930115
 21
627.658317
 31
0.0
  0
CIRCLE
  8
0
  6
CONTINUOUS
 62
     1
 10
1098.483333
 20
625.633317
 30
0.0
 40
3.5
  0
LINE
  8
0
  6
CONTINUOUS
 62
     1
 10
1094.975930115
 20
627.658317
 30
0.0
 11
1098.483333
 21
629.683317
 31
0.0
  0
LINE
  8
0
  6
CONTINUOUS
 62
     1
 10
1098.483333
 20
629.683317
 30
0.0
 11
1101.990735885
 21
627.658317
 31
0.0
  0
LINE
  8
0
  6
CONTINUOUS
 62
     1
 10
1086.615005959
 20
585.570873159
 30
0.0
 11
1091.226768359
 21
585.570873159
 31
0.0
  0
LINE
  8
0
  6
CONTINUOUS
 62
     1
 10
1091.226768359
 20
585.570873159
 30
0.0
 11
1093.532649559
 21
589.570871159
 31
0.0
  0
LINE
  8
0
  6
CONTINUOUS
 62
     1
 10
1091.226768359
 20
593.570869159
 30
0.0
 11
1093.532649559
 21
589.570871159
 31
0.0
  0
LINE
  8
0
  6
CONTINUOUS
 62
     1
 10
1086.615005959
 20
593.570869159
 30
0.0
 11
1091.226768359
 21
593.570869159
 31
0.0
  0
LINE
  8
0
  6
CONTINUOUS
 62
     1
 10
1086.615005959
 20
585.570873159
 30
0.0
 11
1084.309124759
 21
589.570871159
 31
0.0
  0
LINE
  8
0
  6
CONTINUOUS
 62
     1
 10
1086.615005959
 20
593.570869159
 30
0.0
 11
1084.309124759
 21
589.570871159
 31
0.0
  0
CIRCLE
  8
0
  6
CONTINUOUS
 62
     1
 10
1088.920887159
 20
589.570871159
 30
0.0
 40
3.999998
  0
ARC
  8
0
  6
CONTINUOUS
 62
     1
 10
1068.983333
 20
569.633317
 30
0.0
 40
5.0
 50
180.0
 51
270.0
  0
LINE
  8
0
  6
CONTINUOUS
 62
     1
 10
1080.483283
 20
570.886287
 30
0.0
 11
1080.483283
 21
578.380347
 31
0.0
  0
LINE
  8
0
  6
CONTINUOUS
 62
     1
 10
1080.483283
 20
578.380347
 30
0.0
 11
1073.983333
 21
582.127377
 31
0.0
  0
LINE
  8
0
  6
CONTINUOUS
 62
     1
 10
1067.483383
 20
570.886287
 30
0.0
 11
1073.983333
 21
567.139257
 31
0.0
  0
LINE
  8
0
  6
CONTINUOUS
 62
     1
 10
1080.483283
 20
570.886287
 30
0.0
 11
1073.983333
 21
567.139257
 31
0.0
  0
LINE
  8
0
  6
CONTINUOUS
 62
     1
 10
1067.483383
 20
578.380347
 30
0.0
 11
1073.983333
 21
582.127377
 31
0.0
  0
LINE
  8
0
  6
CONTINUOUS
 62
     1
 10
1067.483383
 20
570.886287
 30
0.0
 11
1067.483383
 21
578.380347
 31
0.0
  0
CIRCLE
  8
0
  6
CONTINUOUS
 62
     1
 10
1073.983333
 20
574.633317
 30
0.0
 40
6.49995
  0
ARC
  8
0
  6
CONTINUOUS
 62
     1
 10
1180.983333
 20
569.633317
 30
0.0
 40
5.0
 50
270.0
 51
0.0
  0
LINE
  8
0
  6
CONTINUOUS
 62
     1
 10
1157.045780841
 20
587.264989959
 30
0.0
 11
1157.045780841
 21
591.876752359
 31
0.0
  0
LINE
  8
0
  6
CONTINUOUS
 62
     1
 10
1165.045776841
 20
591.876752359
 30
0.0
 11
1161.045778841
 21
594.182633559
 31
0.0
  0
LINE
  8
0
  6
CONTINUOUS
 62
     1
 10
1157.045780841
 20
591.876752359
 30
0.0
 11
1161.045778841
 21
594.182633559
 31
0.0
  0
LINE
  8
0
  6
CONTINUOUS
 62
     1
 10
1165.045776841
 20
587.264989959
 30
0.0
 11
1161.045778841
 21
584.959108759
 31
0.0
  0
LINE
  8
0
  6
CONTINUOUS
 62
     1
 10
1157.045780841
 20
587.264989959
 30
0.0
 11
1161.045778841
 21
584.959108759
 31
0.0
  0
LINE
  8
0
  6
CONTINUOUS
 62
     1
 10
1165.045776841
 20
587.264989959
 30
0.0
 11
1165.045776841
 21
591.876752359
 31
0.0
  0
CIRCLE
  8
0
  6
CONTINUOUS
 62
     1
 10
1161.045778841
 20
589.570871159
 30
0.0
 40
3.999998
  0
LINE
  8
0
  6
CONTINUOUS
 62
     1
 10
1169.483383
 20
570.886287
 30
0.0
 11
1169.483383
 21
578.380347
 31
0.0
  0
LINE
  8
0
  6
CONTINUOUS
 62
     1
 10
1169.483383
 20
570.886287
 30
0.0
 11
1175.983333
 21
567.139257
 31
0.0
  0
LINE
  8
0
  6
CONTINUOUS
 62
     1
 10
1182.483283
 20
570.886287
 30
0.0
 11
1182.483283
 21
578.380347
 31
0.0
  0
LINE
  8
0
  6
CONTINUOUS
 62
     1
 10
1182.483283
 20
570.886287
 30
0.0
 11
1175.983333
 21
567.139257
 31
0.0
  0
LINE
  8
0
  6
CONTINUOUS
 62
     1
 10
1182.483283
 20
578.380347
 30
0.0
 11
1175.983333
 21
582.127377
 31
0.0
  0
LINE
  8
0
  6
CONTINUOUS
 62
     1
 10
1169.483383
 20
578.380347
 30
0.0
 11
1175.983333
 21
582.127377
 31
0.0
  0
CIRCLE
  8
0
  6
CONTINUOUS
 62
     1
 10
1175.983333
 20
574.633317
 30
0.0
 40
6.49995
  0
LINE
  8
0
  6
CONTINUOUS
 62
     1
 10
1165.045776841
 20
664.001644041
 30
0.0
 11
1161.045778841
 21
666.307525241
 31
0.0
  0
LINE
  8
0
  6
CONTINUOUS
 62
     1
 10
1157.045780841
 20
664.001644041
 30
0.0
 11
1161.045778841
 21
666.307525241
 31
0.0
  0
LINE
  8
0
  6
CONTINUOUS
 62
     1
 10
1165.045776841
 20
664.001644041
 30
0.0
 11
1165.045776841
 21
659.389881641
 31
0.0
  0
LINE
  8
0
  6
CONTINUOUS
 62
     1
 10
1165.045776841
 20
659.389881641
 30
0.0
 11
1161.045778841
 21
657.084000441
 31
0.0
  0
LINE
  8
0
  6
CONTINUOUS
 62
     1
 10
1157.045780841
 20
659.389881641
 30
0.0
 11
1161.045778841
 21
657.084000441
 31
0.0
  0
LINE
  8
0
  6
CONTINUOUS
 62
     1
 10
1157.045780841
 20
664.001644041
 30
0.0
 11
1157.045780841
 21
659.389881641
 31
0.0
  0
CIRCLE
  8
0
  6
CONTINUOUS
 62
     1
 10
1161.045778841
 20
661.695762841
 30
0.0
 40
3.999998
  0
CIRCLE
  8
0
  6
CONTINUOUS
 62
     1
 10
1124.983333
 20
625.633317
 30
0.0
 40
42.0
  0
ARC
  8
0
  6
CONTINUOUS
 62
     1
 10
1151.483333
 20
625.633317
 30
0.0
 40
10.0
 50
0.0
 51
150.0
  0
ARC
  8
0
  6
CONTINUOUS
 62
     1
 10
1151.483333
 20
625.633317
 30
0.0
 40
10.0
 50
210.0
 51
0.0
  0
CIRCLE
  8
0
  6
CONTINUOUS
 62
     1
 10
1151.483333
 20
625.633317
 30
0.0
 40
3.5
  0
LINE
  8
0
  6
CONTINUOUS
 62
     1
 10
1154.990735885
 20
627.658317
 30
0.0
 11
1151.483333
 21
629.683317
 31
0.0
  0
LINE
  8
0
  6
CONTINUOUS
 62
     1
 10
1151.483333
 20
629.683317
 30
0.0
 11
1147.975930115
 21
627.658317
 31
0.0
  0
LINE
  8
0
  6
CONTINUOUS
 62
     1
 10
1147.975930115
 20
627.658317
 30
0.0
 11
1147.975930115
 21
623.608317
 31
0.0
  0
LINE
  8
0
  6
CONTINUOUS
 62
     1
 10
1147.975930115
 20
623.608317
 30
0.0
 11
1151.483333
 21
621.583317
 31
0.0
  0
LINE
  8
0
  6
CONTINUOUS
 62
     1
 10
1151.483333
 20
621.583317
 30
0.0
 11
1154.990735885
 21
623.608317
 31
0.0
  0
LINE
  8
0
  6
CONTINUOUS
 62
     1
 10
1154.990735885
 20
623.608317
 30
0.0
 11
1154.990735885
 21
627.658317
 31
0.0
  0
CIRCLE
  8
0
  6
CONTINUOUS
 62
     1
 10
1124.983333
 20
625.633317
 30
0.0
 40
36.5
  0
CIRCLE
  8
0
  6
CONTINUOUS
 62
     1
 10
1124.983333
 20
600.633317
 30
0.0
 40
3.999998
  0
LINE
  8
0
  6
CONTINUOUS
 62
     1
 10
1128.983331
 20
598.3274358
 30
0.0
 11
1128.983331
 21
602.9391982
 31
0.0
  0
LINE
  8
0
  6
CONTINUOUS
 62
     1
 10
1128.983331
 20
602.9391982
 30
0.0
 11
1124.983333
 21
605.2450794
 31
0.0
  0
LINE
  8
0
  6
CONTINUOUS
 62
     1
 10
1120.983335
 20
598.3274358
 30
0.0
 11
1120.983335
 21
602.9391982
 31
0.0
  0
LINE
  8
0
  6
CONTINUOUS
 62
     1
 10
1120.983335
 20
602.9391982
 30
0.0
 11
1124.983333
 21
605.2450794
 31
0.0
  0
LINE
  8
0
  6
CONTINUOUS
 62
     1
 10
1128.983331
 20
598.3274358
 30
0.0
 11
1124.983333
 21
596.0215546
 31
0.0
  0
LINE
  8
0
  6
CONTINUOUS
 62
     1
 10
1120.983335
 20
598.3274358
 30
0.0
 11
1124.983333
 21
596.0215546
 31
0.0
  0
ARC
  8
0
  6
CONTINUOUS
 62
     1
 10
1180.983333
 20
681.633317
 30
0.0
 40
5.0
 50
0.0
 51
90.0
  0
LINE
  8
0
  6
CONTINUOUS
 62
     1
 10
1147.983333
 20
686.633317
 30
0.0
 11
1180.983333
 21
686.633317
 31
0.0
  0
LINE
  8
0
  6
CONTINUOUS
 62
     1
 10
1169.483383
 20
680.380347
 30
0.0
 11
1169.483383
 21
672.886287
 31
0.0
  0
LINE
  8
0
  6
CONTINUOUS
 62
     1
 10
1169.483383
 20
672.886287
 30
0.0
 11
1175.983333
 21
669.139257
 31
0.0
  0
LINE
  8
0
  6
CONTINUOUS
 62
     1
 10
1182.483283
 20
680.380347
 30
0.0
 11
1182.483283
 21
672.886287
 31
0.0
  0
LINE
  8
0
  6
CONTINUOUS
 62
     1
 10
1182.483283
 20
680.380347
 30
0.0
 11
1175.983333
 21
684.127377
 31
0.0
  0
LINE
  8
0
  6
CONTINUOUS
 62
     1
 10
1169.483383
 20
680.380347
 30
0.0
 11
1175.983333
 21
684.127377
 31
0.0
  0
LINE
  8
0
  6
CONTINUOUS
 62
     1
 10
1182.483283
 20
672.886287
 30
0.0
 11
1175.983333
 21
669.139257
 31
0.0
  0
CIRCLE
  8
0
  6
CONTINUOUS
 62
     1
 10
1175.983333
 20
676.633317
 30
0.0
 40
6.49995
  0
LINE
  8
0
  6
CONTINUOUS
 62
     1
 10
1185.983333
 20
569.633317
 30
0.0
 11
1185.983333
 21
681.633317
 31
0.0
  0
ARC
  8
0
  6
CONTINUOUS
 62
     1
 10
1068.983333
 20
681.633317
 30
0.0
 40
5.0
 50
90.0
 51
180.0
  0
LINE
  8
0
  6
CONTINUOUS
 62
     1
 10
1063.983333
 20
569.633317
 30
0.0
 11
1063.983333
 21
681.633317
 31
0.0
  0
LINE
  8
0
  6
CONTINUOUS
 62
     1
 10
1068.983333
 20
686.633317
 30
0.0
 11
1101.983333
 21
686.633317
 31
0.0
  0
LINE
  8
0
  6
CONTINUOUS
 62
     1
 10
1067.483383
 20
680.380347
 30
0.0
 11
1067.483383
 21
672.886287
 31
0.0
  0
LINE
  8
0
  6
CONTINUOUS
 62
     1
 10
1080.483283
 20
680.380347
 30
0.0
 11
1080.483283
 21
672.886287
 31
0.0
  0
LINE
  8
0
  6
CONTINUOUS
 62
     1
 10
1067.483383
 20
680.380347
 30
0.0
 11
1073.983333
 21
684.127377
 31
0.0
  0
LINE
  8
0
  6
CONTINUOUS
 62
     1
 10
1080.483283
 20
680.380347
 30
0.0
 11
1073.983333
 21
684.127377
 31
0.0
  0
LINE
  8
0
  6
CONTINUOUS
 62
     1
 10
1067.483383
 20
672.886287
 30
0.0
 11
1073.983333
 21
669.139257
 31
0.0
  0
CIRCLE
  8
0
  6
CONTINUOUS
 62
     1
 10
1073.983333
 20
676.633317
 30
0.0
 40
6.49995
  0
LINE
  8
0
  6
CONTINUOUS
 62
     1
 10
1080.483283
 20
672.886287
 30
0.0
 11
1073.983333
 21
669.139257
 31
0.0
  0
LINE
  8
0
  6
CONTINUOUS
 62
     1
 10
1086.615005959
 20
665.695760841
 30
0.0
 11
1091.226768359
 21
665.695760841
 31
0.0
  0
LINE
  8
0
  6
CONTINUOUS
 62
     1
 10
1086.615005959
 20
665.695760841
 30
0.0
 11
1084.309124759
 21
661.695762841
 31
0.0
  0
CIRCLE
  8
0
  6
CONTINUOUS
 62
     1
 10
1088.920887159
 20
661.695762841
 30
0.0
 40
3.999998
  0
CIRCLE
  8
0
  6
CONTINUOUS
 62
     1
 10
1124.983333
 20
625.633317
 30
0.0
 40
57.0
  0
LINE
  8
0
  6
CONTINUOUS
 62
     1
 10
1177.983333
 20
418.633317
 30
0.0
 11
1177.983333
 21
466.133317
 31
0.0
  0
LINE
  8
0
  6
CONTINUOUS
 62
     1
 10
1071.983333
 20
418.633317
 30
0.0
 11
1071.983333
 21
466.133317
 31
0.0
  0
LINE
  8
0
  6
CONTINUOUS
 62
     1
 10
1071.983333
 20
418.633317
 30
0.0
 11
1177.983333
 21
418.633317
 31
0.0
  0
LINE
  8
7
  6
CONTINUOUS
 62
     2
 10
1184.983333
 20
358.48382445
 30
0.0
 11
1175.324074737
 21
361.072014901
 31
0.0
  0
LINE
  8
7
  6
CONTINUOUS
 62
     2
 10
1184.983333
 20
358.48382445
 30
0.0
 11
1175.324074737
 21
355.895633999
 31
0.0
  0
LINE
  8
7
  6
CONTINUOUS
 62
     2
 10
1184.983333
 20
358.48382445
 30
0.0
 11
1064.983333
 21
358.48382445
 31
0.0
  0
LINE
  8
7
  6
CONTINUOUS
 62
     2
 10
1064.983333
 20
358.48382445
 30
0.0
 11
1074.642591263
 21
355.895633999
 31
0.0
  0
LINE
  8
7
  6
CONTINUOUS
 62
     2
 10
1064.983333
 20
358.48382445
 30
0.0
 11
1074.642591263
 21
361.072014901
 31
0.0
  0
LINE
  8
7
  6
CONTINUOUS
 62
     2
 10
940.483333
 20
707.633317
 30
0.0
 11
937.895142549
 21
697.974058737
 31
0.0
  0
LINE
  8
7
  6
CONTINUOUS
 62
     2
 10
940.483333
 20
707.633317
 30
0.0
 11
943.071523451
 21
697.974058737
 31
0.0
  0
LINE
  8
7
  6
CONTINUOUS
 62
     2
 10
940.483333
 20
707.633317
 30
0.0
 11
940.483333
 21
667.633317
 31
0.0
  0
LINE
  8
7
  6
CONTINUOUS
 62
     2
 10
940.483333
 20
667.633317
 30
0.0
 11
943.071523451
 21
677.292575263
 31
0.0
  0
LINE
  8
7
  6
CONTINUOUS
 62
     2
 10
940.483333
 20
667.633317
 30
0.0
 11
937.895142549
 21
677.292575263
 31
0.0
  0
LINE
  8
7
  6
CONTINUOUS
 62
     2
 10
432.983333
 20
385.633317
 30
0.0
 11
442.642591263
 21
383.045126549
 31
0.0
  0
LINE
  8
7
  6
CONTINUOUS
 62
     2
 10
432.983333
 20
385.633317
 30
0.0
 11
442.642591263
 21
388.221507451
 31
0.0
  0
LINE
  8
7
  6
CONTINUOUS
 62
     2
 10
432.983333
 20
357.633317
 30
0.0
 11
442.642591263
 21
355.045126549
 31
0.0
  0
LINE
  8
7
  6
CONTINUOUS
 62
     2
 10
432.983333
 20
357.633317
 30
0.0
 11
442.642591263
 21
360.221507451
 31
0.0
  0
LINE
  8
7
  6
CONTINUOUS
 62
     2
 10
432.983333
 20
351.633317
 30
0.0
 11
432.983333
 21
351.633317
 31
0.0
  0
LINE
  8
7
  6
CONTINUOUS
 62
     2
 10
432.983333
 20
351.633317
 30
0.0
 11
432.983333
 21
351.633317
 31
0.0
  0
LINE
  8
7
  6
CONTINUOUS
 62
     2
 10
432.983333
 20
357.633317
 30
0.0
 11
423.324074737
 21
360.221507451
 31
0.0
  0
LINE
  8
7
  6
CONTINUOUS
 62
     2
 10
432.983333
 20
357.633317
 30
0.0
 11
423.324074737
 21
355.045126549
 31
0.0
  0
LINE
  8
7
  6
CONTINUOUS
 62
     2
 10
432.983333
 20
357.633317
 30
0.0
 11
362.983333
 21
357.633317
 31
0.0
  0
LINE
  8
7
  6
CONTINUOUS
 62
     2
 10
362.983333
 20
357.633317
 30
0.0
 11
372.642591263
 21
355.045126549
 31
0.0
  0
LINE
  8
7
  6
CONTINUOUS
 62
     2
 10
362.983333
 20
357.633317
 30
0.0
 11
372.642591263
 21
360.221507451
 31
0.0
  0
LINE
  8
7
  6
CONTINUOUS
 62
     2
 10
362.983333
 20
351.633317
 30
0.0
 11
362.983333
 21
351.633317
 31
0.0
  0
LINE
  8
7
  6
CONTINUOUS
 62
     2
 10
362.983333
 20
357.633317
 30
0.0
 11
353.324074737
 21
360.221507451
 31
0.0
  0
LINE
  8
7
  6
CONTINUOUS
 62
     2
 10
362.983333
 20
357.633317
 30
0.0
 11
353.324074737
 21
355.045126549
 31
0.0
  0
LINE
  8
7
  6
CONTINUOUS
 62
     2
 10
362.983333
 20
357.633317
 30
0.0
 11
290.983333
 21
357.633317
 31
0.0
  0
LINE
  8
7
  6
CONTINUOUS
 62
     2
 10
290.983333
 20
357.633317
 30
0.0
 11
300.642591263
 21
355.045126549
 31
0.0
  0
LINE
  8
7
  6
CONTINUOUS
 62
     2
 10
290.983333
 20
357.633317
 30
0.0
 11
300.642591263
 21
360.221507451
 31
0.0
  0
LINE
  8
7
  6
CONTINUOUS
 62
     2
 10
290.983333
 20
329.633317
 30
0.0
 11
300.642591263
 21
327.045126549
 31
0.0
  0
LINE
  8
7
  6
CONTINUOUS
 62
     2
 10
290.983333
 20
329.633317
 30
0.0
 11
300.642591263
 21
332.221507451
 31
0.0
  0
LINE
  8
7
  6
CONTINUOUS
 62
     2
 10
290.983333
 20
329.633317
 30
0.0
 11
281.324074737
 21
332.221507451
 31
0.0
  0
LINE
  8
7
  6
CONTINUOUS
 62
     2
 10
290.983333
 20
329.633317
 30
0.0
 11
281.324074737
 21
327.045126549
 31
0.0
  0
LINE
  8
7
  6
CONTINUOUS
 62
     2
 10
290.983333
 20
329.633317
 30
0.0
 11
262.983333
 21
329.633317
 31
0.0
  0
LINE
  8
7
  6
CONTINUOUS
 62
     2
 10
262.983333
 20
329.633317
 30
0.0
 11
272.642591263
 21
327.045126549
 31
0.0
  0
LINE
  8
7
  6
CONTINUOUS
 62
     2
 10
262.983333
 20
329.633317
 30
0.0
 11
272.642591263
 21
332.221507451
 31
0.0
  0
LINE
  8
7
  6
CONTINUOUS
 62
     2
 10
770.983333
 20
385.633317
 30
0.0
 11
761.324074737
 21
388.221507451
 31
0.0
  0
LINE
  8
7
  6
CONTINUOUS
 62
     2
 10
770.983333
 20
385.633317
 30
0.0
 11
761.324074737
 21
383.045126549
 31
0.0
  0
LINE
  8
7
  6
CONTINUOUS
 62
     2
 10
840.983333
 20
357.633317
 30
0.0
 11
831.324074737
 21
360.221507451
 31
0.0
  0
LINE
  8
7
  6
CONTINUOUS
 62
     2
 10
840.983333
 20
357.633317
 30
0.0
 11
831.324074737
 21
355.045126549
 31
0.0
  0
LINE
  8
7
  6
CONTINUOUS
 62
     2
 10
770.983333
 20
385.633317
 30
0.0
 11
780.642591263
 21
383.045126549
 31
0.0
  0
LINE
  8
7
  6
CONTINUOUS
 62
     2
 10
770.983333
 20
385.633317
 30
0.0
 11
780.642591263
 21
388.221507451
 31
0.0
  0
LINE
  8
7
  6
CONTINUOUS
 62
     2
 10
770.983333
 20
385.633317
 30
0.0
 11
805.983333
 21
385.633317
 31
0.0
  0
LINE
  8
7
  6
CONTINUOUS
 62
     2
 10
805.983333
 20
385.633317
 30
0.0
 11
796.324074737
 21
388.221507451
 31
0.0
  0
LINE
  8
7
  6
CONTINUOUS
 62
     2
 10
805.983333
 20
385.633317
 30
0.0
 11
796.324074737
 21
383.045126549
 31
0.0
  0
LINE
  8
7
  6
CONTINUOUS
 62
     2
 10
805.983333
 20
379.633317
 30
0.0
 11
805.983333
 21
379.633317
 31
0.0
  0
LINE
  8
7
  6
CONTINUOUS
 62
     2
 10
805.983333
 20
385.633317
 30
0.0
 11
815.642591263
 21
383.045126549
 31
0.0
  0
LINE
  8
7
  6
CONTINUOUS
 62
     2
 10
805.983333
 20
385.633317
 30
0.0
 11
815.642591263
 21
388.221507451
 31
0.0
  0
LINE
  8
7
  6
CONTINUOUS
 62
     2
 10
805.983333
 20
385.633317
 30
0.0
 11
840.983333
 21
385.633317
 31
0.0
  0
LINE
  8
7
  6
CONTINUOUS
 62
     2
 10
840.983333
 20
385.633317
 30
0.0
 11
831.324074737
 21
388.221507451
 31
0.0
  0
LINE
  8
7
  6
CONTINUOUS
 62
     2
 10
840.983333
 20
385.633317
 30
0.0
 11
831.324074737
 21
383.045126549
 31
0.0
  0
LINE
  8
7
  6
CONTINUOUS
 62
     2
 10
840.983333
 20
380.633317
 30
0.0
 11
840.983333
 21
379.633317
 31
0.0
  0
LINE
  8
7
  6
CONTINUOUS
 62
     2
 10
858.983333
 20
329.633317
 30
0.0
 11
868.642591263
 21
327.045126549
 31
0.0
  0
LINE
  8
7
  6
CONTINUOUS
 62
     2
 10
858.983333
 20
329.633317
 30
0.0
 11
868.642591263
 21
332.221507451
 31
0.0
  0
LINE
  8
7
  6
CONTINUOUS
 62
     2
 10
840.983333
 20
329.633317
 30
0.0
 11
896.783333
 21
329.633317
 31
0.0
  0
LINE
  8
7
  6
CONTINUOUS
 62
     2
 10
840.983333
 20
335.633317
 30
0.0
 11
840.983333
 21
335.633317
 31
0.0
  0
LINE
  8
7
  6
CONTINUOUS
 62
     2
 10
840.983333
 20
329.633317
 30
0.0
 11
831.324074737
 21
332.221507451
 31
0.0
  0
LINE
  8
7
  6
CONTINUOUS
 62
     2
 10
840.983333
 20
329.633317
 30
0.0
 11
831.324074737
 21
327.045126549
 31
0.0
  0
LINE
  8
7
  6
CONTINUOUS
 62
     2
 10
432.983333
 20
385.633317
 30
0.0
 11
770.983333
 21
385.633317
 31
0.0
  0
LINE
  8
7
  6
CONTINUOUS
 62
     2
 10
432.983333
 20
357.633317
 30
0.0
 11
840.983333
 21
357.633317
 31
0.0
  0
LINE
  8
7
  6
CONTINUOUS
 62
     2
 10
840.983333
 20
329.633317
 30
0.0
 11
290.983333
 21
329.633317
 31
0.0
  0
LINE
  8
7
  6
CONTINUOUS
 62
     2
 10
432.983333
 20
478.633317
 30
0.0
 11
432.983333
 21
351.633317
 31
0.0
  0
LINE
  8
7
  6
CONTINUOUS
 62
     2
 10
840.983333
 20
495.633317
 30
0.0
 11
840.983333
 21
323.633317
 31
0.0
  0
TEXT
  8
0
  6
CONTINUOUS
 62
     2
 10
1555.75
 20
189.75
 30
0.0
 40
17.5
  1
ＭＣＬＢ０１－Ｊ
 50
0.0
 41
0.793650794
 51
0.0
  7
KANJI23
  0
TEXT
  8
0
  6
CONTINUOUS
 62
     2
 10
1651.4166945
 20
109.749995
 30
10.833333333
 40
25.0
  1
３００２３６４
 50
0.0
 41
0.8
 51
0.0
  7
KANJI24
  0
LINE
  8
0
  6
CONTINUOUS
 62
     6
 10
346.959425053
 20
1330.497759827
 30
0.0
 11
114.914646507
 21
1330.497759827
 31
0.0
  0
LINE
  8
0
  6
CONTINUOUS
 62
     3
 10
346.959425053
 20
1303.035259827
 30
0.0
 11
114.914646507
 21
1303.035259827
 31
0.0
  0
LINE
  8
0
  6
CONTINUOUS
 62
     6
 10
346.959425053
 20
1303.035259827
 30
0.0
 11
114.914646507
 21
1303.035259827
 31
0.0
  0
TEXT
  8
0
  6
CONTINUOUS
 62
     6
 10
372.542228
 20
1327.950410728
 30
1.232517
 40
13.182
  1
電気定格　　　
 50
0.0
 41
0.85
 51
0.0
  7
KANJI25
  0
TEXT
  8
0
  6
CONTINUOUS
 62
     6
 10
118.823517202
 20
1333.69592676
 30
1.0647
 40
11.661
  1
ＬＳ０１　　　：推力リミッタ（前進時過負荷用）
 50
0.0
 41
0.822608696
 51
0.0
  7
KANJI26
  0
TEXT
  8
0
  6
CONTINUOUS
 62
     6
 10
118.823517202
 20
1306.23342676
 30
1.0647
 40
11.661
  1
ＬＳ０２　　　：推力リミッタ（後進時過負荷用）
 50
0.0
 41
0.822608696
 51
0.0
  7
KANJI26
  0
TEXT
  8
0
  6
CONTINUOUS
 62
     6
 10
385.343715102
 20
1297.376958599
 30
0.0
 40
11.8638
  1
ＤＣ１２５Ｖ　０．６Ａ　，ＤＣ２５０Ｖ　０．３Ａ　
 50
0.0
 41
0.726495726
 51
0.0
  7
KANJI27
  0
LINE
  8
0
  6
LTYPE2
 62
     6
 10
645.35
 20
1357.95
 30
0.0
 11
96.95
 21
1357.95
 31
0.0
  0
TEXT
  8
0
  6
CONTINUOUS
 62
     6
 10
380.087132178
 20
1345.711726126
 30
0.0
 40
45.0
  1
｝
 50
0.0
 41
0.538166667
 51
0.0
  7
KANJI28
  0
TEXT
  8
0
  6
CONTINUOUS
 62
     6
 10
309.962791539
 20
1116.97382165
 30
0.0
 40
17.740702234
  1
端子台　接続図
 50
0.0
 41
0.880962996
 51
0.0
  7
KANJI29
  0
LINE
  8
0
  6
LTYPE2
 62
     6
 10
645.35
 20
1098.95
 30
0.0
 11
645.35
 21
1357.95
 31
0.0
  0
LINE
  8
0
  6
LTYPE2
 62
     6
 10
96.95
 20
1098.95
 30
0.0
 11
645.35
 21
1098.95
 31
0.0
  0
LINE
  8
0
  6
LTYPE2
 62
     6
 10
96.95
 20
1357.95
 30
0.0
 11
96.95
 21
1098.95
 31
0.0
  0
TEXT
  8
0
  6
CONTINUOUS
 62
     2
 10
150.983333
 20
13.633317
 30
0.0
 40
15.0
  1
ＦＤ　Ｎｏ．ＭＣ１８４
 50
0.0
 41
0.9
 51
0.0
  7
KANJI30
  0
TEXT
  8
0
  6
CONTINUOUS
 62
     2
 10
862.25
 20
1173.1
 30
0.8
 40
12.0
  1
ＭＣＬＢ０１－　　１Ｊ
 50
0.0
 41
0.833333333
 51
0.0
  7
KANJI31
  0
TEXT
  8
0
  6
CONTINUOUS
 62
     2
 10
862.25
 20
1145.1
 30
0.8
 40
12.0
  1
ＭＣＬＢ０１－　　２Ｊ
 50
0.0
 41
0.833333333
 51
0.0
  7
KANJI31
  0
TEXT
  8
0
  6
CONTINUOUS
 62
     2
 10
862.25
 20
1117.1
 30
0.8
 40
12.0
  1
ＭＣＬＢ０１－　　３Ｊ
 50
0.0
 41
0.833333333
 51
0.0
  7
KANJI31
  0
TEXT
  8
0
  6
CONTINUOUS
 62
     2
 10
862.25
 20
1089.1
 30
0.8
 40
12.0
  1
ＭＣＬＢ０１－　　４Ｊ
 50
0.0
 41
0.833333333
 51
0.0
  7
KANJI31
  0
TEXT
  8
0
  6
CONTINUOUS
 62
     2
 10
862.25
 20
1061.1
 30
0.8
 40
12.0
  1
ＭＣＬＢ０１－　　５Ｊ
 50
0.0
 41
0.833333333
 51
0.0
  7
KANJI31
  0
TEXT
  8
0
  6
CONTINUOUS
 62
     2
 10
862.25
 20
1033.1
 30
0.8
 40
12.0
  1
ＭＣＬＢ０１－　　６Ｊ
 50
0.0
 41
0.833333333
 51
0.0
  7
KANJI31
  0
TEXT
  8
0
  6
CONTINUOUS
 62
     2
 10
862.25
 20
1005.1
 30
0.8
 40
12.0
  1
ＭＣＬＢ０１－　　７Ｊ
 50
0.0
 41
0.833333333
 51
0.0
  7
KANJI31
  0
LINE
  8
0
  6
CONTINUOUS
 62
     1
 10
1273.625
 20
1375.75
 30
0.0
 11
1273.625
 21
1275.65
 31
0.0
  0
LINE
  8
0
  6
CONTINUOUS
 62
     2
 10
1215.875
 20
1375.75
 30
0.0
 11
1215.875
 21
1275.65
 31
0.0
  0
LINE
  8
0
  6
CONTINUOUS
 62
     2
 10
1158.125
 20
1375.75
 30
0.0
 11
1158.125
 21
1275.65
 31
0.0
  0
LINE
  8
0
  6
CONTINUOUS
 62
     1
 10
1081.125
 20
1375.75
 30
0.0
 11
1081.125
 21
1275.65
 31
0.0
  0
LINE
  8
0
  6
CONTINUOUS
 62
     1
 10
1081.125
 20
1375.75
 30
0.0
 11
1273.625
 21
1375.75
 31
0.0
  0
LINE
  8
0
  6
CONTINUOUS
 62
     1
 10
1081.125
 20
1344.95
 30
0.0
 11
1273.625
 21
1344.95
 31
0.0
  0
LINE
  8
0
  6
CONTINUOUS
 62
     2
 10
1081.125
 20
1321.85
 30
0.0
 11
1273.625
 21
1321.85
 31
0.0
  0
LINE
  8
0
  6
CONTINUOUS
 62
     2
 10
1081.125
 20
1298.75
 30
0.0
 11
1273.625
 21
1298.75
 31
0.0
  0
LINE
  8
0
  6
CONTINUOUS
 62
     1
 10
1081.125
 20
1275.65
 30
0.0
 11
1273.625
 21
1275.65
 31
0.0
  0
TEXT
  8
0
  6
CONTINUOUS
 62
     2
 10
1223.575
 20
1362.275
 30
1.155
 40
11.55
  1
起動電流
 50
0.0
 41
0.9
 51
0.0
  7
KANJI32
  0
TEXT
  8
0
  6
CONTINUOUS
 62
     2
 10
1223.575
 20
1348.8
 30
1.155
 40
11.55
  1
　　　Ａ
 50
0.0
 41
0.9
 51
0.0
  7
KANJI32
  0
TEXT
  8
0
  6
CONTINUOUS
 62
     2
 10
1165.825
 20
1362.275
 30
1.155
 40
11.55
  1
定格電流
 50
0.0
 41
0.9
 51
0.0
  7
KANJI32
  0
TEXT
  8
0
  6
CONTINUOUS
 62
     2
 10
1165.825
 20
1348.8
 30
1.155
 40
11.55
  1
　　　Ａ
 50
0.0
 41
0.9
 51
0.0
  7
KANJI32
  0
TEXT
  8
0
  6
CONTINUOUS
 62
     2
 10
1087.67
 20
1304.525
 30
1.155
 40
11.55
  1
２００／６０
 50
0.0
 41
0.9
 51
0.0
  7
KANJI32
  0
TEXT
  8
0
  6
CONTINUOUS
 62
     2
 10
1087.67
 20
1362.275
 30
1.155
 40
11.55
  1
電圧／周波数
 50
0.0
 41
0.9
 51
0.0
  7
KANJI32
  0
TEXT
  8
0
  6
CONTINUOUS
 62
     2
 10
1087.67
 20
1348.8
 30
1.155
 40
11.55
  1
　Ｖ／Ｈｚ
 50
0.0
 41
0.9
 51
0.0
  7
KANJI32
  0
TEXT
  8
0
  6
CONTINUOUS
 62
     2
 10
1087.67
 20
1327.625
 30
1.155
 40
11.55
  1
２００／５０
 50
0.0
 41
0.9
 51
0.0
  7
KANJI32
  0
TEXT
  8
0
  6
CONTINUOUS
 62
     2
 10
1087.67
 20
1281.425
 30
1.155
 40
11.55
  1
２２０／６０
 50
0.0
 41
0.9
 51
0.0
  7
KANJI32
  0
LINE
  8
0
  6
CONTINUOUS
 62
     1
 10
1042.625
 20
1375.75
 30
0.0
 11
1042.625
 21
1275.65
 31
0.0
  0
LINE
  8
0
  6
CONTINUOUS
 62
     2
 10
984.875
 20
1375.75
 30
0.0
 11
984.875
 21
1275.65
 31
0.0
  0
LINE
  8
0
  6
CONTINUOUS
 62
     2
 10
927.125
 20
1375.75
 30
0.0
 11
927.125
 21
1275.65
 31
0.0
  0
LINE
  8
0
  6
CONTINUOUS
 62
     1
 10
850.125
 20
1375.75
 30
0.0
 11
850.125
 21
1275.65
 31
0.0
  0
LINE
  8
0
  6
CONTINUOUS
 62
     1
 10
850.125
 20
1375.75
 30
0.0
 11
1042.625
 21
1375.75
 31
0.0
  0
LINE
  8
0
  6
CONTINUOUS
 62
     1
 10
850.125
 20
1344.95
 30
0.0
 11
1042.625
 21
1344.95
 31
0.0
  0
LINE
  8
0
  6
CONTINUOUS
 62
     2
 10
850.125
 20
1321.85
 30
0.0
 11
1042.625
 21
1321.85
 31
0.0
  0
LINE
  8
0
  6
CONTINUOUS
 62
     2
 10
850.125
 20
1298.75
 30
0.0
 11
1042.625
 21
1298.75
 31
0.0
  0
LINE
  8
0
  6
CONTINUOUS
 62
     1
 10
850.125
 20
1275.65
 30
0.0
 11
1042.625
 21
1275.65
 31
0.0
  0
TEXT
  8
0
  6
CONTINUOUS
 62
     2
 10
992.575
 20
1362.275
 30
1.155
 40
11.55
  1
起動電流
 50
0.0
 41
0.9
 51
0.0
  7
KANJI32
  0
TEXT
  8
0
  6
CONTINUOUS
 62
     2
 10
992.575
 20
1348.8
 30
1.155
 40
11.55
  1
　　　Ａ
 50
0.0
 41
0.9
 51
0.0
  7
KANJI32
  0
TEXT
  8
0
  6
CONTINUOUS
 62
     2
 10
934.825
 20
1362.275
 30
1.155
 40
11.55
  1
定格電流
 50
0.0
 41
0.9
 51
0.0
  7
KANJI32
  0
TEXT
  8
0
  6
CONTINUOUS
 62
     2
 10
934.825
 20
1348.8
 30
1.155
 40
11.55
  1
　　　Ａ
 50
0.0
 41
0.9
 51
0.0
  7
KANJI32
  0
TEXT
  8
0
  6
CONTINUOUS
 62
     2
 10
856.67
 20
1362.275
 30
1.155
 40
11.55
  1
電圧／周波数
 50
0.0
 41
0.9
 51
0.0
  7
KANJI32
  0
TEXT
  8
0
  6
CONTINUOUS
 62
     2
 10
856.67
 20
1348.8
 30
1.155
 40
11.55
  1
　Ｖ／Ｈｚ
 50
0.0
 41
0.9
 51
0.0
  7
KANJI32
  0
TEXT
  8
0
  6
CONTINUOUS
 62
     2
 10
856.67
 20
1327.625
 30
1.155
 40
11.55
  1
４００／５０
 50
0.0
 41
0.9
 51
0.0
  7
KANJI32
  0
TEXT
  8
0
  6
CONTINUOUS
 62
     2
 10
856.67
 20
1304.525
 30
1.155
 40
11.55
  1
４００／６０
 50
0.0
 41
0.9
 51
0.0
  7
KANJI32
  0
TEXT
  8
0
  6
CONTINUOUS
 62
     2
 10
856.67
 20
1281.425
 30
1.155
 40
11.55
  1
４４０／６０
 50
0.0
 41
0.9
 51
0.0
  7
KANJI32
  0
TEXT
  8
0
  6
CONTINUOUS
 62
     2
 10
934.825
 20
1327.625
 30
1.155
 40
11.55
  1
　２．０
 50
0.0
 41
0.9
 51
0.0
  7
KANJI32
  0
TEXT
  8
0
  6
CONTINUOUS
 62
     2
 10
934.825
 20
1304.525
 30
1.155
 40
11.55
  1
　１．４
 50
0.0
 41
0.9
 51
0.0
  7
KANJI32
  0
TEXT
  8
0
  6
CONTINUOUS
 62
     2
 10
934.825
 20
1281.425
 30
1.155
 40
11.55
  1
　１．７
 50
0.0
 41
0.9
 51
0.0
  7
KANJI32
  0
TEXT
  8
0
  6
CONTINUOUS
 62
     2
 10
1165.825
 20
1327.625
 30
1.155
 40
11.55
  1
　４．０
 50
0.0
 41
0.9
 51
0.0
  7
KANJI32
  0
TEXT
  8
0
  6
CONTINUOUS
 62
     2
 10
1165.825
 20
1304.525
 30
1.155
 40
11.55
  1
　２．８
 50
0.0
 41
0.9
 51
0.0
  7
KANJI32
  0
TEXT
  8
0
  6
CONTINUOUS
 62
     2
 10
1165.825
 20
1281.425
 30
1.155
 40
11.55
  1
　３．３
 50
0.0
 41
0.9
 51
0.0
  7
KANJI32
  0
TEXT
  8
0
  6
CONTINUOUS
 62
     2
 10
1223.575
 20
1327.625
 30
1.155
 40
11.55
  1
　９．２
 50
0.0
 41
0.9
 51
0.0
  7
KANJI32
  0
TEXT
  8
0
  6
CONTINUOUS
 62
     2
 10
1223.575
 20
1304.525
 30
1.155
 40
11.55
  1
　８
 50
0.0
 41
0.9
 51
0.0
  7
KANJI32
  0
TEXT
  8
0
  6
CONTINUOUS
 62
     2
 10
1223.575
 20
1281.425
 30
1.155
 40
11.55
  1
　８．８
 50
0.0
 41
0.9
 51
0.0
  7
KANJI32
  0
TEXT
  8
0
  6
CONTINUOUS
 62
     2
 10
992.575
 20
1327.625
 30
1.155
 40
11.55
  1
　４．６
 50
0.0
 41
0.9
 51
0.0
  7
KANJI32
  0
TEXT
  8
0
  6
CONTINUOUS
 62
     2
 10
992.575
 20
1304.525
 30
1.155
 40
11.55
  1
　４
 50
0.0
 41
0.9
 51
0.0
  7
KANJI32
  0
TEXT
  8
0
  6
CONTINUOUS
 62
     2
 10
992.575
 20
1281.425
 30
1.155
 40
11.55
  1
　４．４
 50
0.0
 41
0.9
 51
0.0
  7
KANJI32
  0
LINE
  8
0
  6
CONTINUOUS
 62
     2
 10
344.927373465
 20
1167.978121884
 30
0.0
 11
344.927373465
 21
1145.199155128
 31
0.0
  0
LINE
  8
0
  6
CONTINUOUS
 62
     2
 10
371.50283468
 20
1167.978121884
 30
0.0
 11
371.50283468
 21
1145.199155128
 31
0.0
  0
LINE
  8
0
  6
CONTINUOUS
 62
     2
 10
398.078295894
 20
1167.978121884
 30
0.0
 11
398.078295894
 21
1145.199155128
 31
0.0
  0
LINE
  8
0
  6
CONTINUOUS
 62
     2
 10
424.653757109
 20
1167.978121884
 30
0.0
 11
424.653757109
 21
1145.199155128
 31
0.0
  0
CIRCLE
  8
0
  6
CONTINUOUS
 62
     6
 10
416.734269667
 20
1191.457921517
 30
0.0
 40
4.100214016
  0
LINE
  8
0
  6
CONTINUOUS
 62
     6
 10
412.634055651
 20
1191.457921517
 30
0.0
 11
411.366026502
 21
1191.457921517
 31
0.0
  0
LINE
  8
0
  6
CONTINUOUS
 62
     6
 10
437.688027433
 20
1205.144562742
 30
0.0
 11
433.773558096
 21
1182.809507138
 31
0.0
  0
LINE
  8
0
  6
CONTINUOUS
 62
     6
 10
432.961699663
 20
1205.932284037
 30
0.0
 11
429.046922494
 21
1183.597279739
 31
0.0
  0
LINE
  8
0
  6
CONTINUOUS
 62
     6
 10
433.773558096
 20
1182.809507138
 30
0.0
 11
429.046922494
 21
1183.597279739
 31
0.0
  0
CIRCLE
  8
0
  6
CONTINUOUS
 62
     6
 10
437.941487717
 20
1181.989464335
 30
0.0
 40
4.100214016
  0
LINE
  8
0
  6
CONTINUOUS
 62
     6
 10
437.941487717
 20
1177.889250319
 30
0.0
 11
437.941487717
 21
1167.978121884
 31
0.0
  0
LINE
  8
0
  6
CONTINUOUS
 62
     6
 10
411.366026502
 20
1191.457921517
 30
0.0
 11
411.366026502
 21
1167.978121884
 31
0.0
  0
LINE
  8
0
  6
CONTINUOUS
 62
     6
 10
384.790565287
 20
1167.978121884
 30
0.0
 11
384.790565287
 21
1221.683332504
 31
0.0
  0
LINE
  8
0
  6
CONTINUOUS
 62
     6
 10
305.317641926
 20
1205.144562742
 30
0.0
 11
309.232111263
 21
1182.809507138
 31
0.0
  0
LINE
  8
0
  6
CONTINUOUS
 62
     6
 10
310.043969696
 20
1205.932284037
 30
0.0
 11
313.958746865
 21
1183.597279739
 31
0.0
  0
LINE
  8
0
  6
CONTINUOUS
 62
     6
 10
309.232111263
 20
1182.809507138
 30
0.0
 11
313.958746865
 21
1183.597279739
 31
0.0
  0
CIRCLE
  8
0
  6
CONTINUOUS
 62
     6
 10
305.064181642
 20
1181.989464335
 30
0.0
 40
4.100214016
  0
CIRCLE
  8
0
  6
CONTINUOUS
 62
     6
 10
326.271399692
 20
1191.457921517
 30
0.0
 40
4.100214016
  0
LINE
  8
0
  6
CONTINUOUS
 62
     6
 10
330.371613708
 20
1191.457921517
 30
0.0
 11
331.639642857
 21
1191.457921517
 31
0.0
  0
LINE
  8
0
  6
CONTINUOUS
 62
     6
 10
305.064181642
 20
1177.889250319
 30
0.0
 11
305.064181642
 21
1167.978121884
 31
0.0
  0
LINE
  8
0
  6
CONTINUOUS
 62
     6
 10
331.639642857
 20
1191.457921517
 30
0.0
 11
331.639642857
 21
1167.978121884
 31
0.0
  0
LINE
  8
0
  6
CONTINUOUS
 62
     6
 10
358.215104072
 20
1167.978121884
 30
0.0
 11
358.215104072
 21
1221.683332504
 31
0.0
  0
LINE
  8
0
  6
CONTINUOUS
 62
     2
 10
451.229218324
 20
1167.978121884
 30
0.0
 11
451.229218324
 21
1145.199155128
 31
0.0
  0
LINE
  8
0
  6
CONTINUOUS
 62
     2
 10
291.776451035
 20
1167.978121884
 30
0.0
 11
291.776451035
 21
1145.199155128
 31
0.0
  0
LINE
  8
0
  6
CONTINUOUS
 62
     2
 10
318.35191225
 20
1167.978121884
 30
0.0
 11
318.35191225
 21
1145.199155128
 31
0.0
  0
LINE
  8
0
  6
CONTINUOUS
 62
     6
 10
437.941487717
 20
1221.683332504
 30
0.0
 11
384.790565287
 21
1221.683332504
 31
0.0
  0
CIRCLE
  8
0
  6
CONTINUOUS
 62
     6
 10
437.941487717
 20
1209.33941042
 30
0.0
 40
4.100214016
  0
LINE
  8
0
  6
CONTINUOUS
 62
     6
 10
437.688027433
 20
1205.144562742
 30
0.0
 11
432.961699663
 21
1205.932284037
 31
0.0
  0
LINE
  8
0
  6
CONTINUOUS
 62
     6
 10
437.941487717
 20
1213.439624436
 30
0.0
 11
437.941487717
 21
1221.683332504
 31
0.0
  0
CIRCLE
  8
0
  6
CONTINUOUS
 62
     6
 10
305.064181642
 20
1209.33941042
 30
0.0
 40
4.100214016
  0
LINE
  8
0
  6
CONTINUOUS
 62
     6
 10
305.317641926
 20
1205.144562742
 30
0.0
 11
310.043969696
 21
1205.932284037
 31
0.0
  0
LINE
  8
0
  6
CONTINUOUS
 62
     6
 10
305.064181642
 20
1213.439624436
 30
0.0
 11
305.064181642
 21
1221.683332504
 31
0.0
  0
LINE
  8
0
  6
CONTINUOUS
 62
     6
 10
358.215104072
 20
1221.683332504
 30
0.0
 11
305.064181642
 21
1221.683332504
 31
0.0
  0
TEXT
  8
0
  6
CONTINUOUS
 62
     6
 10
309.8272152
 20
1226.202473273
 30
0.819
 40
11.7
  1
ＬＳ０１
 50
0.0
 41
0.8
 51
0.0
  7
KANJI33
  0
TEXT
  8
0
  6
CONTINUOUS
 62
     6
 10
392.447398844
 20
1226.202473273
 30
0.819
 40
11.7
  1
ＬＳ０２
 50
0.0
 41
0.8
 51
0.0
  7
KANJI33
  0
TEXT
  8
0
  6
CONTINUOUS
 62
     3
 10
137.638775989
 20
1148.995649587
 30
0.0
 40
15.0
  1
　　　　　　　　　　　　　　　　　　１　　２　　　３　　　４　　　５　　　６
 50
0.0
 41
0.911
 51
0.0
  7
KANJI34
  0
LINE
  8
0
  6
CONTINUOUS
 62
     2
 10
291.776451035
 20
1167.978121884
 30
0.0
 11
451.229218324
 21
1167.978121884
 31
0.0
  0
LINE
  8
0
  6
CONTINUOUS
 62
     2
 10
291.776451035
 20
1145.199155128
 30
0.0
 11
451.229218324
 21
1145.199155128
 31
0.0
  0
TEXT
  8
0
  6
CONTINUOUS
 62
     6
 10
283.462791539
 20
1255.97382165
 30
0.0
 40
17.740702234
  1
推力リミッタ端子台配列
 50
0.0
 41
0.880962996
 51
0.0
  7
KANJI29
  0
LINE
  8
7
  6
CONTINUOUS
 62
     2
 10
262.983333
 20
623.64
 30
0.0
 11
262.983333
 21
323.633317
 31
0.0
  0
LINE
  8
7
  6
CONTINUOUS
 62
     2
 10
290.983333
 20
452.953317
 30
0.0
 11
290.983333
 21
323.633317
 31
0.0
  0
LINE
  8
7
  6
CONTINUOUS
 62
     2
 10
362.983333
 20
453.213317
 30
0.0
 11
362.983333
 21
351.633317
 31
0.0
  0
LINE
  8
7
  6
CONTINUOUS
 62
     2
 10
770.983333
 20
481.983317
 30
0.0
 11
770.983333
 21
379.633317
 31
0.0
  0
LINE
  8
7
  6
CONTINUOUS
 62
     2
 10
805.983333
 20
477.743317
 30
0.0
 11
805.983333
 21
379.633317
 31
0.0
  0
LINE
  8
7
  6
CONTINUOUS
 62
     2
 10
858.983333
 20
497.783317
 30
0.0
 11
858.983333
 21
323.633317
 31
0.0
  0
LINE
  8
7
  6
CONTINUOUS
 62
     2
 10
1064.983333
 20
455.493317
 30
0.0
 11
1064.983333
 21
352.48382445
 31
0.0
  0
LINE
  8
7
  6
CONTINUOUS
 62
     2
 10
1184.983333
 20
457.803317
 30
0.0
 11
1184.983333
 21
352.48382445
 31
0.0
  0
CIRCLE
  8
0
  6
CONTINUOUS
 62
     1
 10
1085.98
 20
554.69
 30
0.0
 40
5.0
  0
LINE
  8
0
  6
CONTINUOUS
 62
     1
 10
1082.975112321
 20
563.698224874
 30
0.0
 11
1090.29599581
 21
564.633317
 31
0.0
  0
LINE
  8
0
  6
CONTINUOUS
 62
     1
 10
1076.918426787
 20
557.641550682
 30
0.0
 11
1074.305786676
 21
537.187059279
 31
0.0
  0
ARC
  8
0
  6
CONTINUOUS
 62
     1
 10
1083.862012656
 20
556.754637344
 30
0.0
 40
7.0
 50
97.278942019
 51
172.72095069
  0
LINE
  8
0
  6
CONTINUOUS
 62
     1
 10
1166.991553679
 20
563.698224874
 30
0.0
 11
1159.67067019
 21
564.633317
 31
0.0
  0
LINE
  8
0
  6
CONTINUOUS
 62
     1
 10
1173.048239518
 20
557.641548296
 30
0.0
 11
1175.660879324
 21
537.187059279
 31
0.0
  0
ARC
  8
0
  6
CONTINUOUS
 62
     1
 10
1166.104653344
 20
556.754637344
 30
0.0
 40
7.0
 50
7.279029622
 51
82.721057981
  0
LINE
  8
0
  6
CONTINUOUS
 62
     2
 10
280.65
 20
639.0
 30
0.0
 11
278.432742397
 21
648.751090643
 31
0.0
  0
LINE
  8
0
  6
CONTINUOUS
 62
     2
 10
280.65
 20
639.0
 30
0.0
 11
273.854253268
 21
646.33606341
 31
0.0
  0
LINE
  8
0
  6
CONTINUOUS
 62
     2
 10
280.65
 20
639.0
 30
0.0
 11
232.65
 21
730.0
 31
0.0
  0
LINE
  8
0
  6
CONTINUOUS
 62
     2
 10
232.65
 20
730.0
 30
0.0
 11
121.65
 21
730.0
 31
0.0
  0
ARC
  8
0
  6
CONTINUOUS
 62
     2
 10
204.983333
 20
628.133317
 30
0.0
 40
20.0
 50
231.952957468
 51
156.801409486
  0
LINE
  8
0
  6
CONTINUOUS
 62
     2
 10
186.6004324
 20
636.011702972
 30
0.0
 11
188.89512511
 21
645.849141749
 31
0.0
  0
LINE
  8
0
  6
CONTINUOUS
 62
     2
 10
186.6004324
 20
636.011702972
 30
0.0
 11
194.868593778
 21
640.919039507
 31
0.0
  0
LINE
  8
0
  6
LTYPE2
 62
     6
 10
129.391666
 20
908.766634
 30
0.0
 11
129.391666
 21
892.365777936
 31
0.0
  0
LINE
  8
0
  6
LTYPE2
 62
     6
 10
259.788595694
 20
908.766634
 30
0.0
 11
129.391666
 21
908.766634
 31
0.0
  0
TEXT
  8
0
  6
CONTINUOUS
 62
     6
 10
111.856923591
 20
895.281485681
 30
1.093390404
 40
10.933904043
  1
Ｕ
 50
0.0
 41
0.9
 51
0.0
  7
KANJI35
  0
CIRCLE
  8
0
  6
CONTINUOUS
 62
     6
 10
129.391666
 20
889.085606723
 30
0.0
 40
4.373561617
  0
LINE
  8
0
  6
CONTINUOUS
 62
     6
 10
124.36688231
 20
884.060823033
 30
0.0
 11
134.571859417
 21
894.26580014
 31
0.0
  0
TEXT
  8
0
  6
CONTINUOUS
 62
     6
 10
139.637139047
 20
917.432765352
 30
1.518597784
 40
15.185977837
  1
エコノストップモータ
 50
0.0
 41
0.66671875
 51
0.0
  7
KANJI36
  0
CIRCLE
  8
0
  6
CONTINUOUS
 62
     6
 10
174.220672575
 20
863.573163957
 30
0.0
 40
18.223173404
  0
TEXT
  8
0
  6
CONTINUOUS
 62
     6
 10
166.566939745
 20
854.826040723
 30
1.82231734
 40
18.223173404
  1
Ｍ
 50
0.0
 41
0.9
 51
0.0
  7
KANJI37
  0
LINE
  8
0
  6
CONTINUOUS
 62
     6
 10
150.166083681
 20
838.060721191
 30
0.0
 11
161.464451192
 21
851.181406042
 31
0.0
  0
LINE
  8
0
  6
CONTINUOUS
 62
     6
 10
150.166083681
 20
889.085606723
 30
0.0
 11
161.464451192
 21
875.964921872
 31
0.0
  0
LINE
  8
0
  6
CONTINUOUS
 62
     6
 10
150.166083681
 20
889.085606723
 30
0.0
 11
133.765227617
 21
889.085606723
 31
0.0
  0
LINE
  8
0
  6
CONTINUOUS
 62
     6
 10
156.361962639
 20
863.573163957
 30
0.0
 11
133.765227617
 21
863.573163957
 31
0.0
  0
LINE
  8
0
  6
CONTINUOUS
 62
     6
 10
150.166083681
 20
838.060721191
 30
0.0
 11
133.765227617
 21
838.060721191
 31
0.0
  0
TEXT
  8
0
  6
CONTINUOUS
 62
     6
 10
112.950313995
 20
869.404579446
 30
1.093390404
 40
10.933904043
  1
Ｖ
 50
0.0
 41
0.9
 51
0.0
  7
KANJI35
  0
TEXT
  8
0
  6
CONTINUOUS
 62
     6
 10
114.043704399
 20
843.527673212
 30
1.093390404
 40
10.933904043
  1
Ｗ
 50
0.0
 41
0.9
 51
0.0
  7
KANJI35
  0
CIRCLE
  8
0
  6
CONTINUOUS
 62
     6
 10
129.391666
 20
863.573163957
 30
0.0
 40
4.373561617
  0
LINE
  8
0
  6
CONTINUOUS
 62
     6
 10
124.36688231
 20
858.548380267
 30
0.0
 11
134.571859417
 21
868.753357374
 31
0.0
  0
LINE
  8
0
  6
LTYPE2
 62
     6
 10
129.391666
 20
885.076508574
 30
0.0
 11
129.391666
 21
866.85333517
 31
0.0
  0
CIRCLE
  8
0
  6
CONTINUOUS
 62
     6
 10
129.391666
 20
838.060721191
 30
0.0
 40
4.373561617
  0
LINE
  8
0
  6
CONTINUOUS
 62
     6
 10
124.36688231
 20
833.035937501
 30
0.0
 11
134.571859417
 21
843.240914607
 31
0.0
  0
LINE
  8
0
  6
LTYPE2
 62
     6
 10
129.391666
 20
859.564065808
 30
0.0
 11
129.391666
 21
842.434282808
 31
0.0
  0
LINE
  8
0
  6
LTYPE2
 62
     6
 10
259.788595694
 20
813.354901891
 30
0.0
 11
129.391666
 21
813.354901891
 31
0.0
  0
LINE
  8
0
  6
LTYPE2
 62
     6
 10
129.391666
 20
833.687159574
 30
0.0
 11
129.391666
 21
813.354901891
 31
0.0
  0
TEXT
  8
0
  6
CONTINUOUS
 62
     2
 10
134.487059364
 20
788.145538811
 30
0.0
 40
15.6
  1
モーター結線図
 50
0.0
 41
0.925
 51
0.0
  7
KANJI38
  0
TEXT
  8
0
  6
CONTINUOUS
 62
     6
 10
200.462042277
 20
855.318066405
 30
1.457853872
 40
14.578538724
  1
Ｂ
 50
0.0
 41
0.9
 51
0.0
  7
KANJI39
  0
CIRCLE
  8
0
  6
CONTINUOUS
 62
     6
 10
207.022384703
 20
863.573163957
 30
0.0
 40
14.578538724
  0
TEXT
  8
0
  6
CONTINUOUS
 62
     3
 10
121.65
 20
735.0
 30
1.5
 40
15.0
  1
手動軸カバー
 50
0.0
 41
0.9
 51
0.0
  7
KANJI40
  0
TEXT
  8
0
  6
CONTINUOUS
 62
     3
 10
121.65
 20
705.0
 30
1.5
 40
15.0
  1
手動軸□８
 50
0.0
 41
0.9
 51
0.0
  7
KANJI40
  0
TEXT
  8
0
  6
CONTINUOUS
 62
     2
 10
124.6004324
 20
619.011702972
 30
0.0
 40
15.0
  1
前進方向
 50
0.0
 41
0.9
 51
0.0
  7
KANJI30
  0
LINE
  8
0
  6
LTYPE2
 62
     6
 10
259.788595694
 20
813.354901891
 30
0.0
 11
259.788595694
 21
908.766634
 31
0.0
  0
TEXT
  8
0
  6
CONTINUOUS
 62
     2
 10
454.709258263
 20
844.288190451
 30
0.0
 40
20.0
  1
ブレーキ解放装置はありません。
 50
0.0
 41
0.925
 51
0.0
  7
KANJI41
  0
TEXT
  8
0
  6
CONTINUOUS
 62
     2
 10
455.709258263
 20
819.288190451
 30
0.0
 40
20.0
  1
そのまま手動操作をして下さい．
 50
0.0
 41
0.925
 51
0.0
  7
KANJI41
  0
TEXT
  8
7
  6
CONTINUOUS
 62
     2
 10
501.983333
 20
751.633317
 30
0.0
 40
15.0
  1
ＰＦ３／４
 50
0.0
 41
0.9
 51
0.0
  7
KANJI30
  0
TEXT
  8
7
  6
CONTINUOUS
 62
     2
 10
452.083333
 20
776.633317
 30
0.0
 40
15.0
  1
２１３
 50
0.0
 41
0.9
 51
0.0
  7
KANJI30
  0
TEXT
  8
7
  6
CONTINUOUS
 62
     2
 10
321.583333
 20
776.633317
 30
0.0
 40
15.0
  1
６０
 50
0.0
 41
0.9
 51
0.0
  7
KANJI30
  0
TEXT
  8
7
  6
CONTINUOUS
 62
     2
 10
491.983333
 20
602.233317
 30
0.0
 40
15.0
  1
φ１１４
 50
90.0
 41
0.9
 51
0.0
  7
KANJI30
  0
TEXT
  8
7
  6
CONTINUOUS
 62
     2
 10
617.983333
 20
411.133317
 30
0.0
 40
15.0
  1
ＰＦ１／２
 50
0.0
 41
0.9
 51
0.0
  7
KANJI30
  0
TEXT
  8
7
  6
CONTINUOUS
 62
     2
 10
546.583333
 20
389.633317
 30
0.0
 40
15.0
  1
Ｃ
 50
0.0
 41
0.9
 51
0.0
  7
KANJI30
  0
TEXT
  8
7
  6
CONTINUOUS
 62
     2
 10
557.583333
 20
361.633317
 30
0.0
 40
15.0
  1
ｍｉｎ．Ｌ
 50
0.0
 41
0.9
 51
0.0
  7
KANJI30
  0
TEXT
  8
7
  6
CONTINUOUS
 62
     2
 10
386.583333
 20
361.633317
 30
0.0
 40
15.0
  1
７０
 50
0.0
 41
0.9
 51
0.0
  7
KANJI30
  0
TEXT
  8
7
  6
CONTINUOUS
 62
     2
 10
315.583333
 20
361.633317
 30
0.0
 40
15.0
  1
７２
 50
0.0
 41
0.9
 51
0.0
  7
KANJI30
  0
TEXT
  8
7
  6
CONTINUOUS
 62
     2
 10
480.583333
 20
333.633317
 30
0.0
 40
15.0
  1
ｍｉｎ．ＡＬ
 50
0.0
 41
0.9
 51
0.0
  7
KANJI30
  0
TEXT
  8
7
  6
CONTINUOUS
 62
     2
 10
265.583333
 20
333.633317
 30
0.0
 40
15.0
  1
２８
 50
0.0
 41
0.9
 51
0.0
  7
KANJI30
  0
TEXT
  8
7
  6
CONTINUOUS
 62
     2
 10
558.983333
 20
498.233317
 30
0.0
 40
15.0
  1
φ６４
 50
90.0
 41
0.9
 51
0.0
  7
KANJI30
  0
TEXT
  8
7
  6
CONTINUOUS
 62
     2
 10
631.452757461
 20
587.133317
 30
0.0
 40
15.0
  1
給脂口
 50
0.0
 41
0.9
 51
0.0
  7
KANJI30
  0
TEXT
  8
7
  6
CONTINUOUS
 62
     2
 10
476.452757461
 20
437.633317
 30
0.0
 40
15.0
  1
推力リミッタ
 50
0.0
 41
0.9
 51
0.0
  7
KANJI30
  0
TEXT
  8
7
  6
CONTINUOUS
 62
     2
 10
936.483333
 20
676.233317
 30
0.0
 40
15.0
  1
４０
 50
90.0
 41
0.9
 51
0.0
  7
KANJI30
  0
TEXT
  8
7
  6
CONTINUOUS
 62
     2
 10
915.483333
 20
676.233317
 30
0.0
 40
15.0
  1
１６
 50
90.0
 41
0.9
 51
0.0
  7
KANJI30
  0
TEXT
  8
7
  6
CONTINUOUS
 62
     2
 10
887.983333
 20
722.633317
 30
0.0
 40
15.0
  1
１２
 50
90.0
 41
0.9
 51
0.0
  7
KANJI30
  0
TEXT
  8
7
  6
CONTINUOUS
 62
     2
 10
887.983333
 20
629.833317
 30
0.0
 40
15.0
  1
１２
 50
90.0
 41
0.9
 51
0.0
  7
KANJI30
  0
TEXT
  8
7
  6
CONTINUOUS
 62
     2
 10
754.952757461
 20
670.233317
 30
0.0
 40
15.0
  1
φ９５
 50
90.0
 41
0.9
 51
0.0
  7
KANJI30
  0
TEXT
  8
7
  6
CONTINUOUS
 62
     2
 10
890.483333
 20
504.233317
 30
0.0
 40
15.0
  1
４０
 50
90.0
 41
0.9
 51
0.0
  7
KANJI30
  0
TEXT
  8
7
  6
CONTINUOUS
 62
     2
 10
783.083333
 20
389.633317
 30
0.0
 40
15.0
  1
Ｐ
 50
0.0
 41
0.9
 51
0.0
  7
KANJI30
  0
TEXT
  8
7
  6
CONTINUOUS
 62
     2
 10
812.083333
 20
389.633317
 30
0.0
 40
15.0
  1
３５
 50
0.0
 41
0.9
 51
0.0
  7
KANJI30
  0
TEXT
  8
7
  6
CONTINUOUS
 62
     2
 10
873.983333
 20
333.633317
 30
0.0
 40
15.0
  1
１８
 50
0.0
 41
0.9
 51
0.0
  7
KANJI30
  0
TEXT
  8
7
  6
CONTINUOUS
 62
     2
 10
1266.983333
 20
553.233317
 30
0.0
 40
15.0
  1
１１０
 50
90.0
 41
0.9
 51
0.0
  7
KANJI30
  0
TEXT
  8
7
  6
CONTINUOUS
 62
     2
 10
1298.983333
 20
564.483512
 30
0.0
 40
15.0
  1
３３８
 50
90.0
 41
0.9
 51
0.0
  7
KANJI30
  0
TEXT
  8
7
  6
CONTINUOUS
 62
     2
 10
1266.983333
 20
446.983512
 30
0.0
 40
15.0
  1
１０３
 50
90.0
 41
0.9
 51
0.0
  7
KANJI30
  0
TEXT
  8
7
  6
CONTINUOUS
 62
     2
 10
1266.983333
 20
670.733317
 30
0.0
 40
15.0
  1
１２５
 50
90.0
 41
0.9
 51
0.0
  7
KANJI30
  0
TEXT
  8
7
  6
CONTINUOUS
 62
     2
 10
1234.983333
 20
533.633317
 30
0.0
 40
15.0
  1
φ１６Ｈ１０深２２
 50
90.0
 41
0.9
 51
0.0
  7
KANJI30
  0
TEXT
  8
7
  6
CONTINUOUS
 62
     2
 10
1107.583333
 20
779.633317
 30
0.0
 40
15.0
  1
１２２
 50
0.0
 41
0.9
 51
0.0
  7
KANJI30
  0
TEXT
  8
7
  6
CONTINUOUS
 62
     2
 10
1107.583333
 20
362.48382445
 30
0.0
 40
15.0
  1
１２０
 50
0.0
 41
0.9
 51
0.0
  7
KANJI30
  0
TEXT
  8
7
  6
CONTINUOUS
 62
     2
 10
815.583333
 20
573.133317
 30
0.0
 40
15.0
  1
２５
 50
0.0
 41
0.9
 51
0.0
  7
KANJI30
  0
TEXT
  8
0
  6
CONTINUOUS
 62
     3
 10
863.983333
 20
607.633317
 30
0.0
 40
15.0
  1
φ１６
 50
0.0
 41
0.9
 51
0.0
  7
KANJI30
  0
TEXT
  8
0
  6
CONTINUOUS
 62
     3
 10
904.483333
 20
607.633317
 30
0.0
 40
9.0
  1
ｄ９
 50
0.0
 41
0.9
 51
0.0
  7
KANJI42
  0
TEXT
  8
0
  6
CONTINUOUS
 62
     3
 10
904.483333
 20
616.633317
 30
0.0
 40
9.0
  1
Ｈ１０
 50
0.0
 41
0.9
 51
0.0
  7
KANJI42
  0
LINE
  8
0
  6
CONTINUOUS
 62
     1
 10
848.983333
 20
718.633317
 30
0.0
 11
832.983333
 21
718.633317
 31
0.0
  0
LINE
  8
0
  6
CONTINUOUS
 62
     1
 10
825.983333
 20
710.633317
 30
0.0
 11
855.983333
 21
710.633317
 31
0.0
  0
LINE
  8
0
  6
LTYPE2
 62
     2
 10
836.583333
 20
713.283317
 30
0.0
 11
844.983333
 21
713.283317
 31
0.0
  0
LINE
  8
0
  6
CONTINUOUS
 62
     1
 10
805.983333
 20
707.633317
 30
0.0
 11
858.983333
 21
707.633317
 31
0.0
  0
CIRCLE
  8
0
  6
CONTINUOUS
 62
     1
 10
840.983333
 20
713.283317
 30
0.0
 40
2.0
  0
LINE
  8
0
  6
CONTINUOUS
 62
     1
 10
825.983333
 20
707.633317
 30
0.0
 11
825.983333
 21
710.633317
 31
0.0
  0
LINE
  8
0
  6
LTYPE1
 62
     2
 10
832.983333
 20
710.633317
 30
0.0
 11
832.983333
 21
695.633317
 31
0.0
  0
LINE
  8
0
  6
CONTINUOUS
 62
     1
 10
855.983333
 20
707.633317
 30
0.0
 11
855.983333
 21
710.633317
 31
0.0
  0
LINE
  8
0
  6
CONTINUOUS
 62
     1
 10
848.983333
 20
710.633317
 30
0.0
 11
848.983333
 21
718.633317
 31
0.0
  0
LINE
  8
0
  6
LTYPE1
 62
     2
 10
848.983333
 20
695.633317
 30
0.0
 11
848.983333
 21
710.633317
 31
0.0
  0
LINE
  8
0
  6
CONTINUOUS
 62
     1
 10
848.983333
 20
656.633317
 30
0.0
 11
832.983333
 21
656.633317
 31
0.0
  0
LINE
  8
0
  6
CONTINUOUS
 62
     1
 10
848.983333
 20
656.633317
 30
0.0
 11
832.983333
 21
656.633317
 31
0.0
  0
LINE
  8
0
  6
CONTINUOUS
 62
     1
 10
825.983333
 20
664.633317
 30
0.0
 11
855.983333
 21
664.633317
 31
0.0
  0
LINE
  8
0
  6
LTYPE2
 62
     2
 10
836.583333
 20
661.983317
 30
0.0
 11
844.983333
 21
661.983317
 31
0.0
  0
LINE
  8
0
  6
CONTINUOUS
 62
     1
 10
855.983333
 20
667.633317
 30
0.0
 11
855.983333
 21
664.633317
 31
0.0
  0
LINE
  8
0
  6
CONTINUOUS
 62
     1
 10
848.983333
 20
664.633317
 30
0.0
 11
848.983333
 21
656.633317
 31
0.0
  0
LINE
  8
0
  6
CONTINUOUS
 62
     1
 10
848.983333
 20
664.633317
 30
0.0
 11
848.983333
 21
656.633317
 31
0.0
  0
LINE
  8
0
  6
LTYPE1
 62
     2
 10
848.983333
 20
679.633317
 30
0.0
 11
848.983333
 21
664.633317
 31
0.0
  0
LINE
  8
0
  6
CONTINUOUS
 62
     1
 10
825.983333
 20
667.633317
 30
0.0
 11
825.983333
 21
664.633317
 31
0.0
  0
LINE
  8
0
  6
CONTINUOUS
 62
     1
 10
832.983333
 20
656.633317
 30
0.0
 11
832.983333
 21
664.633317
 31
0.0
  0
LINE
  8
0
  6
CONTINUOUS
 62
     1
 10
832.983333
 20
656.633317
 30
0.0
 11
832.983333
 21
664.633317
 31
0.0
  0
LINE
  8
0
  6
LTYPE1
 62
     2
 10
832.983333
 20
664.633317
 30
0.0
 11
832.983333
 21
679.633317
 31
0.0
  0
CIRCLE
  8
0
  6
CONTINUOUS
 62
     1
 10
840.983333
 20
661.983317
 30
0.0
 40
2.0
  0
LINE
  8
0
  6
CONTINUOUS
 62
     1
 10
832.983333
 20
710.633317
 30
0.0
 11
832.983333
 21
718.633317
 31
0.0
  0
CIRCLE
  8
0
  6
CONTINUOUS
 62
     1
 10
840.983333
 20
515.633317
 30
0.0
 40
15.0
  0
CIRCLE
  8
0
  6
CONTINUOUS
 62
     1
 10
840.983317741
 20
526.633317
 30
0.0
 40
3.0
  0
LINE
  8
0
  6
CONTINUOUS
 62
     1
 10
836.783333
 20
503.333317
 30
0.0
 11
838.783333
 21
503.033317
 31
0.0
  0
LINE
  8
0
  6
CONTINUOUS
 62
     1
 10
839.047948385
 20
506.164086231
 30
0.0
 11
836.783333
 21
503.333317
 31
0.0
  0
LINE
  8
0
  6
CONTINUOUS
 62
     1
 10
840.983333
 20
505.733317
 30
0.0
 11
838.783333
 21
503.033317
 31
0.0
  0
LINE
  8
0
  6
CONTINUOUS
 62
     1
 10
839.283333
 20
507.733317
 30
0.0
 11
839.047948385
 21
506.164086231
 31
0.0
  0
LINE
  8
0
  6
CONTINUOUS
 62
     1
 10
845.183333
 20
503.333317
 30
0.0
 11
843.183333
 21
503.033317
 31
0.0
  0
LINE
  8
0
  6
CONTINUOUS
 62
     1
 10
842.918717615
 20
506.164086231
 30
0.0
 11
845.183333
 21
503.333317
 31
0.0
  0
LINE
  8
0
  6
CONTINUOUS
 62
     1
 10
840.983333
 20
505.733317
 30
0.0
 11
843.183333
 21
503.033317
 31
0.0
  0
LINE
  8
0
  6
CONTINUOUS
 62
     1
 10
842.683333
 20
507.733317
 30
0.0
 11
842.918717615
 21
506.164086231
 31
0.0
  0
LINE
  8
0
  6
CONTINUOUS
 62
     1
 10
1093.983333
 20
523.633317
 30
0.0
 11
1093.983333
 21
507.633317
 31
0.0
  0
LINE
  8
0
  6
CONTINUOUS
 62
     1
 10
1101.983333
 20
500.633317
 30
0.0
 11
1101.983333
 21
530.633317
 31
0.0
  0
LINE
  8
0
  6
LTYPE2
 62
     2
 10
1099.333333
 20
511.233317
 30
0.0
 11
1099.333333
 21
519.633317
 31
0.0
  0
CIRCLE
  8
0
  6
CONTINUOUS
 62
     1
 10
1099.333333
 20
515.633317
 30
0.0
 40
2.0
  0
LINE
  8
0
  6
CONTINUOUS
 62
     1
 10
1104.983333
 20
500.633317
 30
0.0
 11
1101.983333
 21
500.633317
 31
0.0
  0
LINE
  8
0
  6
LTYPE1
 62
     2
 10
1101.983333
 20
507.633317
 30
0.0
 11
1116.983333
 21
507.633317
 31
0.0
  0
LINE
  8
0
  6
CONTINUOUS
 62
     1
 10
1104.983333
 20
530.633317
 30
0.0
 11
1101.983333
 21
530.633317
 31
0.0
  0
LINE
  8
0
  6
CONTINUOUS
 62
     1
 10
1101.983333
 20
523.633317
 30
0.0
 11
1093.983333
 21
523.633317
 31
0.0
  0
LINE
  8
0
  6
LTYPE1
 62
     2
 10
1116.983333
 20
523.633317
 30
0.0
 11
1101.983333
 21
523.633317
 31
0.0
  0
LINE
  8
0
  6
CONTINUOUS
 62
     1
 10
1155.983333
 20
523.633317
 30
0.0
 11
1155.983333
 21
507.633317
 31
0.0
  0
LINE
  8
0
  6
CONTINUOUS
 62
     1
 10
1155.983333
 20
523.633317
 30
0.0
 11
1155.983333
 21
507.633317
 31
0.0
  0
LINE
  8
0
  6
CONTINUOUS
 62
     1
 10
1147.983333
 20
500.633317
 30
0.0
 11
1147.983333
 21
530.633317
 31
0.0
  0
LINE
  8
0
  6
LTYPE2
 62
     2
 10
1150.633333
 20
511.233317
 30
0.0
 11
1150.633333
 21
519.633317
 31
0.0
  0
LINE
  8
0
  6
CONTINUOUS
 62
     1
 10
1144.983333
 20
530.633317
 30
0.0
 11
1147.983333
 21
530.633317
 31
0.0
  0
LINE
  8
0
  6
CONTINUOUS
 62
     1
 10
1147.983333
 20
523.633317
 30
0.0
 11
1155.983333
 21
523.633317
 31
0.0
  0
LINE
  8
0
  6
CONTINUOUS
 62
     1
 10
1147.983333
 20
523.633317
 30
0.0
 11
1155.983333
 21
523.633317
 31
0.0
  0
LINE
  8
0
  6
LTYPE1
 62
     2
 10
1132.983333
 20
523.633317
 30
0.0
 11
1147.983333
 21
523.633317
 31
0.0
  0
LINE
  8
0
  6
CONTINUOUS
 62
     1
 10
1144.983333
 20
500.633317
 30
0.0
 11
1147.983333
 21
500.633317
 31
0.0
  0
LINE
  8
0
  6
CONTINUOUS
 62
     1
 10
1155.983333
 20
507.633317
 30
0.0
 11
1147.983333
 21
507.633317
 31
0.0
  0
LINE
  8
0
  6
CONTINUOUS
 62
     1
 10
1155.983333
 20
507.633317
 30
0.0
 11
1147.983333
 21
507.633317
 31
0.0
  0
LINE
  8
0
  6
LTYPE1
 62
     2
 10
1147.983333
 20
507.633317
 30
0.0
 11
1132.983333
 21
507.633317
 31
0.0
  0
CIRCLE
  8
0
  6
CONTINUOUS
 62
     1
 10
1150.633333
 20
515.633317
 30
0.0
 40
2.0
  0
LINE
  8
0
  6
CONTINUOUS
 62
     1
 10
1101.983333
 20
507.633317
 30
0.0
 11
1093.983333
 21
507.633317
 31
0.0
  0
LINE
  8
0
  6
CONTINUOUS
 62
     2
 10
451.142591263
 20
269.221507451
 30
0.0
 11
865.142591263
 21
269.221507451
 31
0.0
  0
TEXT
  8
0
  6
CONTINUOUS
 62
     2
 10
453.142591263
 20
277.221507451
 30
0.0
 40
20.0
  1
推力リミッタの作動値は、約１１０ｋｇ（設計値）
 50
0.0
 41
0.925
 51
0.0
  7
KANJI41
  0
TEXT
  8
0
  6
CONTINUOUS
 62
     2
 10
883.4275
 20
1258.325
 30
1.3475
 40
13.475
  1
注意：サーマルリレー等の選定は、上記の値で選定して下さい。
 50
0.0
 41
0.9
 51
0.0
  7
KANJI43
  0
LINE
  8
0
  6
CONTINUOUS
 62
     2
 10
875.7275
 20
1254.475
 30
0.0
 11
1263.65
 21
1254.475
 31
0.0
  0
TEXT
  8
0
  6
CONTINUOUS
 62
     2
 10
1493.25
 20
543.25
 30
10.0
 40
20.0
  1
特記事項
 50
0.0
 41
0.9
 51
0.0
  7
KANJI44
  0
TEXT
  8
0
  6
CONTINUOUS
 62
     2
 10
1423.25
 20
503.25
 30
5.142857143
 40
18.0
  1
１。運転時は必ずピストンロッドの回転防止を行って下さい。
 50
0.0
 41
0.857142857
 51
0.0
  7
KANJI45
  0
TEXT
  8
0
  6
CONTINUOUS
 62
     2
 10
1423.25
 20
469.25
 30
5.13
 40
18.0
  1
２。モートル：全閉自冷かご形３０分定格
 50
0.0
 41
0.857222222
 51
0.0
  7
KANJI46
  0
TEXT
  8
0
  6
CONTINUOUS
 62
     2
 10
1422.9165915
 20
435.250003
 30
5.13
 40
18.0
  1
３。呼称ストロークは、機械的ストロークです。
 50
0.0
 41
0.857222222
 51
0.0
  7
KANJI46
  0
TEXT
  8
0
  6
CONTINUOUS
 62
     2
 10
1422.9165915
 20
406.500003
 30
5.13
 40
18.0
  1
　　必ず、常用はストローク両端に余裕を取って下さい。
 50
0.0
 41
0.857222222
 51
0.0
  7
KANJI46
  0
TEXT
  8
0
  6
CONTINUOUS
 62
     2
 10
1423.6765915
 20
373.460003
 30
5.13
 40
18.0
  1
　　前後の推奨余裕寸法は、各々１５ｍｍです。
 50
0.0
 41
0.857222222
 51
0.0
  7
KANJI46
  0
LINE
  8
0
  6
CONTINUOUS
 62
     2
 10
1479.25
 20
537.75
 30
0.0
 11
1601.25
 21
537.75
 31
0.0
  0
TEXT
  8
0
  6
CONTINUOUS
 62
     2
 10
381.883333
 20
580.633317
 30
0.0
 40
15.0
  1
エコノストップモータ
 50
0.0
 41
0.9
 51
0.0
  7
KANJI30
  0
TEXT
  8
0
  6
CONTINUOUS
 62
     2
 10
384.783333
 20
597.633317
 30
0.0
 40
15.0
  1
日本電産
 50
0.0
 41
0.9
 51
0.0
  7
KANJI30
  0
LINE
  8
7
  6
CONTINUOUS
 62
     2
 10
495.983333
 20
579.633317
 30
0.0
 11
495.983333
 21
568.633317
 31
0.0
  0
LINE
  8
7
  6
CONTINUOUS
 62
     2
 10
495.983333
 20
682.633317
 30
0.0
 11
495.983333
 21
596.133317
 31
0.0
  0
LINE
  8
0
  6
CONTINUOUS
 62
     1
 10
1104.983333
 20
426.133317
 30
0.0
 11
1104.983333
 21
469.133317
 31
0.0
  0
LINE
  8
0
  6
LTYPE2
 62
     2
 10
1108.983333
 20
443.133317
 30
0.0
 11
1139.983333
 21
443.133317
 31
0.0
  0
CIRCLE
  8
0
  6
CONTINUOUS
 62
     2
 10
1124.983333
 20
443.133317
 30
0.0
 40
11.0
  0
CIRCLE
  8
0
  6
CONTINUOUS
 62
     2
 10
1124.983333
 20
443.133317
 30
0.0
 40
9.5
  0
LINE
  8
0
  6
CONTINUOUS
 62
     1
 10
1144.983333
 20
426.133317
 30
0.0
 11
1144.983333
 21
469.133317
 31
0.0
  0
LINE
  8
0
  6
CONTINUOUS
 62
     1
 10
355.0
 20
591.0
 30
0.0
 11
312.0
 21
591.0
 31
0.0
  0
TEXT
  8
0
  6
CONTINUOUS
 62
     2
 10
317.0
 20
580.0
 30
5.0
 40
20.0
  1
銘板
 50
270.0
 41
0.925
 51
0.0
  7
KANJI47
  0
LINE
  8
0
  6
CONTINUOUS
 62
     1
 10
312.0
 20
591.0
 30
0.0
 11
312.0
 21
521.0
 31
0.0
  0
LINE
  8
0
  6
CONTINUOUS
 62
     1
 10
355.0
 20
591.0
 30
0.0
 11
355.0
 21
521.0
 31
0.0
  0
LINE
  8
0
  6
CONTINUOUS
 62
     1
 10
355.0
 20
521.0
 30
0.0
 11
312.0
 21
521.0
 31
0.0
  0
LINE
  8
0
  6
CONTINUOUS
 62
     1
 10
460.283333
 20
418.633317
 30
0.0
 11
449.683333
 21
418.633317
 31
0.0
  0
ARC
  8
0
  6
CONTINUOUS
 62
     1
 10
455.383333
 20
419.633317
 30
0.0
 40
5.0
 50
272.3
 51
348.5
  0
ARC
  8
0
  6
CONTINUOUS
 62
     1
 10
454.583333
 20
419.633317
 30
0.0
 40
5.0
 50
191.5
 51
267.7
  0
LINE
  8
0
  6
CONTINUOUS
 62
     1
 10
455.583333
 20
414.633317
 30
0.0
 11
454.383333
 21
414.633317
 31
0.0
  0
LINE
  8
0
  6
LTYPE5
 62
     2
 10
454.983333
 20
411.233317
 30
0.0
 11
454.983333
 21
424.633317
 31
0.0
  0
LINE
  8
0
  6
CONTINUOUS
 62
     1
 10
576.283333
 20
418.633317
 30
0.0
 11
565.683333
 21
418.633317
 31
0.0
  0
ARC
  8
0
  6
CONTINUOUS
 62
     1
 10
571.383333
 20
419.633317
 30
0.0
 40
5.0
 50
272.3
 51
348.5
  0
ARC
  8
0
  6
CONTINUOUS
 62
     1
 10
570.583333
 20
419.633317
 30
0.0
 40
5.0
 50
191.5
 51
267.7
  0
LINE
  8
0
  6
CONTINUOUS
 62
     1
 10
571.583333
 20
414.633317
 30
0.0
 11
570.383333
 21
414.633317
 31
0.0
  0
LINE
  8
0
  6
LTYPE5
 62
     2
 10
570.983333
 20
411.233317
 30
0.0
 11
570.983333
 21
424.633317
 31
0.0
  0
TEXT
  8
7
  6
CONTINUOUS
 62
     2
 10
775.083333
 20
404.633317
 30
-1.5
 40
15.0
  1
ｍｉｎ
 50
0.0
 41
0.8
 51
0.0
  7
KANJI48
  0
LINE
  8
0
  6
CONTINUOUS
 62
     1
 10
1083.283333
 20
418.633317
 30
0.0
 11
1072.683333
 21
418.633317
 31
0.0
  0
ARC
  8
0
  6
CONTINUOUS
 62
     1
 10
1078.383333
 20
419.633317
 30
0.0
 40
5.0
 50
272.3
 51
348.5
  0
ARC
  8
0
  6
CONTINUOUS
 62
     1
 10
1077.583333
 20
419.633317
 30
0.0
 40
5.0
 50
191.5
 51
267.7
  0
LINE
  8
0
  6
CONTINUOUS
 62
     1
 10
1078.583333
 20
414.633317
 30
0.0
 11
1077.383333
 21
414.633317
 31
0.0
  0
LINE
  8
0
  6
LTYPE5
 62
     2
 10
1077.983333
 20
411.233317
 30
0.0
 11
1077.983333
 21
424.633317
 31
0.0
  0
LINE
  8
0
  6
CONTINUOUS
 62
     1
 10
1177.283333
 20
418.633317
 30
0.0
 11
1166.683333
 21
418.633317
 31
0.0
  0
ARC
  8
0
  6
CONTINUOUS
 62
     1
 10
1172.383333
 20
419.633317
 30
0.0
 40
5.0
 50
272.3
 51
348.5
  0
ARC
  8
0
  6
CONTINUOUS
 62
     1
 10
1171.583333
 20
419.633317
 30
0.0
 40
5.0
 50
191.5
 51
267.7
  0
LINE
  8
0
  6
CONTINUOUS
 62
     1
 10
1172.583333
 20
414.633317
 30
0.0
 11
1171.383333
 21
414.633317
 31
0.0
  0
LINE
  8
0
  6
LTYPE5
 62
     2
 10
1171.983333
 20
411.233317
 30
0.0
 11
1171.983333
 21
424.633317
 31
0.0
  0
LINE
  8
0
  6
CONTINUOUS
 62
     2
 10
945.483333
 20
548.933317
 30
0.0
 11
933.409260171
 21
552.168555064
 31
0.0
  0
LINE
  8
0
  6
CONTINUOUS
 62
     2
 10
945.483333
 20
548.933317
 30
0.0
 11
933.409260171
 21
545.698078936
 31
0.0
  0
LINE
  8
0
  6
CONTINUOUS
 62
     2
 10
945.483333
 20
548.933317
 30
0.0
 11
904.483333
 21
548.933317
 31
0.0
  0
TEXT
  8
0
  6
CONTINUOUS
 62
     3
 10
911.483333
 20
558.933317
 30
0.0
 40
20.0
  1
前進
 50
0.0
 41
0.925
 51
0.0
  7
KANJI41
  0
TEXT
  8
0
  6
CONTINUOUS
 62
     6
 10
385.343715102
 20
1313.121931782
 30
0.0
 40
11.8638
  1
ＡＣ１００Ｖ　１２５Ｖ　２５０Ｖ　－１０Ａ
 50
0.0
 41
0.726495726
 51
0.0
  7
KANJI27
  0
LINE
  8
0
  6
CONTINUOUS
 62
     2
 10
482.0
 20
190.75
 30
0.0
 11
489.72740661
 21
188.679447639
 31
0.0
  0
LINE
  8
0
  6
CONTINUOUS
 62
     2
 10
482.0
 20
190.75
 30
0.0
 11
489.72740661
 21
192.820552361
 31
0.0
  0
LINE
  8
0
  6
CONTINUOUS
 62
     2
 10
482.0
 20
190.75
 30
0.0
 11
619.6
 21
190.75
 31
0.0
  0
LINE
  8
0
  6
CONTINUOUS
 62
     2
 10
619.6
 20
190.75
 30
0.0
 11
611.87259339
 21
192.820552361
 31
0.0
  0
LINE
  8
0
  6
CONTINUOUS
 62
     2
 10
619.6
 20
190.75
 30
0.0
 11
611.87259339
 21
188.679447639
 31
0.0
  0
LINE
  8
0
  6
CONTINUOUS
 62
     2
 10
619.6
 20
189.55
 30
0.0
 11
619.6
 21
186.75
 31
0.0
  0
LINE
  8
0
  6
CONTINUOUS
 62
     2
 10
619.6
 20
190.75
 30
0.0
 11
627.32740661
 21
188.679447639
 31
0.0
  0
LINE
  8
0
  6
CONTINUOUS
 62
     2
 10
619.6
 20
190.75
 30
0.0
 11
627.32740661
 21
192.820552361
 31
0.0
  0
LINE
  8
0
  6
CONTINUOUS
 62
     2
 10
619.6
 20
190.75
 30
0.0
 11
822.0
 21
190.75
 31
0.0
  0
LINE
  8
0
  6
CONTINUOUS
 62
     2
 10
822.0
 20
190.75
 30
0.0
 11
814.27259339
 21
192.820552361
 31
0.0
  0
LINE
  8
0
  6
CONTINUOUS
 62
     2
 10
822.0
 20
190.75
 30
0.0
 11
814.27259339
 21
188.679447639
 31
0.0
  0
LINE
  8
0
  6
CONTINUOUS
 62
     2
 10
619.6
 20
164.420552361
 30
0.0
 11
611.87259339
 21
166.491104722
 31
0.0
  0
LINE
  8
0
  6
CONTINUOUS
 62
     2
 10
619.6
 20
164.420552361
 30
0.0
 11
611.87259339
 21
162.35
 31
0.0
  0
LINE
  8
0
  6
CONTINUOUS
 62
     2
 10
607.6
 20
164.420552361
 30
0.0
 11
619.6
 21
164.420552361
 31
0.0
  0
LINE
  8
0
  6
CONTINUOUS
 62
     2
 10
619.6
 20
164.420552361
 30
0.0
 11
640.4
 21
164.420552361
 31
0.0
  0
LINE
  8
0
  6
CONTINUOUS
 62
     2
 10
640.4
 20
164.420552361
 30
0.0
 11
648.12740661
 21
162.35
 31
0.0
  0
LINE
  8
0
  6
CONTINUOUS
 62
     2
 10
640.4
 20
164.420552361
 30
0.0
 11
648.12740661
 21
166.491104722
 31
0.0
  0
LINE
  8
0
  6
CONTINUOUS
 62
     2
 10
482.0
 20
139.15
 30
0.0
 11
482.0
 21
133.15
 31
0.0
  0
LINE
  8
0
  6
CONTINUOUS
 62
     2
 10
482.0
 20
137.15
 30
0.0
 11
489.72740661
 21
135.079447639
 31
0.0
  0
LINE
  8
0
  6
CONTINUOUS
 62
     2
 10
482.0
 20
137.15
 30
0.0
 11
489.72740661
 21
139.220552361
 31
0.0
  0
LINE
  8
0
  6
CONTINUOUS
 62
     2
 10
482.0
 20
137.15
 30
0.0
 11
640.4
 21
137.15
 31
0.0
  0
LINE
  8
0
  6
CONTINUOUS
 62
     2
 10
640.4
 20
137.15
 30
0.0
 11
632.67259339
 21
139.220552361
 31
0.0
  0
LINE
  8
0
  6
CONTINUOUS
 62
     2
 10
640.4
 20
137.15
 30
0.0
 11
632.67259339
 21
135.079447639
 31
0.0
  0
LINE
  8
0
  6
CONTINUOUS
 62
     2
 10
640.4
 20
138.35
 30
0.0
 11
640.4
 21
133.15
 31
0.0
  0
LINE
  8
0
  6
CONTINUOUS
 62
     2
 10
640.4
 20
137.15
 30
0.0
 11
648.12740661
 21
135.079447639
 31
0.0
  0
LINE
  8
0
  6
CONTINUOUS
 62
     2
 10
640.4
 20
137.15
 30
0.0
 11
648.12740661
 21
139.220552361
 31
0.0
  0
LINE
  8
0
  6
CONTINUOUS
 62
     2
 10
822.0
 20
133.55
 30
0.0
 11
822.0
 21
133.15
 31
0.0
  0
LINE
  8
0
  6
CONTINUOUS
 62
     2
 10
482.0
 20
107.95
 30
0.0
 11
489.72740661
 21
105.879447639
 31
0.0
  0
LINE
  8
0
  6
CONTINUOUS
 62
     2
 10
482.0
 20
107.95
 30
0.0
 11
489.72740661
 21
110.020552361
 31
0.0
  0
LINE
  8
0
  6
CONTINUOUS
 62
     2
 10
482.0
 20
107.95
 30
0.0
 11
799.6
 21
107.95
 31
0.0
  0
LINE
  8
0
  6
CONTINUOUS
 62
     2
 10
799.6
 20
107.95
 30
0.0
 11
791.87259339
 21
110.020552361
 31
0.0
  0
LINE
  8
0
  6
CONTINUOUS
 62
     2
 10
799.6
 20
107.95
 30
0.0
 11
791.87259339
 21
105.879447639
 31
0.0
  0
LINE
  8
0
  6
CONTINUOUS
 62
     2
 10
799.6
 20
108.75
 30
0.0
 11
799.6
 21
103.95
 31
0.0
  0
LINE
  8
0
  6
CONTINUOUS
 62
     2
 10
799.6
 20
107.95
 30
0.0
 11
791.87259339
 21
110.020552361
 31
0.0
  0
LINE
  8
0
  6
CONTINUOUS
 62
     2
 10
799.6
 20
107.95
 30
0.0
 11
791.87259339
 21
105.879447639
 31
0.0
  0
LINE
  8
0
  6
CONTINUOUS
 62
     2
 10
787.6
 20
107.95
 30
0.0
 11
799.6
 21
107.95
 31
0.0
  0
LINE
  8
0
  6
CONTINUOUS
 62
     2
 10
799.6
 20
107.95
 30
0.0
 11
822.0
 21
107.95
 31
0.0
  0
LINE
  8
0
  6
CONTINUOUS
 62
     2
 10
822.0
 20
107.95
 30
0.0
 11
829.72740661
 21
105.879447639
 31
0.0
  0
LINE
  8
0
  6
CONTINUOUS
 62
     2
 10
822.0
 20
107.95
 30
0.0
 11
829.72740661
 21
110.020552361
 31
0.0
  0
LINE
  8
0
  6
CONTINUOUS
 62
     2
 10
482.0
 20
201.55
 30
0.0
 11
482.0
 21
186.75
 31
0.0
  0
LINE
  8
0
  6
CONTINUOUS
 62
     2
 10
822.0
 20
201.55
 30
0.0
 11
822.0
 21
186.75
 31
0.0
  0
LINE
  8
0
  6
CONTINUOUS
 62
     2
 10
619.6
 20
190.35
 30
0.0
 11
619.6
 21
201.55
 31
0.0
  0
LINE
  8
0
  6
CONTINUOUS
 62
     2
 10
640.4
 20
177.220552361
 30
0.0
 11
640.4
 21
160.420552361
 31
0.0
  0
LINE
  8
0
  6
CONTINUOUS
 62
     2
 10
482.0
 20
186.75
 30
0.0
 11
482.0
 21
94.75
 31
0.0
  0
LINE
  8
0
  6
CONTINUOUS
 62
     2
 10
822.0
 20
190.75
 30
0.0
 11
822.0
 21
95.95
 31
0.0
  0
LINE
  8
0
  6
CONTINUOUS
 62
     2
 10
640.4
 20
164.420552361
 30
0.0
 11
640.4
 21
127.95
 31
0.0
  0
LINE
  8
0
  6
CONTINUOUS
 62
     2
 10
619.6
 20
190.75
 30
0.0
 11
619.6
 21
155.15
 31
0.0
  0
TEXT
  8
0
  6
CONTINUOUS
 62
     3
 10
523.8
 20
192.75
 30
0.0
 40
15.0
  1
ｍｉｎ．Ｌ
 50
0.0
 41
0.9
 51
0.0
  7
KANJI30
  0
TEXT
  8
0
  6
CONTINUOUS
 62
     3
 10
677.6
 20
192.75
 30
0.0
 40
15.0
  1
機械的ストローク
 50
0.0
 41
0.9
 51
0.0
  7
KANJI30
  0
TEXT
  8
0
  6
CONTINUOUS
 62
     3
 10
652.4
 20
166.420552361
 30
0.0
 40
15.0
  1
余裕
 50
0.0
 41
0.9
 51
0.0
  7
KANJI30
  0
TEXT
  8
0
  6
CONTINUOUS
 62
     3
 10
534.2
 20
139.15
 30
0.0
 40
15.0
  1
常用ｍｉｎ
 50
0.0
 41
0.9
 51
0.0
  7
KANJI30
  0
TEXT
  8
0
  6
CONTINUOUS
 62
     3
 10
693.4
 20
139.15
 30
0.0
 40
15.0
  1
常用ストローク
 50
0.0
 41
0.9
 51
0.0
  7
KANJI30
  0
TEXT
  8
0
  6
CONTINUOUS
 62
     3
 10
613.8
 20
109.95
 30
0.0
 40
15.0
  1
常用ｍａｘ
 50
0.0
 41
0.9
 51
0.0
  7
KANJI30
  0
TEXT
  8
0
  6
CONTINUOUS
 62
     3
 10
834.0
 20
109.95
 30
0.0
 40
15.0
  1
余裕
 50
0.0
 41
0.9
 51
0.0
  7
KANJI30
  0
LINE
  8
0
  6
CONTINUOUS
 62
     2
 10
640.4
 20
164.420552361
 30
0.0
 11
680.5
 21
164.420552361
 31
0.0
  0
LINE
  8
0
  6
CONTINUOUS
 62
     2
 10
822.0
 20
107.95
 30
0.0
 11
864.5
 21
107.95
 31
0.0
  0
LINE
  8
0
  6
CONTINUOUS
 62
     1
 10
849.25
 20
970.7
 30
0.0
 11
1497.25
 21
970.7
 31
0.0
  0
LINE
  8
0
  6
CONTINUOUS
 62
     1
 10
849.25
 20
1222.7
 30
0.0
 11
849.25
 21
970.7
 31
0.0
  0
LINE
  8
0
  6
CONTINUOUS
 62
     1
 10
1017.25
 20
1222.7
 30
0.0
 11
1017.25
 21
970.7
 31
0.0
  0
LINE
  8
0
  6
CONTINUOUS
 62
     2
 10
1097.25
 20
1222.7
 30
0.0
 11
1097.25
 21
970.7
 31
0.0
  0
LINE
  8
0
  6
CONTINUOUS
 62
     2
 10
1177.25
 20
1222.7
 30
0.0
 11
1177.25
 21
970.7
 31
0.0
  0
LINE
  8
0
  6
CONTINUOUS
 62
     2
 10
1257.25
 20
1222.7
 30
0.0
 11
1257.25
 21
970.7
 31
0.0
  0
LINE
  8
0
  6
CONTINUOUS
 62
     2
 10
1337.25
 20
1222.7
 30
0.0
 11
1337.25
 21
970.7
 31
0.0
  0
LINE
  8
0
  6
CONTINUOUS
 62
     2
 10
1417.25
 20
1222.7
 30
0.0
 11
1417.25
 21
970.7
 31
0.0
  0
LINE
  8
0
  6
CONTINUOUS
 62
     1
 10
1497.25
 20
1222.7
 30
0.0
 11
1497.25
 21
970.7
 31
0.0
  0
TEXT
  8
0
  6
CONTINUOUS
 62
     2
 10
862.25
 20
977.1
 30
0.8
 40
12.0
  1
ＭＣＬＢ０１－　　　Ｊ
 50
0.0
 41
0.833333333
 51
0.0
  7
KANJI31
  0
LINE
  8
0
  6
CONTINUOUS
 62
     2
 10
799.6
 20
151.0
 30
0.0
 11
799.6
 21
95.15
 31
0.0
  0
LINE
  8
0
  6
CONTINUOUS
 62
     2
 10
640.4
 20
137.15
 30
0.0
 11
799.6
 21
137.15
 31
0.0
  0
LINE
  8
0
  6
CONTINUOUS
 62
     2
 10
799.6
 20
137.15
 30
0.0
 11
791.87259339
 21
139.220552361
 31
0.0
  0
LINE
  8
0
  6
CONTINUOUS
 62
     2
 10
799.6
 20
137.15
 30
0.0
 11
791.87259339
 21
135.079447639
 31
0.0
  0
LINE
  8
7
  6
CONTINUOUS
 62
     2
 10
1198.501190143
 20
625.633317
 30
0.0
 11
1215.501190143
 21
625.633317
 31
0.0
  0
TEXT
  8
0
  6
CONTINUOUS
 62
     2
 10
1377.9166945
 20
85.749995
 30
1.5
 40
17.5
  1
０７．０９．２６
 50
0.0
 41
0.571428571
 51
0.0
  7
KANJI49
  0
LINE
  8
0
  6
CONTINUOUS
 62
     1
 10
1565.75
 20
1337.25
 30
0.0
 11
2003.25
 21
1337.25
 31
0.0
  0
TEXT
  8
0
  6
CONTINUOUS
 62
     2
 10
1628.25
 20
1300.75
 30
14.2497
 40
22.5
  1
マイティシリンダ仕様
 50
0.0
 41
0.9
 51
0.0
  7
KANJI50
  0
LINE
  8
0
  6
CONTINUOUS
 62
     2
 10
1565.75
 20
727.25
 30
0.0
 11
2003.25
 21
727.25
 31
0.0
  0
LINE
  8
0
  6
CONTINUOUS
 62
     2
 10
1565.75
 20
692.25
 30
0.0
 11
2003.25
 21
692.25
 31
0.0
  0
LINE
  8
0
  6
CONTINUOUS
 62
     2
 10
1605.75
 20
762.25
 30
0.0
 11
2003.25
 21
762.25
 31
0.0
  0
LINE
  8
0
  6
CONTINUOUS
 62
     2
 10
1605.75
 20
1007.25
 30
0.0
 11
1605.75
 21
727.25
 31
0.0
  0
LINE
  8
0
  6
CONTINUOUS
 62
     2
 10
1605.75
 20
867.25
 30
0.0
 11
2003.25
 21
867.25
 31
0.0
  0
LINE
  8
0
  6
CONTINUOUS
 62
     2
 10
1605.75
 20
902.25
 30
0.0
 11
2003.25
 21
902.25
 31
0.0
  0
LINE
  8
0
  6
CONTINUOUS
 62
     2
 10
1565.75
 20
1077.25
 30
0.0
 11
2003.25
 21
1077.25
 31
0.0
  0
LINE
  8
0
  6
CONTINUOUS
 62
     2
 10
1565.75
 20
1042.25
 30
0.0
 11
2003.25
 21
1042.25
 31
0.0
  0
LINE
  8
0
  6
CONTINUOUS
 62
     2
 10
1565.75
 20
1007.25
 30
0.0
 11
2003.25
 21
1007.25
 31
0.0
  0
LINE
  8
0
  6
CONTINUOUS
 62
     2
 10
1605.75
 20
937.25
 30
0.0
 11
2003.25
 21
937.25
 31
0.0
  0
LINE
  8
0
  6
CONTINUOUS
 62
     2
 10
1605.75
 20
972.25
 30
0.0
 11
2003.25
 21
972.25
 31
0.0
  0
LINE
  8
0
  6
CONTINUOUS
 62
     2
 10
1565.75
 20
1252.25
 30
0.0
 11
2003.25
 21
1252.25
 31
0.0
  0
LINE
  8
0
  6
CONTINUOUS
 62
     2
 10
1565.75
 20
1217.25
 30
0.0
 11
2003.25
 21
1217.25
 31
0.0
  0
LINE
  8
0
  6
CONTINUOUS
 62
     2
 10
1565.75
 20
1182.25
 30
0.0
 11
2003.25
 21
1182.25
 31
0.0
  0
LINE
  8
0
  6
CONTINUOUS
 62
     2
 10
1565.75
 20
1147.25
 30
0.0
 11
2003.25
 21
1147.25
 31
0.0
  0
LINE
  8
0
  6
CONTINUOUS
 62
     2
 10
1565.75
 20
1112.25
 30
0.0
 11
2003.25
 21
1112.25
 31
0.0
  0
LINE
  8
0
  6
CONTINUOUS
 62
     2
 10
1565.75
 20
1287.25
 30
0.0
 11
2003.25
 21
1287.25
 31
0.0
  0
TEXT
  8
0
  6
CONTINUOUS
 62
     2
 10
1628.25
 20
946.25
 30
27.866485714
 40
19.0
  1
電源電圧
 50
0.0
 41
0.9
 51
0.0
  7
KANJI51
  0
TEXT
  8
0
  6
CONTINUOUS
 62
     2
 10
1628.25
 20
911.25
 30
50.35
 40
19.0
  1
周波数
 50
0.0
 41
0.9
 51
0.0
  7
KANJI52
  0
TEXT
  8
0
  6
CONTINUOUS
 62
     2
 10
1628.25
 20
876.25
 30
117.8
 40
19.0
  1
電流
 50
0.0
 41
0.9
 51
0.0
  7
KANJI53
  0
TEXT
  8
0
  6
CONTINUOUS
 62
     2
 10
1628.25
 20
841.25
 30
50.35
 40
19.0
  1
絶縁級
 50
0.0
 41
0.9
 51
0.0
  7
KANJI52
  0
TEXT
  8
0
  6
CONTINUOUS
 62
     2
 10
1593.25
 20
1261.25
 30
150.371428571
 40
19.0
  1
形式
 50
0.0
 41
0.9
 51
0.0
  7
KANJI54
  0
TEXT
  8
0
  6
CONTINUOUS
 62
     2
 10
1593.25
 20
1226.25
 30
150.371428571
 40
19.0
  1
推力
 50
0.0
 41
0.9
 51
0.0
  7
KANJI54
  0
TEXT
  8
0
  6
CONTINUOUS
 62
     2
 10
1593.25
 20
1191.25
 30
24.767857143
 40
19.0
  1
ストローク
 50
0.0
 41
0.9
 51
0.0
  7
KANJI55
  0
TEXT
  8
0
  6
CONTINUOUS
 62
     2
 10
1593.25
 20
1086.25
 30
150.371428571
 40
19.0
  1
構造
 50
0.0
 41
0.9
 51
0.0
  7
KANJI54
  0
TEXT
  8
0
  6
CONTINUOUS
 62
     2
 10
1593.25
 20
1051.25
 30
10.811542857
 40
19.0
  1
過負荷安全装置
 50
0.0
 41
0.9
 51
0.0
  7
KANJI56
  0
TEXT
  8
0
  6
CONTINUOUS
 62
     2
 10
1593.25
 20
1016.25
 30
66.635714286
 40
19.0
  1
塗装色
 50
0.0
 41
0.9
 51
0.0
  7
KANJI57
  0
TEXT
  8
0
  6
CONTINUOUS
 62
     2
 10
1573.25
 20
1121.25
 30
1.628571429
 40
19.0
  1
ピストンロッド回転トルク
 50
0.0
 41
0.9
 51
0.0
  7
KANJI58
  0
TEXT
  8
0
  6
CONTINUOUS
 62
     2
 10
1593.25
 20
701.25
 30
66.635714286
 40
19.0
  1
付属品
 50
0.0
 41
0.9
 51
0.0
  7
KANJI57
  0
LINE
  8
0
  6
CONTINUOUS
 62
     2
 10
1565.75
 20
832.25
 30
0.0
 11
2003.25
 21
832.25
 31
0.0
  0
LINE
  8
0
  6
CONTINUOUS
 62
     2
 10
1605.75
 20
797.25
 30
0.0
 11
2003.25
 21
797.25
 31
0.0
  0
TEXT
  8
0
  6
CONTINUOUS
 62
     2
 10
1586.125
 20
1002.25
 30
11.0
 40
17.5
  1
モ　トル仕様
 50
0.0
 41
0.9
 51
0.0
  7
KANJI59
  0
TEXT
  8
0
  6
CONTINUOUS
 62
     2
 10
1586.125
 20
817.25
 30
1.0
 40
17.5
  1
ブレ　キ
 50
0.0
 41
0.9
 51
0.0
  7
KANJI60
  0
LINE
  8
0
  6
CONTINUOUS
 62
     2
 10
1584.75
 20
775.75
 30
0.0
 11
1584.75
 21
765.25
 31
0.0
  0
TEXT
  8
0
  6
CONTINUOUS
 62
     2
 10
1844.5
 20
1052.25
 30
7.5
 40
17.5
  1
推力リミッタ
 50
0.0
 41
0.9
 51
0.0
  7
KANJI61
  0
TEXT
  8
0
  6
CONTINUOUS
 62
     2
 10
1892.0
 20
842.25
 30
1.5
 40
15.0
  1
Ｅ
 50
0.0
 41
0.9
 51
0.0
  7
KANJI62
  0
TEXT
  8
0
  6
CONTINUOUS
 62
     2
 10
1855.75
 20
771.25
 30
10.0
 40
17.5
  1
同時切り
 50
0.0
 41
0.9
 51
0.0
  7
KANJI63
  0
TEXT
  8
0
  6
CONTINUOUS
 62
     2
 10
1628.25
 20
806.25
 30
117.8
 40
19.0
  1
形式
 50
0.0
 41
0.9
 51
0.0
  7
KANJI53
  0
TEXT
  8
0
  6
CONTINUOUS
 62
     2
 10
1628.25
 20
771.25
 30
27.866485714
 40
19.0
  1
操作方式
 50
0.0
 41
0.9
 51
0.0
  7
KANJI51
  0
LINE
  8
0
  6
CONTINUOUS
 62
     2
 10
1584.75
 20
971.75
 30
0.0
 11
1584.75
 21
960.25
 31
0.0
  0
TEXT
  8
0
  6
CONTINUOUS
 62
     2
 10
1628.25
 20
981.25
 30
2.5
 40
19.0
  1
出力　相数　極数
 50
0.0
 41
0.9
 51
0.0
  7
KANJI64
  0
TEXT
  8
0
  6
CONTINUOUS
 62
     2
 10
1844.5
 20
1087.25
 30
7.5
 40
17.5
  1
全閉屋外形
 50
0.0
 41
0.9
 51
0.0
  7
KANJI61
  0
TEXT
  8
0
  6
CONTINUOUS
 62
     2
 10
1593.25
 20
1156.25
 30
10.0
 40
19.0
  1
公称速度
 50
0.0
 41
0.9
 51
0.0
  7
KANJI65
  0
TEXT
  8
0
  6
CONTINUOUS
 62
     2
 10
1696.5
 20
1155.25
 30
0.0
 40
17.5
  1
（５０／６０Ｈｚ）
 50
0.0
 41
0.628571429
 51
0.0
  7
KANJI66
  0
TEXT
  8
0
  6
CONTINUOUS
 62
     2
 10
1797.0
 20
806.625
 30
2.75
 40
17.0
  1
スプリング制動式電磁ブレーキ
 50
0.0
 41
0.705882353
 51
0.0
  7
KANJI67
  0
TEXT
  8
0
  6
CONTINUOUS
 62
     2
 10
1979.5
 20
946.25
 30
0.18
 40
15.0
  1
Ｖ
 50
0.0
 41
0.8
 51
0.0
  7
KANJI68
  0
TEXT
  8
0
  6
CONTINUOUS
 62
     2
 10
1970.5
 20
911.25
 30
0.18
 40
15.0
  1
Ｈｚ
 50
0.0
 41
0.8
 51
0.0
  7
KANJI68
  0
TEXT
  8
0
  6
CONTINUOUS
 62
     2
 10
1979.5
 20
876.25
 30
0.18
 40
15.0
  1
Ａ
 50
0.0
 41
0.8
 51
0.0
  7
KANJI68
  0
TEXT
  8
0
  6
CONTINUOUS
 62
     2
 10
1913.75
 20
982.25
 30
1.5
 40
15.0
  1
３φ
 50
0.0
 41
0.9
 51
0.0
  7
KANJI62
  0
TEXT
  8
0
  6
CONTINUOUS
 62
     2
 10
1963.75
 20
982.25
 30
1.5
 40
15.0
  1
４Ｐ
 50
0.0
 41
0.9
 51
0.0
  7
KANJI62
  0
TEXT
  8
0
  6
CONTINUOUS
 62
     2
 10
1795.75
 20
1017.25
 30
1.0
 40
16.0
  1
マンセル　７．５ＧＹ　５／４．５
 50
0.0
 41
0.71875
 51
0.0
  7
KANJI69
  0
TEXT
  8
0
  6
CONTINUOUS
 62
     2
 10
1795.75
 20
947.25
 30
1.5
 40
15.0
  1
　　　　　　　／　　　
 50
0.0
 41
0.9
 51
0.0
  7
KANJI62
  0
TEXT
  8
0
  6
CONTINUOUS
 62
     2
 10
1795.75
 20
912.25
 30
1.5
 40
15.0
  1
　　　　５０／　６０
 50
0.0
 41
0.9
 51
0.0
  7
KANJI62
  0
TEXT
  8
0
  6
CONTINUOUS
 62
     2
 10
1795.75
 20
877.25
 30
1.5
 40
15.0
  1
　　　　　　　／　　　
 50
0.0
 41
0.9
 51
0.0
  7
KANJI62
  0
TEXT
  8
0
  6
CONTINUOUS
 62
     2
 10
1966.25
 20
1193.25
 30
0.128
 40
16.0
  1
ｍｍ
 50
0.0
 41
0.8
 51
0.0
  7
KANJI70
  0
TEXT
  8
0
  6
CONTINUOUS
 62
     2
 10
1933.75
 20
1157.25
 30
0.0
 40
17.5
  1
ｍｍ／ｓｅｃ
 50
0.0
 41
0.571428571
 51
0.0
  7
KANJI71
  0
TEXT
  8
0
  6
CONTINUOUS
 62
     2
 10
1800.75
 20
982.25
 30
1.5
 40
15.0
  1
　０．３ＫＷ
 50
0.0
 41
0.9
 51
0.0
  7
KANJI62
  0
TEXT
  8
0
  6
CONTINUOUS
 62
     2
 10
1807.0
 20
1260.5
 30
1.0
 40
15.0
  1
ＭＣＬＢ０１－　　Ｊ
 50
0.0
 41
0.833333333
 51
0.0
  7
KANJI72
  0
TEXT
  8
0
  6
CONTINUOUS
 62
     2
 10
1793.25
 20
1157.25
 30
1.5
 40
15.0
  1
　　２５／３０
 50
0.0
 41
0.9
 51
0.0
  7
KANJI62
  0
TEXT
  8
0
  6
CONTINUOUS
 62
     2
 10
1832.25
 20
1227.25
 30
1.5
 40
15.0
  1
９８０Ｎ（１００ｋｇ）
 50
0.0
 41
0.9
 51
0.0
  7
KANJI62
  0
TEXT
  8
0
  6
CONTINUOUS
 62
     2
 10
1804.125
 20
1121.125
 30
0.0
 40
15.0
  1
２．９Ｎ・ｍ（０．３ｋｇ・ｍ）
 50
0.0
 41
0.833333333
 51
0.0
  7
KANJI73
  0
LINE
  8
0
  6
CONTINUOUS
 62
     1
 10
1566.0
 20
622.25
 30
0.0
 11
2003.5
 21
622.25
 31
0.0
  0
LINE
  8
0
  6
CONTINUOUS
 62
     2
 10
1566.0
 20
657.25
 30
0.0
 11
2003.5
 21
657.25
 31
0.0
  0
TEXT
  8
0
  6
CONTINUOUS
 62
     2
 10
1957.5
 20
632.4
 30
0.0
 40
17.5
  1
ｋｇ
 50
0.0
 41
0.9
 51
0.0
  7
KANJI74
  0
TEXT
  8
0
  6
CONTINUOUS
 62
     2
 10
1593.5
 20
666.25
 30
150.371428571
 40
19.0
  1
台数
 50
0.0
 41
0.9
 51
0.0
  7
KANJI54
  0
LINE
  8
0
  6
CONTINUOUS
 62
     1
 10
1565.75
 20
1337.25
 30
0.0
 11
1565.75
 21
622.25
 31
0.0
  0
LINE
  8
0
  6
CONTINUOUS
 62
     2
 10
1795.75
 20
1287.25
 30
0.0
 11
1795.75
 21
622.25
 31
0.0
  0
LINE
  8
0
  6
CONTINUOUS
 62
     1
 10
2003.25
 20
1337.25
 30
0.0
 11
2003.25
 21
622.25
 31
0.0
  0
TEXT
  8
0
  6
CONTINUOUS
 62
     2
 10
1597.5
 20
631.25
 30
5.0
 40
17.5
  1
概算重量（１台当り）
 50
0.0
 41
0.857142857
 51
0.0
  7
KANJI22
  0
ENDSEC
  0
EOF
